ISO-10303-21;
HEADER;
FILE_DESCRIPTION (( 'STEP AP203' ),
    '1' );
FILE_NAME ('Ñîåäèíèòåëüíàÿ íàêëàäêà CGB_37353.STEP',
    '2012-11-09T08:54:43',
    ( 'Àñååâ' ),
    ( '' ),
    'SwSTEP 2.0',
    'SolidWorks 2012',
    '' );
FILE_SCHEMA (( 'CONFIG_CONTROL_DESIGN' ));
ENDSEC;

DATA;
#1 =( NAMED_UNIT ( * ) PLANE_ANGLE_UNIT ( ) SI_UNIT ( $, .RADIAN. ) );
#2 = APPROVAL_STATUS ( 'not_yet_approved' ) ;
#3 = DIRECTION ( 'NONE',  ( 1.000000000000000000, 0.0000000000000000000, -0.0000000000000000000 ) ) ;
#4 = APPROVAL_ROLE ( '' ) ;
#5 = APPROVAL_STATUS ( 'not_yet_approved' ) ;
#6 = APPROVAL_ROLE ( '' ) ;
#7 = DIRECTION ( 'NONE',  ( 0.0000000000000000000, -0.0000000000000000000, -1.000000000000000000 ) ) ;
#8 = DIRECTION ( 'NONE',  ( 0.0000000000000000000, 0.0000000000000000000, 1.000000000000000000 ) ) ;
#9 = DIRECTION ( 'NONE',  ( 1.000000000000000000, 0.0000000000000000000, 0.0000000000000000000 ) ) ;
#10 = DIRECTION ( 'NONE',  ( 1.000000000000000000, -1.734723475976807100E-014, 0.0000000000000000000 ) ) ;
#11 = DIRECTION ( 'NONE',  ( 1.000000000000000000, 0.0000000000000000000, -0.0000000000000000000 ) ) ;
#12 = PERSON_AND_ORGANIZATION_ROLE ( 'design_supplier' ) ;
#13 = CARTESIAN_POINT ( 'NONE',  ( -3.889557987365081000E-014, -9.199999999999999300, -47.50000000000000000 ) ) ;
#14 = CARTESIAN_POINT ( 'NONE',  ( -72.00000000000000000, 0.0000000000000000000, -65.00000000000000000 ) ) ;
#15 = DATE_TIME_ROLE ( 'creation_date' ) ;
#16 = CARTESIAN_POINT ( 'NONE',  ( -72.00000000000000000, 0.0000000000000000000, 0.0000000000000000000 ) ) ;
#17 = CARTESIAN_POINT ( 'NONE',  ( -72.00000000000000000, 0.0000000000000000000, -65.00000000000000000 ) ) ;
#18 = CARTESIAN_POINT ( 'NONE',  ( 2.499999999999960900, 0.8000000000000008200, -47.50000000000000000 ) ) ;
#19 = CARTESIAN_POINT ( 'NONE',  ( -72.00000000000000000, 0.0000000000000000000, 0.0000000000000000000 ) ) ;
#20 = DIRECTION ( 'NONE',  ( 0.0000000000000000000, -1.000000000000000000, 0.0000000000000000000 ) ) ;
#21 = CARTESIAN_POINT ( 'NONE',  ( 2.499999999999960900, 0.8000000000000008200, -17.50000000000000000 ) ) ;
#22 = PLANE ( 'NONE',  #156 ) ;
#23 = PERSON_AND_ORGANIZATION_ROLE ( 'creator' ) ;
#24 = DIRECTION ( 'NONE',  ( 0.0000000000000000000, 0.0000000000000000000, 1.000000000000000000 ) ) ;
#25 =( LENGTH_UNIT ( ) NAMED_UNIT ( * ) SI_UNIT ( .MILLI., .METRE. ) );
#26 = CARTESIAN_POINT ( 'NONE',  ( 72.00000000000000000, 0.0000000000000000000, 0.0000000000000000000 ) ) ;
#27 = CARTESIAN_POINT ( 'NONE',  ( -3.889557987365081000E-014, -9.199999999999999300, -17.50000000000000000 ) ) ;
#28 = PLANE ( 'NONE',  #166 ) ;
#29 = CARTESIAN_POINT ( 'NONE',  ( 72.00000000000001400, 0.8000000000000000400, -65.00000000000000000 ) ) ;
#30 =( NAMED_UNIT ( * ) SI_UNIT ( $, .STERADIAN. ) SOLID_ANGLE_UNIT ( ) );
#31 = CARTESIAN_POINT ( 'NONE',  ( 72.00000000000000000, 0.0000000000000000000, -65.00000000000000000 ) ) ;
#32 = DIRECTION ( 'NONE',  ( 1.054085445472018000E-017, 1.000000000000000000, -0.0000000000000000000 ) ) ;
#33 = CARTESIAN_POINT ( 'NONE',  ( -72.00000000000000000, 0.0000000000000000000, -65.00000000000000000 ) ) ;
#34 = PLANE ( 'NONE',  #167 ) ;
#35 = DIRECTION ( 'NONE',  ( 0.0000000000000000000, 0.0000000000000000000, 1.000000000000000000 ) ) ;
#36 = DIRECTION ( 'NONE',  ( 1.734723475976807100E-014, 1.000000000000000000, 0.0000000000000000000 ) ) ;
#37 = CARTESIAN_POINT ( 'NONE',  ( -3.884808149276096600E-014, 0.0000000000000000000, -50.00000000000000000 ) ) ;
#38 = CARTESIAN_POINT ( 'NONE',  ( -3.884808149276096600E-014, 0.0000000000000000000, -20.00000000000000000 ) ) ;
#39 = DIRECTION ( 'NONE',  ( -1.000000000000000000, 1.054085445472018000E-017, 0.0000000000000000000 ) ) ;
#40 = PLANE ( 'NONE',  #144 ) ;
#41 = CARTESIAN_POINT ( 'NONE',  ( -72.00000000000000000, 0.8000000000000016000, -65.00000000000000000 ) ) ;
#42 = CARTESIAN_POINT ( 'NONE',  ( 72.00000000000000000, 0.0000000000000000000, -65.00000000000000000 ) ) ;
#43 = CARTESIAN_POINT ( 'NONE',  ( 72.00000000000000000, 0.0000000000000000000, 0.0000000000000000000 ) ) ;
#44 = CARTESIAN_POINT ( 'NONE',  ( -3.884395119877054200E-014, 0.8000000000000008200, -17.50000000000000000 ) ) ;
#45 = CARTESIAN_POINT ( 'NONE',  ( -72.00000000000000000, 0.0000000000000000000, 0.0000000000000000000 ) ) ;
#46 = CARTESIAN_POINT ( 'NONE',  ( -72.00000000000000000, 0.0000000000000000000, -65.00000000000000000 ) ) ;
#47 = DIRECTION ( 'NONE',  ( -0.0000000000000000000, -1.000000000000000000, -0.0000000000000000000 ) ) ;
#48 = DIRECTION ( 'NONE',  ( 1.000000000000000000, 0.0000000000000000000, 0.0000000000000000000 ) ) ;
#49 = MECHANICAL_CONTEXT ( 'NONE', #92, 'mechanical' ) ;
#50 = CARTESIAN_POINT ( 'NONE',  ( -72.00000000000000000, 0.0000000000000000000, -65.00000000000000000 ) ) ;
#51 = DIRECTION ( 'NONE',  ( -0.0000000000000000000, 1.000000000000000000, -0.0000000000000000000 ) ) ;
#52 = DIRECTION ( 'NONE',  ( 1.000000000000000000, 0.0000000000000000000, 0.0000000000000000000 ) ) ;
#53 = DIRECTION ( 'NONE',  ( -0.0000000000000000000, -1.000000000000000000, -0.0000000000000000000 ) ) ;
#54 = APPROVAL_STATUS ( 'not_yet_approved' ) ;
#55 = APPROVAL_ROLE ( '' ) ;
#56 = DIRECTION ( 'NONE',  ( -1.000000000000000000, 0.0000000000000000000, 0.0000000000000000000 ) ) ;
#57 = PLANE ( 'NONE',  #162 ) ;
#58 = CARTESIAN_POINT ( 'NONE',  ( -72.00000000000000000, 0.0000000000000000000, -65.00000000000000000 ) ) ;
#59 = DIRECTION ( 'NONE',  ( 1.734723475976807100E-014, 1.000000000000000000, 0.0000000000000000000 ) ) ;
#60 = CARTESIAN_POINT ( 'NONE',  ( 72.00000000000000000, 0.0000000000000000000, -65.00000000000000000 ) ) ;
#61 = CARTESIAN_POINT ( 'NONE',  ( -3.884395119877054200E-014, 0.8000000000000008200, -47.50000000000000000 ) ) ;
#62 = CARTESIAN_POINT ( 'NONE',  ( -72.00000000000000000, 0.8000000000000016000, 0.0000000000000000000 ) ) ;
#63 = CARTESIAN_POINT ( 'NONE',  ( -72.00000000000000000, 0.8000000000000016000, -65.00000000000000000 ) ) ;
#64 = CARTESIAN_POINT ( 'NONE',  ( -72.00000000000000000, 0.8000000000000016000, -65.00000000000000000 ) ) ;
#65 = DIRECTION ( 'NONE',  ( 0.0000000000000000000, 0.0000000000000000000, 1.000000000000000000 ) ) ;
#66 = CARTESIAN_POINT ( 'NONE',  ( 72.00000000000000000, 0.0000000000000000000, -65.00000000000000000 ) ) ;
#67 = DIRECTION ( 'NONE',  ( -5.162867488026211000E-018, -1.000000000000000000, 0.0000000000000000000 ) ) ;
#68 = DIRECTION ( 'NONE',  ( 1.734723475976807100E-014, 1.000000000000000000, 0.0000000000000000000 ) ) ;
#69 = DIRECTION ( 'NONE',  ( -1.000000000000000000, 1.054085445472018100E-017, -0.0000000000000000000 ) ) ;
#70 = CARTESIAN_POINT ( 'NONE',  ( -3.884808149276096600E-014, 0.0000000000000000000, -17.50000000000000000 ) ) ;
#71 = CARTESIAN_POINT ( 'NONE',  ( 72.00000000000001400, 0.8000000000000000400, -65.00000000000000000 ) ) ;
#72 = DIRECTION ( 'NONE',  ( 1.000000000000000000, 0.0000000000000000000, 0.0000000000000000000 ) ) ;
#73 = CARTESIAN_POINT ( 'NONE',  ( -72.00000000000000000, 0.8000000000000016000, 0.0000000000000000000 ) ) ;
#74 = SECURITY_CLASSIFICATION_LEVEL ( 'unclassified' ) ;
#75 = DIRECTION ( 'NONE',  ( -1.000000000000000000, 1.054085445472018100E-017, -0.0000000000000000000 ) ) ;
#76 = CARTESIAN_POINT ( 'NONE',  ( -72.00000000000000000, 0.8000000000000016000, -65.00000000000000000 ) ) ;
#77 = DIRECTION ( 'NONE',  ( 0.0000000000000000000, 0.0000000000000000000, -1.000000000000000000 ) ) ;
#78 = CARTESIAN_POINT ( 'NONE',  ( -72.00000000000000000, 0.0000000000000000000, 0.0000000000000000000 ) ) ;
#79 = DIRECTION ( 'NONE',  ( 0.0000000000000000000, -1.000000000000000000, 0.0000000000000000000 ) ) ;
#80 = DATE_TIME_ROLE ( 'classification_date' ) ;
#81 = PERSON_AND_ORGANIZATION_ROLE ( 'creator' ) ;
#82 = APPLICATION_CONTEXT ( 'configuration controlled 3d designs of mechanical parts and assemblies' ) ;
#83 = DIRECTION ( 'NONE',  ( -1.000000000000000000, 0.0000000000000000000, 0.0000000000000000000 ) ) ;
#84 = PERSON_AND_ORGANIZATION_ROLE ( 'classification_officer' ) ;
#85 = DIRECTION ( 'NONE',  ( 5.162867488026211000E-018, 1.000000000000000000, 0.0000000000000000000 ) ) ;
#86 = DIRECTION ( 'NONE',  ( 0.0000000000000000000, 0.0000000000000000000, 1.000000000000000000 ) ) ;
#87 = DIRECTION ( 'NONE',  ( 5.162867488026211000E-018, 1.000000000000000000, 0.0000000000000000000 ) ) ;
#88 = PLANE ( 'NONE',  #164 ) ;
#89 = CARTESIAN_POINT ( 'NONE',  ( 72.00000000000001400, 0.8000000000000000400, 0.0000000000000000000 ) ) ;
#90 = APPLICATION_PROTOCOL_DEFINITION ( 'international standard', 'config_control_design', 1994, #82 ) ;
#91 = DIRECTION ( 'NONE',  ( -1.000000000000000000, 0.0000000000000000000, 0.0000000000000000000 ) ) ;
#92 = APPLICATION_CONTEXT ( 'configuration controlled 3d designs of mechanical parts and assemblies' ) ;
#93 = DIRECTION ( 'NONE',  ( 1.000000000000000000, 0.0000000000000000000, 0.0000000000000000000 ) ) ;
#94 = DIRECTION ( 'NONE',  ( 0.0000000000000000000, 0.0000000000000000000, 1.000000000000000000 ) ) ;
#95 = DIRECTION ( 'NONE',  ( 5.162867488026211000E-018, 1.000000000000000000, 0.0000000000000000000 ) ) ;
#96 = CARTESIAN_POINT ( 'NONE',  ( -72.00000000000000000, 0.0000000000000000000, -65.00000000000000000 ) ) ;
#97 = CARTESIAN_POINT ( 'NONE',  ( -3.884808149276096600E-014, 0.0000000000000000000, -47.50000000000000000 ) ) ;
#98 = DIRECTION ( 'NONE',  ( 0.0000000000000000000, 0.0000000000000000000, -1.000000000000000000 ) ) ;
#99 = CARTESIAN_POINT ( 'NONE',  ( 0.0000000000000000000, 0.0000000000000000000, 0.0000000000000000000 ) ) ;
#100 = DIRECTION ( 'NONE',  ( 0.0000000000000000000, 0.0000000000000000000, 1.000000000000000000 ) ) ;
#101 = DIRECTION ( 'NONE',  ( 0.0000000000000000000, 0.0000000000000000000, 1.000000000000000000 ) ) ;
#102 = PERSON_AND_ORGANIZATION_ROLE ( 'design_owner' ) ;
#103 = APPLICATION_PROTOCOL_DEFINITION ( 'international standard', 'config_control_design', 1994, #92 ) ;
#104 = EDGE_CURVE ( 'NONE', #282, #112, #248, .T. ) ;
#105 = EDGE_CURVE ( 'NONE', #111, #112, #245, .T. ) ;
#106 = DESIGN_CONTEXT ( 'detailed design', #82, 'design' ) ;
#107 = PRODUCT_DEFINITION_SHAPE ( 'NONE', 'NONE',  #151 ) ;
#108 = VERTEX_POINT ( 'NONE', #29 ) ;
#109 = EDGE_LOOP ( 'NONE', ( #262 ) ) ;
#110 = VERTEX_POINT ( 'NONE', #96 ) ;
#111 = VERTEX_POINT ( 'NONE', #60 ) ;
#112 = VERTEX_POINT ( 'NONE', #26 ) ;
#113 = EDGE_LOOP ( 'NONE', ( #253 ) ) ;
#114 = EDGE_LOOP ( 'NONE', ( #281, #278, #260, #263 ) ) ;
#115 = EDGE_LOOP ( 'NONE', ( #258, #256, #257, #252 ) ) ;
#116 = EDGE_LOOP ( 'NONE', ( #268, #280, #264, #267 ) ) ;
#117 = EDGE_LOOP ( 'NONE', ( #270 ) ) ;
#118 = EDGE_LOOP ( 'NONE', ( #259 ) ) ;
#119 = EDGE_LOOP ( 'NONE', ( #251, #276, #272, #279 ) ) ;
#120 = EDGE_LOOP ( 'NONE', ( #269 ) ) ;
#121 = EDGE_LOOP ( 'NONE', ( #265 ) ) ;
#122 = VERTEX_POINT ( 'NONE', #89 ) ;
#123 = EDGE_LOOP ( 'NONE', ( #250 ) ) ;
#124 = EDGE_LOOP ( 'NONE', ( #271 ) ) ;
#125 = EDGE_LOOP ( 'NONE', ( #274, #277, #273, #275 ) ) ;
#126 = CLOSED_SHELL ( 'NONE', ( #301, #305, #304, #303, #300, #299, #302, #298 ) ) ;
#127 = EDGE_LOOP ( 'NONE', ( #261, #254, #266, #255 ) ) ;
#128 = UNCERTAINTY_MEASURE_WITH_UNIT (LENGTH_MEASURE( 1.000000000000000100E-005 ), #25, 'distance_accuracy_value', 'NONE');
#129 = MANIFOLD_SOLID_BREP ( 'Çåðêàëüíîå îòðàæåíèå1', #126 ) ;
#130 = ADVANCED_BREP_SHAPE_REPRESENTATION ( 'Tþõôøýøªõû¹ýð  ýðúûðôúð CGB_37353', ( #129, #149 ), #169 ) ;
#131 = EDGE_CURVE ( 'NONE', #108, #122, #243, .T. ) ;
#132 = EDGE_CURVE ( 'NONE', #108, #283, #240, .T. ) ;
#133 = EDGE_CURVE ( 'NONE', #112, #122, #246, .T. ) ;
#134 = EDGE_CURVE ( 'NONE', #214, #214, #239, .T. ) ;
#135 = EDGE_CURVE ( 'NONE', #284, #282, #236, .T. ) ;
#136 = EDGE_CURVE ( 'NONE', #283, #110, #237, .T. ) ;
#137 = EDGE_CURVE ( 'NONE', #110, #111, #249, .T. ) ;
#138 = EDGE_CURVE ( 'NONE', #283, #284, #233, .T. ) ;
#139 = EDGE_CURVE ( 'NONE', #111, #108, #231, .T. ) ;
#140 = EDGE_CURVE ( 'NONE', #110, #282, #229, .T. ) ;
#141 = EDGE_CURVE ( 'NONE', #183, #183, #192, .T. ) ;
#142 = EDGE_CURVE ( 'NONE', #122, #284, #207, .T. ) ;
#143 = EDGE_CURVE ( 'NONE', #200, #200, #220, .T. ) ;
#144 = AXIS2_PLACEMENT_3D ( 'NONE', #41, #32, #39 ) ;
#145 = AXIS2_PLACEMENT_3D ( 'NONE', #44, #67, #52 ) ;
#146 = AXIS2_PLACEMENT_3D ( 'NONE', #97, #79, #77 ) ;
#147 = AXIS2_PLACEMENT_3D ( 'NONE', #61, #95, #72 ) ;
#148 = AXIS2_PLACEMENT_3D ( 'NONE', #70, #51, #98 ) ;
#149 = AXIS2_PLACEMENT_3D ( 'NONE', #99, #101, #93 ) ;
#150 = CC_DESIGN_PERSON_AND_ORGANIZATION_ASSIGNMENT ( #213, #102, ( #296 ) ) ;
#151 = PRODUCT_DEFINITION ( 'UNKNOWN', '', #163, #106 ) ;
#152 = APPROVAL ( #5, 'UNSPECIFIED' ) ;
#153 = CC_DESIGN_APPROVAL ( #152, ( #151 ) ) ;
#154 = CC_DESIGN_PERSON_AND_ORGANIZATION_ASSIGNMENT ( #211, #23, ( #151 ) ) ;
#155 = AXIS2_PLACEMENT_3D ( 'NONE', #13, #85, #83 ) ;
#156 = AXIS2_PLACEMENT_3D ( 'NONE', #78, #94, #3 ) ;
#157 = CC_DESIGN_APPROVAL ( #158, ( #176 ) ) ;
#158 = APPROVAL ( #54, 'UNSPECIFIED' ) ;
#159 = CC_DESIGN_DATE_AND_TIME_ASSIGNMENT ( #210, #15, ( #151 ) ) ;
#160 = CC_DESIGN_SECURITY_CLASSIFICATION ( #176, ( #163 ) ) ;
#161 = PRODUCT_RELATED_PRODUCT_CATEGORY ( 'detail', '', ( #296 ) ) ;
#162 = AXIS2_PLACEMENT_3D ( 'NONE', #33, #8, #11 ) ;
#163 = PRODUCT_DEFINITION_FORMATION_WITH_SPECIFIED_SOURCE ( 'ANY', '', #296, .NOT_KNOWN. ) ;
#164 = AXIS2_PLACEMENT_3D ( 'NONE', #14, #20, #7 ) ;
#165 = AXIS2_PLACEMENT_3D ( 'NONE', #27, #87, #91 ) ;
#166 = AXIS2_PLACEMENT_3D ( 'NONE', #31, #10, #36 ) ;
#167 = AXIS2_PLACEMENT_3D ( 'NONE', #50, #56, #35 ) ;
#168 = APPROVAL ( #2, 'UNSPECIFIED' ) ;
#169 =( GEOMETRIC_REPRESENTATION_CONTEXT ( 3 ) GLOBAL_UNCERTAINTY_ASSIGNED_CONTEXT ( ( #128 ) ) GLOBAL_UNIT_ASSIGNED_CONTEXT ( ( #25, #1, #30 ) ) REPRESENTATION_CONTEXT ( 'NONE', 'WORKASPACE' ) );
#170 = CC_DESIGN_APPROVAL ( #168, ( #163 ) ) ;
#171 = EDGE_CURVE ( 'NONE', #227, #227, #218, .T. ) ;
#172 = CC_DESIGN_PERSON_AND_ORGANIZATION_ASSIGNMENT ( #208, #81, ( #163 ) ) ;
#173 = CC_DESIGN_PERSON_AND_ORGANIZATION_ASSIGNMENT ( #185, #12, ( #163 ) ) ;
#174 = CC_DESIGN_DATE_AND_TIME_ASSIGNMENT ( #289, #80, ( #176 ) ) ;
#175 = CC_DESIGN_PERSON_AND_ORGANIZATION_ASSIGNMENT ( #193, #84, ( #176 ) ) ;
#176 = SECURITY_CLASSIFICATION ( '', '', #74 ) ;
#177 = CALENDAR_DATE ( 2012, 9, 11 ) ;
#178 = VECTOR ( 'NONE', #100, 1000.000000000000000 ) ;
#179 = PERSON_AND_ORGANIZATION ( #297, #226 ) ;
#180 = COORDINATED_UNIVERSAL_TIME_OFFSET ( 4, 0, .AHEAD. ) ;
#181 = CALENDAR_DATE ( 2012, 9, 11 ) ;
#182 = PERSON_AND_ORGANIZATION ( #297, #226 ) ;
#183 = VERTEX_POINT ( 'NONE', #37 ) ;
#184 = FACE_OUTER_BOUND ( 'NONE', #114, .T. ) ;
#185 = PERSON_AND_ORGANIZATION ( #297, #226 ) ;
#186 = CYLINDRICAL_SURFACE ( 'NONE', #165, 2.500000000000000000 ) ;
#187 = FACE_BOUND ( 'NONE', #121, .T. ) ;
#188 = FACE_OUTER_BOUND ( 'NONE', #123, .T. ) ;
#189 = FACE_BOUND ( 'NONE', #120, .T. ) ;
#190 = FACE_OUTER_BOUND ( 'NONE', #127, .T. ) ;
#191 = VECTOR ( 'NONE', #75, 1000.000000000000000 ) ;
#192 = CIRCLE ( 'NONE', #146, 2.500000000000002200 ) ;
#193 = PERSON_AND_ORGANIZATION ( #297, #226 ) ;
#194 = DATE_AND_TIME ( #177, #209 ) ;
#195 = APPROVAL_PERSON_ORGANIZATION ( #179, #168, #4 ) ;
#196 = LOCAL_TIME ( 12, 54, 43.00000000000000000, #180 ) ;
#197 = DATE_AND_TIME ( #181, #212 ) ;
#198 = APPROVAL_PERSON_ORGANIZATION ( #182, #152, #6 ) ;
#199 = SHAPE_DEFINITION_REPRESENTATION ( #107, #130 ) ;
#200 = VERTEX_POINT ( 'NONE', #18 ) ;
#201 = FACE_BOUND ( 'NONE', #118, .T. ) ;
#202 = FACE_OUTER_BOUND ( 'NONE', #113, .T. ) ;
#203 = FACE_OUTER_BOUND ( 'NONE', #116, .T. ) ;
#204 = CYLINDRICAL_SURFACE ( 'NONE', #155, 2.500000000000000000 ) ;
#205 = FACE_OUTER_BOUND ( 'NONE', #117, .T. ) ;
#206 = FACE_OUTER_BOUND ( 'NONE', #119, .T. ) ;
#207 = LINE ( 'NONE', #62, #191 ) ;
#208 = PERSON_AND_ORGANIZATION ( #297, #226 ) ;
#209 = LOCAL_TIME ( 12, 54, 43.00000000000000000, #222 ) ;
#210 = DATE_AND_TIME ( #223, #196 ) ;
#211 = PERSON_AND_ORGANIZATION ( #297, #226 ) ;
#212 = LOCAL_TIME ( 12, 54, 43.00000000000000000, #225 ) ;
#213 = PERSON_AND_ORGANIZATION ( #297, #226 ) ;
#214 = VERTEX_POINT ( 'NONE', #21 ) ;
#215 = FACE_OUTER_BOUND ( 'NONE', #115, .T. ) ;
#216 = FACE_BOUND ( 'NONE', #109, .T. ) ;
#217 = FACE_OUTER_BOUND ( 'NONE', #124, .T. ) ;
#218 = CIRCLE ( 'NONE', #148, 2.499999999999998700 ) ;
#219 = FACE_OUTER_BOUND ( 'NONE', #125, .T. ) ;
#220 = CIRCLE ( 'NONE', #147, 2.500000000000000000 ) ;
#221 = APPROVAL_DATE_TIME ( #194, #168 ) ;
#222 = COORDINATED_UNIVERSAL_TIME_OFFSET ( 4, 0, .AHEAD. ) ;
#223 = CALENDAR_DATE ( 2012, 9, 11 ) ;
#224 = APPROVAL_DATE_TIME ( #197, #152 ) ;
#225 = COORDINATED_UNIVERSAL_TIME_OFFSET ( 4, 0, .AHEAD. ) ;
#226 = ORGANIZATION ( 'UNSPECIFIED', 'UNSPECIFIED', '' ) ;
#227 = VERTEX_POINT ( 'NONE', #38 ) ;
#228 = VECTOR ( 'NONE', #68, 1000.000000000000000 ) ;
#229 = LINE ( 'NONE', #17, #178 ) ;
#230 = VECTOR ( 'NONE', #65, 1000.000000000000000 ) ;
#231 = LINE ( 'NONE', #66, #228 ) ;
#232 = VECTOR ( 'NONE', #48, 1000.000000000000000 ) ;
#233 = LINE ( 'NONE', #63, #230 ) ;
#234 = VECTOR ( 'NONE', #47, 1000.000000000000000 ) ;
#235 = VECTOR ( 'NONE', #53, 1000.000000000000000 ) ;
#236 = LINE ( 'NONE', #45, #234 ) ;
#237 = LINE ( 'NONE', #58, #235 ) ;
#238 = VECTOR ( 'NONE', #59, 1000.000000000000000 ) ;
#239 = CIRCLE ( 'NONE', #145, 2.500000000000000000 ) ;
#240 = LINE ( 'NONE', #64, #241 ) ;
#241 = VECTOR ( 'NONE', #69, 1000.000000000000000 ) ;
#242 = VECTOR ( 'NONE', #86, 1000.000000000000000 ) ;
#243 = LINE ( 'NONE', #71, #242 ) ;
#244 = VECTOR ( 'NONE', #24, 1000.000000000000000 ) ;
#245 = LINE ( 'NONE', #42, #244 ) ;
#246 = LINE ( 'NONE', #43, #238 ) ;
#247 = VECTOR ( 'NONE', #9, 1000.000000000000000 ) ;
#248 = LINE ( 'NONE', #16, #247 ) ;
#249 = LINE ( 'NONE', #46, #232 ) ;
#250 = ORIENTED_EDGE ( 'NONE', *, *, #171, .F. ) ;
#251 = ORIENTED_EDGE ( 'NONE', *, *, #137, .F. ) ;
#252 = ORIENTED_EDGE ( 'NONE', *, *, #131, .T. ) ;
#253 = ORIENTED_EDGE ( 'NONE', *, *, #134, .F. ) ;
#254 = ORIENTED_EDGE ( 'NONE', *, *, #138, .F. ) ;
#255 = ORIENTED_EDGE ( 'NONE', *, *, #140, .T. ) ;
#256 = ORIENTED_EDGE ( 'NONE', *, *, #105, .F. ) ;
#257 = ORIENTED_EDGE ( 'NONE', *, *, #139, .T. ) ;
#258 = ORIENTED_EDGE ( 'NONE', *, *, #133, .F. ) ;
#259 = ORIENTED_EDGE ( 'NONE', *, *, #134, .T. ) ;
#260 = ORIENTED_EDGE ( 'NONE', *, *, #132, .T. ) ;
#261 = ORIENTED_EDGE ( 'NONE', *, *, #135, .F. ) ;
#262 = ORIENTED_EDGE ( 'NONE', *, *, #171, .T. ) ;
#263 = ORIENTED_EDGE ( 'NONE', *, *, #138, .T. ) ;
#264 = ORIENTED_EDGE ( 'NONE', *, *, #137, .T. ) ;
#265 = ORIENTED_EDGE ( 'NONE', *, *, #143, .F. ) ;
#266 = ORIENTED_EDGE ( 'NONE', *, *, #136, .T. ) ;
#267 = ORIENTED_EDGE ( 'NONE', *, *, #105, .T. ) ;
#268 = ORIENTED_EDGE ( 'NONE', *, *, #104, .F. ) ;
#269 = ORIENTED_EDGE ( 'NONE', *, *, #141, .F. ) ;
#270 = ORIENTED_EDGE ( 'NONE', *, *, #141, .T. ) ;
#271 = ORIENTED_EDGE ( 'NONE', *, *, #143, .T. ) ;
#272 = ORIENTED_EDGE ( 'NONE', *, *, #132, .F. ) ;
#273 = ORIENTED_EDGE ( 'NONE', *, *, #142, .T. ) ;
#274 = ORIENTED_EDGE ( 'NONE', *, *, #104, .T. ) ;
#275 = ORIENTED_EDGE ( 'NONE', *, *, #135, .T. ) ;
#276 = ORIENTED_EDGE ( 'NONE', *, *, #136, .F. ) ;
#277 = ORIENTED_EDGE ( 'NONE', *, *, #133, .T. ) ;
#278 = ORIENTED_EDGE ( 'NONE', *, *, #131, .F. ) ;
#279 = ORIENTED_EDGE ( 'NONE', *, *, #139, .F. ) ;
#280 = ORIENTED_EDGE ( 'NONE', *, *, #140, .F. ) ;
#281 = ORIENTED_EDGE ( 'NONE', *, *, #142, .F. ) ;
#282 = VERTEX_POINT ( 'NONE', #19 ) ;
#283 = VERTEX_POINT ( 'NONE', #76 ) ;
#284 = VERTEX_POINT ( 'NONE', #73 ) ;
#285 = COORDINATED_UNIVERSAL_TIME_OFFSET ( 4, 0, .AHEAD. ) ;
#286 = APPROVAL_DATE_TIME ( #291, #158 ) ;
#287 = CALENDAR_DATE ( 2012, 9, 11 ) ;
#288 = CALENDAR_DATE ( 2012, 9, 11 ) ;
#289 = DATE_AND_TIME ( #287, #293 ) ;
#290 = PERSON_AND_ORGANIZATION ( #297, #226 ) ;
#291 = DATE_AND_TIME ( #288, #295 ) ;
#292 = APPROVAL_PERSON_ORGANIZATION ( #290, #158, #55 ) ;
#293 = LOCAL_TIME ( 12, 54, 43.00000000000000000, #294 ) ;
#294 = COORDINATED_UNIVERSAL_TIME_OFFSET ( 4, 0, .AHEAD. ) ;
#295 = LOCAL_TIME ( 12, 54, 43.00000000000000000, #285 ) ;
#296 = PRODUCT ( 'Ñîåäèíèòåëüíàÿ íàêëàäêà CGB_37353', 'Ñîåäèíèòåëüíàÿ íàêëàäêà CGB_37353', '', ( #49 ) ) ;
#297 = PERSON ( 'UNSPECIFIED', 'UNSPECIFIED', 'UNSPECIFIED', ('UNSPECIFIED'), ('UNSPECIFIED'), ('UNSPECIFIED') ) ;
#298 = ADVANCED_FACE ( 'NONE', ( #205, #217 ), #204, .F. ) ;
#299 = ADVANCED_FACE ( 'NONE', ( #219 ), #22, .T. ) ;
#300 = ADVANCED_FACE ( 'NONE', ( #206 ), #57, .F. ) ;
#301 = ADVANCED_FACE ( 'NONE', ( #189, #203, #216 ), #88, .T. ) ;
#302 = ADVANCED_FACE ( 'NONE', ( #188, #202 ), #186, .F. ) ;
#303 = ADVANCED_FACE ( 'NONE', ( #215 ), #28, .T. ) ;
#304 = ADVANCED_FACE ( 'NONE', ( #190 ), #34, .T. ) ;
#305 = ADVANCED_FACE ( 'NONE', ( #187, #184, #201 ), #40, .T. ) ;
ENDSEC;
END-ISO-10303-21;
