  0
SECTION
  2
HEADER
  9
$ACADVER
  1
AC1015
  9
$ACADMAINTVER
 70
     6
  9
$DWGCODEPAGE
  3
ANSI_1251
  9
$INSBASE
 10
0.0
 20
0.0
 30
0.0
  9
$EXTMIN
 10
0.0
 20
0.0
 30
0.0
  9
$EXTMAX
 10
2000.0
 20
2000.0
 30
0.0
  9
$LIMMIN
 10
0.0
 20
0.0
  9
$LIMMAX
 10
2000.0
 20
2000.0
  9
$ORTHOMODE
 70
     0
  9
$REGENMODE
 70
     1
  9
$FILLMODE
 70
     1
  9
$QTEXTMODE
 70
     0
  9
$MIRRTEXT
 70
     1
  9
$LTSCALE
 40
1.0
  9
$ATTMODE
 70
     1
  9
$TEXTSIZE
 40
5.0
  9
$TRACEWID
 40
1.0
  9
$TEXTSTYLE
  7
Standard
  9
$CLAYER
  8
0
  9
$CELTYPE
  6
ByLayer
  9
$CECOLOR
 62
   256
  9
$CELTSCALE
 40
1.0
  9
$DISPSILH
 70
     0
  9
$DIMSCALE
 40
1.0
  9
$DIMASZ
 40
5.0
  9
$DIMEXO
 40
0.0
  9
$DIMDLI
 40
3.75
  9
$DIMRND
 40
0.0
  9
$DIMDLE
 40
0.0
  9
$DIMEXE
 40
1.0
  9
$DIMTP
 40
0.0
  9
$DIMTM
 40
0.0
  9
$DIMTXT
 40
3.5
  9
$DIMCEN
 40
2.5
  9
$DIMTSZ
 40
0.0
  9
$DIMTOL
 70
     0
  9
$DIMLIM
 70
     0
  9
$DIMTIH
 70
     1
  9
$DIMTOH
 70
     1
  9
$DIMSE1
 70
     0
  9
$DIMSE2
 70
     0
  9
$DIMTAD
 70
     1
  9
$DIMZIN
 70
     0
  9
$DIMBLK
  1

  9
$DIMASO
 70
     1
  9
$DIMSHO
 70
     1
  9
$DIMPOST
  1

  9
$DIMAPOST
  1

  9
$DIMALT
 70
     0
  9
$DIMALTD
 70
     3
  9
$DIMALTF
 40
0.0393700787
  9
$DIMLFAC
 40
1.0
  9
$DIMTOFL
 70
     1
  9
$DIMTVP
 40
0.0
  9
$DIMTIX
 70
     0
  9
$DIMSOXD
 70
     0
  9
$DIMSAH
 70
     0
  9
$DIMBLK1
  1

  9
$DIMBLK2
  1

  9
$DIMSTYLE
  2
ISO-25
  9
$DIMCLRD
 70
     0
  9
$DIMCLRE
 70
     0
  9
$DIMCLRT
 70
     0
  9
$DIMTFAC
 40
1.0
  9
$DIMGAP
 40
1.5
  9
$DIMJUST
 70
     0
  9
$DIMSD1
 70
     0
  9
$DIMSD2
 70
     0
  9
$DIMTOLJ
 70
     0
  9
$DIMTZIN
 70
     0
  9
$DIMALTZ
 70
     0
  9
$DIMALTTZ
 70
     0
  9
$DIMUPT
 70
     0
  9
$DIMDEC
 70
     1
  9
$DIMTDEC
 70
     1
  9
$DIMALTU
 70
     2
  9
$DIMALTTD
 70
     3
  9
$DIMTXSTY
  7
Standard
  9
$DIMAUNIT
 70
     0
  9
$DIMADEC
 70
     2
  9
$DIMALTRND
 40
0.0
  9
$DIMAZIN
 70
     0
  9
$DIMDSEP
 70
    44
  9
$DIMATFIT
 70
     3
  9
$DIMFRAC
 70
     0
  9
$DIMLDRBLK
  1

  9
$DIMLUNIT
 70
     2
  9
$DIMLWD
 70
    -2
  9
$DIMLWE
 70
    -2
  9
$DIMTMOVE
 70
     0
  9
$LUNITS
 70
     2
  9
$LUPREC
 70
     1
  9
$SKETCHINC
 40
1.0
  9
$FILLETRAD
 40
0.0
  9
$AUNITS
 70
     0
  9
$AUPREC
 70
     2
  9
$MENU
  1
.
  9
$ELEVATION
 40
0.0
  9
$PELEVATION
 40
0.0
  9
$THICKNESS
 40
0.0
  9
$LIMCHECK
 70
     0
  9
$CHAMFERA
 40
0.0
  9
$CHAMFERB
 40
0.0
  9
$CHAMFERC
 40
0.0
  9
$CHAMFERD
 40
0.0
  9
$SKPOLY
 70
     0
  9
$TDCREATE
 40
2460213.628639062
  9
$TDUCREATE
 40
2460213.503639062
  9
$TDUPDATE
 40
2460213.62863963
  9
$TDUUPDATE
 40
2460213.50363963
  9
$TDINDWG
 40
0.0000000116
  9
$TDUSRTIMER
 40
0.0000000116
  9
$USRTIMER
 70
     1
  9
$ANGBASE
 50
0.0
  9
$ANGDIR
 70
     0
  9
$PDMODE
 70
     0
  9
$PDSIZE
 40
-1.0
  9
$PLINEWID
 40
0.0
  9
$SPLFRAME
 70
     0
  9
$SPLINETYPE
 70
     6
  9
$SPLINESEGS
 70
     8
  9
$HANDSEED
  5
4DD
  9
$SURFTAB1
 70
     6
  9
$SURFTAB2
 70
     6
  9
$SURFTYPE
 70
     6
  9
$SURFU
 70
     6
  9
$SURFV
 70
     6
  9
$UCSBASE
  2

  9
$UCSNAME
  2

  9
$UCSORG
 10
0.0
 20
0.0
 30
0.0
  9
$UCSXDIR
 10
1.0
 20
0.0
 30
0.0
  9
$UCSYDIR
 10
0.0
 20
1.0
 30
0.0
  9
$UCSORTHOREF
  2

  9
$UCSORTHOVIEW
 70
     0
  9
$UCSORGTOP
 10
0.0
 20
0.0
 30
0.0
  9
$UCSORGBOTTOM
 10
0.0
 20
0.0
 30
0.0
  9
$UCSORGLEFT
 10
0.0
 20
0.0
 30
0.0
  9
$UCSORGRIGHT
 10
0.0
 20
0.0
 30
0.0
  9
$UCSORGFRONT
 10
0.0
 20
0.0
 30
0.0
  9
$UCSORGBACK
 10
0.0
 20
0.0
 30
0.0
  9
$PUCSBASE
  2

  9
$PUCSNAME
  2

  9
$PUCSORG
 10
0.0
 20
0.0
 30
0.0
  9
$PUCSXDIR
 10
1.0
 20
0.0
 30
0.0
  9
$PUCSYDIR
 10
0.0
 20
1.0
 30
0.0
  9
$PUCSORTHOREF
  2

  9
$PUCSORTHOVIEW
 70
     0
  9
$PUCSORGTOP
 10
0.0
 20
0.0
 30
0.0
  9
$PUCSORGBOTTOM
 10
0.0
 20
0.0
 30
0.0
  9
$PUCSORGLEFT
 10
0.0
 20
0.0
 30
0.0
  9
$PUCSORGRIGHT
 10
0.0
 20
0.0
 30
0.0
  9
$PUCSORGFRONT
 10
0.0
 20
0.0
 30
0.0
  9
$PUCSORGBACK
 10
0.0
 20
0.0
 30
0.0
  9
$USERI1
 70
     0
  9
$USERI2
 70
     0
  9
$USERI3
 70
     0
  9
$USERI4
 70
     0
  9
$USERI5
 70
     0
  9
$USERR1
 40
0.0
  9
$USERR2
 40
0.0
  9
$USERR3
 40
0.0
  9
$USERR4
 40
0.0
  9
$USERR5
 40
0.0
  9
$WORLDVIEW
 70
     1
  9
$SHADEDGE
 70
     3
  9
$SHADEDIF
 70
    70
  9
$TILEMODE
 70
     1
  9
$MAXACTVP
 70
    64
  9
$PINSBASE
 10
0.0
 20
0.0
 30
0.0
  9
$PLIMCHECK
 70
     0
  9
$PEXTMIN
 10
1.0000000000E+20
 20
1.0000000000E+20
 30
1.0000000000E+20
  9
$PEXTMAX
 10
-1.0000000000E+20
 20
-1.0000000000E+20
 30
-1.0000000000E+20
  9
$PLIMMIN
 10
0.0
 20
0.0
  9
$PLIMMAX
 10
420.0
 20
297.0
  9
$UNITMODE
 70
     0
  9
$VISRETAIN
 70
     1
  9
$PLINEGEN
 70
     0
  9
$PSLTSCALE
 70
     1
  9
$TREEDEPTH
 70
  3020
  9
$CMLSTYLE
  2
Standard
  9
$CMLJUST
 70
     0
  9
$CMLSCALE
 40
20.0
  9
$PROXYGRAPHICS
 70
     1
  9
$MEASUREMENT
 70
     1
  9
$CELWEIGHT
370
    -1
  9
$ENDCAPS
280
     0
  9
$JOINSTYLE
280
     0
  9
$LWDISPLAY
290
     1
  9
$INSUNITS
 70
     4
  9
$HYPERLINKBASE
  1

  9
$STYLESHEET
  1

  9
$XEDIT
290
     1
  9
$CEPSNTYPE
380
     0
  9
$PSTYLEMODE
290
     1
  9
$FINGERPRINTGUID
  2
{81a8982c-f051-4d3b-b470-e5245f442536}
  9
$VERSIONGUID
  2
{FAEB1C32-E019-11D5-929B-00C0DF256EC4}
  9
$EXTNAMES
290
     1
  9
$PSVPSCALE
 40
0.0
  9
$OLESTARTUP
290
     0
  0
ENDSEC
  0
SECTION
  2
CLASSES
  0
CLASS
  1
ACDBDICTIONARYWDFLT
  2
AcDbDictionaryWithDefault
  3
ObjectDBX Classes
 90
        0
280
     0
281
     0
  0
CLASS
  1
VISUALSTYLE
  2
AcDbVisualStyle
  3
ObjectDBX Classes
 90
     4095
280
     0
281
     0
  0
CLASS
  1
MATERIAL
  2
AcDbMaterial
  3
ObjectDBX Classes
 90
     1153
280
     0
281
     0
  0
CLASS
  1
SCALE
  2
AcDbScale
  3
ObjectDBX Classes
 90
     1153
280
     0
281
     0
  0
CLASS
  1
TABLESTYLE
  2
AcDbTableStyle
  3
ObjectDBX Classes
 90
     4095
280
     0
281
     0
  0
CLASS
  1
MLEADERSTYLE
  2
AcDbMLeaderStyle
  3
ACDB_MLEADERSTYLE_CLASS
 90
     4095
280
     0
281
     0
  0
CLASS
  1
SUN
  2
AcDbSun
  3
SCENEOE
 90
     1153
280
     0
281
     0
  0
CLASS
  1
ACDBPLACEHOLDER
  2
AcDbPlaceHolder
  3
ObjectDBX Classes
 90
        0
280
     0
281
     0
  0
CLASS
  1
LAYOUT
  2
AcDbLayout
  3
ObjectDBX Classes
 90
        0
280
     0
281
     0
  0
ENDSEC
  0
SECTION
  2
TABLES
  0
TABLE
  2
VPORT
  5
8
330
0
100
AcDbSymbolTable
 70
     1
  0
VPORT
  5
29
330
8
100
AcDbSymbolTableRecord
100
AcDbViewportTableRecord
  2
*Active
 70
     0
 10
0.0
 20
0.0
 11
1.0
 21
1.0
 12
1000.0
 22
1000.0
 13
0.0
 23
0.0
 14
10.0
 24
10.0
 15
10.0
 25
10.0
 16
0.0
 26
0.0
 36
1.0
 17
0.0
 27
0.0
 37
0.0
 40
2000.0
 41
1.0
 42
50.0
 43
0.0
 44
0.0
 50
0.0
 51
0.0
 71
     0
 72
  2000
 73
     1
 74
     3
 75
     0
 76
     0
 77
     0
 78
     0
281
     0
 65
     1
110
0.0
120
0.0
130
0.0
111
1.0
121
0.0
131
0.0
112
0.0
122
1.0
132
0.0
 79
     0
146
0.0
  0
ENDTAB
  0
TABLE
  2
LTYPE
  5
5
330
0
100
AcDbSymbolTable
 70
     8
  0
LTYPE
  5
14
330
5
100
AcDbSymbolTableRecord
100
AcDbLinetypeTableRecord
  2
ByBlock
 70
     0
  3

 72
    65
 73
     0
 40
0.0
  0
LTYPE
  5
15
330
5
100
AcDbSymbolTableRecord
100
AcDbLinetypeTableRecord
  2
ByLayer
 70
     0
  3

 72
    65
 73
     0
 40
0.0
  0
LTYPE
  5
16
330
5
100
AcDbSymbolTableRecord
100
AcDbLinetypeTableRecord
  2
Continuous
 70
     0
  3
Solid line
 72
    65
 73
     0
 40
0.0
  0
LTYPE
  5
5E
330
5
100
AcDbSymbolTableRecord
100
AcDbLinetypeTableRecord
  2
SLD-Сплошная
 70
     0
  3
SolidWorks Line Style
 72
    65
 73
     0
 40
0.0
  0
LTYPE
  5
5F
330
5
100
AcDbSymbolTableRecord
100
AcDbLinetypeTableRecord
  2
SLD-Штриховая
 70
     0
  3
SolidWorks Line Style
 72
    65
 73
     2
 40
1.905
 49
1.27
 74
     0
 49
-0.635
 74
     0
  0
LTYPE
  5
60
330
5
100
AcDbSymbolTableRecord
100
AcDbLinetypeTableRecord
  2
SLD-Штрихпункт.-с-двумя-точками
 70
     0
  3
SolidWorks Line Style
 72
    65
 73
     6
 40
12.7
 49
6.35
 74
     0
 49
-1.27
 74
     0
 49
1.27
 74
     0
 49
-1.27
 74
     0
 49
1.27
 74
     0
 49
-1.27
 74
     0
  0
LTYPE
  5
61
330
5
100
AcDbSymbolTableRecord
100
AcDbLinetypeTableRecord
  2
SLD-Штрихпункт.-утолщ.
 70
     0
  3
SolidWorks Line Style
 72
    65
 73
     4
 40
10.16
 49
6.35
 74
     0
 49
-1.27
 74
     0
 49
1.27
 74
     0
 49
-1.27
 74
     0
  0
LTYPE
  5
62
330
5
100
AcDbSymbolTableRecord
100
AcDbLinetypeTableRecord
  2
SLD-Осевая
 70
     0
  3
SolidWorks Line Style
 72
    65
 73
     4
 40
19.05
 49
15.24
 74
     0
 49
-1.27
 74
     0
 49
1.27
 74
     0
 49
-1.27
 74
     0
  0
LTYPE
  5
63
330
5
100
AcDbSymbolTableRecord
100
AcDbLinetypeTableRecord
  2
SLD-Сшитая
 70
     0
  3
SolidWorks Line Style
 72
    65
 73
     2
 40
0.635
 49
0.0
 74
     0
 49
-0.635
 74
     0
  0
LTYPE
  5
64
330
5
100
AcDbSymbolTableRecord
100
AcDbLinetypeTableRecord
  2
SLD-Тонкая-Толстая
 70
     0
  3
SolidWorks Line Style
 72
    65
 73
     2
 40
5.080508
 49
0.000508
 74
     0
 49
-5.08
 74
     0
  0
ENDTAB
  0
TABLE
  2
LAYER
  5
2
330
0
100
AcDbSymbolTable
 70
     3
  0
LAYER
  5
10
330
2
100
AcDbSymbolTableRecord
100
AcDbLayerTableRecord
  2
0
 70
     0
 62
     7
  6
Continuous
370
    -3
390
F
  0
LAYER
  5
65
330
2
100
AcDbSymbolTableRecord
100
AcDbLayerTableRecord
  2
1
 70
     0
 62
     7
  6
SLD-Сплошная
370
    -1
390
F
  0
LAYER
  5
66
330
2
100
AcDbSymbolTableRecord
100
AcDbLayerTableRecord
  2
2
 70
     0
 62
     7
  6
SLD-Сплошная
370
    -3
390
F
  0
ENDTAB
  0
TABLE
  2
STYLE
  5
3
330
0
100
AcDbSymbolTable
 70
     1
  0
STYLE
  5
11
330
3
100
AcDbSymbolTableRecord
100
AcDbTextStyleTableRecord
  2
Standard
 70
     0
 40
0.0
 41
1.0
 50
0.0
 71
     0
 42
5.0
  3
txt
  4

  0
ENDTAB
  0
TABLE
  2
VIEW
  5
6
330
0
100
AcDbSymbolTable
 70
     0
  0
ENDTAB
  0
TABLE
  2
UCS
  5
7
330
0
100
AcDbSymbolTable
 70
     0
  0
ENDTAB
  0
TABLE
  2
APPID
  5
9
330
0
100
AcDbSymbolTable
 70
     1
  0
APPID
  5
12
330
9
100
AcDbSymbolTableRecord
100
AcDbRegAppTableRecord
  2
ACAD
 70
     0
  0
ENDTAB
  0
TABLE
  2
DIMSTYLE
  5
A
330
0
100
AcDbSymbolTable
 70
     1
100
AcDbDimStyleTable
  0
DIMSTYLE
105
27
330
A
100
AcDbSymbolTableRecord
100
AcDbDimStyleTableRecord
  2
ISO-25
 70
     0
 41
2.5
 42
0.625
 43
3.75
 44
1.25
 73
     0
 74
     0
 77
     1
 78
     8
140
2.5
141
2.5
143
0.0393700787
147
0.625
171
     3
172
     1
178
     0
271
     2
272
     2
274
     3
278
    44
283
     0
284
     8
340
11
  0
ENDTAB
  0
TABLE
  2
BLOCK_RECORD
  5
1
330
0
100
AcDbSymbolTable
 70
     1
  0
BLOCK_RECORD
  5
1F
330
1
100
AcDbSymbolTableRecord
100
AcDbBlockTableRecord
  2
*Model_Space
340
22
  0
BLOCK_RECORD
  5
1B
330
1
100
AcDbSymbolTableRecord
100
AcDbBlockTableRecord
  2
*Paper_Space
340
1E
  0
BLOCK_RECORD
  5
23
330
1
100
AcDbSymbolTableRecord
100
AcDbBlockTableRecord
  2
*Paper_Space0
340
26
  0
ENDTAB
  0
ENDSEC
  0
SECTION
  2
BLOCKS
  0
BLOCK
  5
20
330
1F
100
AcDbEntity
  8
0
100
AcDbBlockBegin
  2
*Model_Space
 70
     0
 10
0.0
 20
0.0
 30
0.0
  3
*Model_Space
  1

  0
ENDBLK
  5
21
330
1F
100
AcDbEntity
  8
0
100
AcDbBlockEnd
  0
BLOCK
  5
1C
330
1B
100
AcDbEntity
 67
     1
  8
0
100
AcDbBlockBegin
  2
*Paper_Space
 70
     0
 10
0.0
 20
0.0
 30
0.0
  3
*Paper_Space
  1

  0
ENDBLK
  5
1D
330
1B
100
AcDbEntity
 67
     1
  8
0
100
AcDbBlockEnd
  0
BLOCK
  5
24
330
23
100
AcDbEntity
  8
0
100
AcDbBlockBegin
  2
*Paper_Space0
 70
     0
 10
0.0
 20
0.0
 30
0.0
  3
*Paper_Space0
  1

  0
ENDBLK
  5
25
330
23
100
AcDbEntity
  8
0
100
AcDbBlockEnd
  0
ENDSEC
  0
SECTION
  2
ENTITIES
  0
LINE
  5
67
330
1F
100
AcDbEntity
  8
1
  6
SLD-Сплошная
100
AcDbLine
 10
1068.6054271659
 20
418.2292289255
 30
0.0
 11
1068.6054271659
 21
417.0234668679
 31
0.0
  0
LINE
  5
68
330
1F
100
AcDbEntity
  8
1
  6
SLD-Сплошная
100
AcDbLine
 10
1085.2054271659
 20
417.0234668679
 30
0.0
 11
1085.2054271659
 21
418.2292289255
 31
0.0
  0
ARC
  5
69
330
1F
100
AcDbEntity
  8
1
  6
SLD-Сплошная
100
AcDbCircle
 10
1069.6054271659
 20
417.0234668679
 30
0.0
 40
1.000000000000227
100
AcDbArc
 50
180.0
 51
257.5813184942
  0
ARC
  5
6A
330
1F
100
AcDbEntity
  8
1
  6
SLD-Сплошная
100
AcDbCircle
 10
1084.2054271659
 20
417.0234668679
 30
0.0
 40
1.000000000000087
100
AcDbArc
 50
282.4186815058
 51
0.0
  0
ARC
  5
6B
330
1F
100
AcDbEntity
  8
1
  6
SLD-Сплошная
100
AcDbCircle
 10
1076.9054271659
 20
450.1742289255
 30
0.0
 40
34.94500000000001
100
AcDbArc
 50
270.0104111827
 51
282.4186815058
  0
ARC
  5
6C
330
1F
100
AcDbEntity
  8
1
  6
SLD-Сплошная
100
AcDbCircle
 10
1076.9054271659
 20
450.1742289255
 30
0.0
 40
34.94500000000001
100
AcDbArc
 50
257.5813184942
 51
270.0104111827
  0
LINE
  5
6D
330
1F
100
AcDbEntity
  8
1
  6
SLD-Сплошная
100
AcDbLine
 10
496.8054271659
 20
914.0292289255
 30
0.0
 11
495.3882698785
 21
916.7292289255
 31
0.0
  0
LINE
  5
6E
330
1F
100
AcDbEntity
  8
1
  6
SLD-Сплошная
100
AcDbLine
 10
495.3882698785
 20
916.7292289255
 30
0.0
 11
1087.8225844534
 21
916.7292289255
 31
0.0
  0
LINE
  5
6F
330
1F
100
AcDbEntity
  8
1
  6
SLD-Сплошная
100
AcDbLine
 10
1086.4054271659
 20
914.0292289256
 30
0.0
 11
1087.8225844534
 21
916.7292289255
 31
0.0
  0
LINE
  5
70
330
1F
100
AcDbEntity
  8
1
  6
SLD-Сплошная
100
AcDbLine
 10
494.1054271659
 20
915.446386213
 30
0.0
 11
496.8054271659
 21
914.0292289255
 31
0.0
  0
LINE
  5
71
330
1F
100
AcDbEntity
  8
1
  6
SLD-Сплошная
100
AcDbLine
 10
494.1054271659
 20
421.012071638
 30
0.0
 11
496.8054271659
 21
422.4292289255
 31
0.0
  0
LINE
  5
72
330
1F
100
AcDbEntity
  8
1
  6
SLD-Сплошная
100
AcDbLine
 10
494.1054271659
 20
915.446386213
 30
0.0
 11
494.1054271659
 21
421.012071638
 31
0.0
  0
LINE
  5
73
330
1F
100
AcDbEntity
  8
1
  6
SLD-Сплошная
100
AcDbLine
 10
496.8054271659
 20
914.0292289255
 30
0.0
 11
495.3882698785
 21
915.7292289255
 31
0.0
  0
LINE
  5
74
330
1F
100
AcDbEntity
  8
1
  6
SLD-Сплошная
100
AcDbLine
 10
495.3882698785
 20
916.7292289255
 30
0.0
 11
495.3882698785
 21
915.7292289255
 31
0.0
  0
LINE
  5
75
330
1F
100
AcDbEntity
  8
1
  6
SLD-Сплошная
100
AcDbLine
 10
494.1054271659
 20
915.446386213
 30
0.0
 11
495.1054271659
 21
915.446386213
 31
0.0
  0
LINE
  5
76
330
1F
100
AcDbEntity
  8
1
  6
SLD-Сплошная
100
AcDbLine
 10
495.1054271659
 20
915.446386213
 30
0.0
 11
496.8054271659
 21
914.0292289255
 31
0.0
  0
CIRCLE
  5
77
330
1F
100
AcDbEntity
  8
1
  6
SLD-Сплошная
100
AcDbCircle
 10
1029.105427166
 20
459.7292289255
 30
0.0
 40
0.5
  0
CIRCLE
  5
78
330
1F
100
AcDbEntity
  8
1
  6
SLD-Сплошная
100
AcDbCircle
 10
1029.1054271659
 20
876.7292289255
 30
0.0
 40
0.5000000000002274
  0
CIRCLE
  5
79
330
1F
100
AcDbEntity
  8
1
  6
SLD-Сплошная
100
AcDbCircle
 10
549.1054271659
 20
856.7292289255
 30
0.0
 40
0.5000000000001137
  0
CIRCLE
  5
7A
330
1F
100
AcDbEntity
  8
1
  6
SLD-Сплошная
100
AcDbCircle
 10
549.1054271659
 20
479.7292289255
 30
0.0
 40
0.5000000000001137
  0
LINE
  5
7B
330
1F
100
AcDbEntity
  8
1
  6
SLD-Сплошная
100
AcDbLine
 10
496.805427166
 20
422.4292289255
 30
0.0
 11
495.3882698785
 21
420.7292289255
 31
0.0
  0
LINE
  5
7C
330
1F
100
AcDbEntity
  8
1
  6
SLD-Сплошная
100
AcDbLine
 10
496.8054271659
 20
422.4292289255
 30
0.0
 11
495.3882698785
 21
419.7292289255
 31
0.0
  0
LINE
  5
7D
330
1F
100
AcDbEntity
  8
1
  6
SLD-Сплошная
100
AcDbLine
 10
495.3882698785
 20
419.7292289255
 30
0.0
 11
495.3882698785
 21
420.7292289255
 31
0.0
  0
LINE
  5
7E
330
1F
100
AcDbEntity
  8
1
  6
SLD-Сплошная
100
AcDbLine
 10
495.3882698785
 20
419.7292289255
 30
0.0
 11
1087.8225844534
 21
419.7292289255
 31
0.0
  0
LINE
  5
7F
330
1F
100
AcDbEntity
  8
1
  6
SLD-Сплошная
100
AcDbLine
 10
1086.405427166
 20
422.4292289255
 30
0.0
 11
1087.8225844534
 21
419.7292289255
 31
0.0
  0
LINE
  5
80
330
1F
100
AcDbEntity
  8
1
  6
SLD-Сплошная
100
AcDbLine
 10
495.1054271659
 20
421.012071638
 30
0.0
 11
496.805427166
 21
422.4292289255
 31
0.0
  0
LINE
  5
81
330
1F
100
AcDbEntity
  8
1
  6
SLD-Сплошная
100
AcDbLine
 10
494.1054271659
 20
421.012071638
 30
0.0
 11
495.1054271659
 21
421.012071638
 31
0.0
  0
LINE
  5
82
330
1F
100
AcDbEntity
  8
1
  6
SLD-Сплошная
100
AcDbLine
 10
1088.1054271659
 20
915.4463862131
 30
0.0
 11
1086.4054271659
 21
914.0292289256
 31
0.0
  0
LINE
  5
83
330
1F
100
AcDbEntity
  8
1
  6
SLD-Сплошная
100
AcDbLine
 10
1089.1054271659
 20
915.4463862131
 30
0.0
 11
1088.1054271659
 21
915.4463862131
 31
0.0
  0
LINE
  5
84
330
1F
100
AcDbEntity
  8
1
  6
SLD-Сплошная
100
AcDbLine
 10
1089.1054271659
 20
915.4463862131
 30
0.0
 11
1086.4054271659
 21
914.0292289256
 31
0.0
  0
LINE
  5
85
330
1F
100
AcDbEntity
  8
1
  6
SLD-Сплошная
100
AcDbLine
 10
1089.1054271659
 20
915.4463862131
 30
0.0
 11
1089.105427166
 21
421.012071638
 31
0.0
  0
LINE
  5
86
330
1F
100
AcDbEntity
  8
1
  6
SLD-Сплошная
100
AcDbLine
 10
1089.105427166
 20
421.012071638
 30
0.0
 11
1086.405427166
 21
422.4292289255
 31
0.0
  0
LINE
  5
87
330
1F
100
AcDbEntity
  8
1
  6
SLD-Сплошная
100
AcDbLine
 10
1086.4054271659
 20
914.0292289255
 30
0.0
 11
1087.8225844534
 21
915.7292289255
 31
0.0
  0
LINE
  5
88
330
1F
100
AcDbEntity
  8
1
  6
SLD-Сплошная
100
AcDbLine
 10
1087.8225844534
 20
916.7292289255
 30
0.0
 11
1087.8225844534
 21
915.7292289255
 31
0.0
  0
LINE
  5
89
330
1F
100
AcDbEntity
  8
1
  6
SLD-Сплошная
100
AcDbLine
 10
1089.105427166
 20
421.012071638
 30
0.0
 11
1088.105427166
 21
421.012071638
 31
0.0
  0
LINE
  5
8A
330
1F
100
AcDbEntity
  8
1
  6
SLD-Сплошная
100
AcDbLine
 10
1088.105427166
 20
421.012071638
 30
0.0
 11
1086.4054271659
 21
422.4292289255
 31
0.0
  0
LINE
  5
8B
330
1F
100
AcDbEntity
  8
1
  6
SLD-Сплошная
100
AcDbLine
 10
1086.4054271659
 20
422.4292289255
 30
0.0
 11
1087.8225844534
 21
420.7292289255
 31
0.0
  0
LINE
  5
8C
330
1F
100
AcDbEntity
  8
1
  6
SLD-Сплошная
100
AcDbLine
 10
1087.8225844534
 20
419.7292289255
 30
0.0
 11
1087.8225844534
 21
420.7292289255
 31
0.0
  0
LINE
  5
8D
330
1F
100
AcDbEntity
  8
1
  6
SLD-Сплошная
100
AcDbLine
 10
494.6175592003
 20
421.012071638
 30
0.0
 11
493.9054271659
 21
420.2999396036
 31
0.0
  0
LINE
  5
8E
330
1F
100
AcDbEntity
  8
1
  6
SLD-Сплошная
100
AcDbLine
 10
494.6175592003
 20
915.446386213
 30
0.0
 11
493.9054271659
 21
916.1585182474
 31
0.0
  0
LINE
  5
8F
330
1F
100
AcDbEntity
  8
1
  6
SLD-Сплошная
100
AcDbLine
 10
1089.9054271659
 20
420.2999396036
 30
0.0
 11
1089.105427166
 21
421.0999396035
 31
0.0
  0
LINE
  5
90
330
1F
100
AcDbEntity
  8
1
  6
SLD-Сплошная
100
AcDbLine
 10
1089.9054271659
 20
916.1585182475
 30
0.0
 11
1089.1054271659
 21
915.3585182475
 31
0.0
  0
LINE
  5
91
330
1F
100
AcDbEntity
  8
1
  6
SLD-Сплошная
100
AcDbLine
 10
1089.0518737754
 20
421.012071638
 30
0.0
 11
1089.8347164879
 21
420.2292289255
 31
0.0
  0
LINE
  5
92
330
1F
100
AcDbEntity
  8
1
  6
SLD-Сплошная
100
AcDbLine
 10
493.976137844
 20
420.2292289255
 30
0.0
 11
494.7589805565
 21
421.012071638
 31
0.0
  0
LINE
  5
93
330
1F
100
AcDbEntity
  8
1
  6
SLD-Сплошная
100
AcDbLine
 10
1089.0518737755
 20
915.4463862131
 30
0.0
 11
1089.8347164879
 21
916.2292289255
 31
0.0
  0
LINE
  5
94
330
1F
100
AcDbEntity
  8
1
  6
SLD-Сплошная
100
AcDbLine
 10
493.976137844
 20
916.2292289255
 30
0.0
 11
494.7589805565
 21
915.446386213
 31
0.0
  0
ELLIPSE
  5
95
330
1F
100
AcDbEntity
  8
1
  6
SLD-Сплошная
100
AcDbEllipse
 10
493.9054271659
 20
916.2292289255
 30
0.0
 11
2.0
 21
-1.136868377216160E-13
 31
0.0
210
0.0
220
0.0
230
1.0
 40
0.0353553391
 41
3.141592653591799
 42
4.712388980384635
  0
ELLIPSE
  5
96
330
1F
100
AcDbEntity
  8
1
  6
SLD-Сплошная
100
AcDbEllipse
 10
493.9054271659
 20
420.2292289255
 30
0.0
 11
2.0
 21
0.0
 31
0.0
210
0.0
220
0.0
230
1.0
 40
0.0353553391
 41
1.570796326794953
 42
3.141592653591799
  0
LINE
  5
97
330
1F
100
AcDbEntity
  8
1
  6
SLD-Сплошная
100
AcDbLine
 10
491.9054271659
 20
420.2292289255
 30
0.0
 11
491.9054271659
 21
916.2292289255
 31
0.0
  0
LINE
  5
98
330
1F
100
AcDbEntity
  8
1
  6
SLD-Сплошная
100
AcDbLine
 10
493.9054271659
 20
918.2292289255
 30
0.0
 11
1089.9054271659
 21
918.2292289255
 31
0.0
  0
ELLIPSE
  5
99
330
1F
100
AcDbEntity
  8
1
  6
SLD-Сплошная
100
AcDbEllipse
 10
1089.905427166
 20
916.2292289255
 30
0.0
 11
0.0
 21
2.0
 31
0.0
210
0.0
220
0.0
230
1.0
 40
0.035355339
 41
0.0
 42
1.57079632679484
  0
ELLIPSE
  5
9A
330
1F
100
AcDbEntity
  8
1
  6
SLD-Сплошная
100
AcDbEllipse
 10
493.9054271659
 20
916.2292289255
 30
0.0
 11
0.0
 21
2.0
 31
0.0
210
0.0
220
0.0
230
1.0
 40
0.035355339
 41
4.712388980384917
 42
6.283185307179586
  0
ELLIPSE
  5
9B
330
1F
100
AcDbEntity
  8
1
  6
SLD-Сплошная
100
AcDbEllipse
 10
493.9054271659
 20
916.2292289255
 30
0.0
 11
0.0
 21
1.0
 31
0.0
210
0.0
220
0.0
230
1.0
 40
0.0707106781
 41
4.712388980384804
 42
6.283185307179586
  0
LINE
  5
9C
330
1F
100
AcDbEntity
  8
1
  6
SLD-Сплошная
100
AcDbLine
 10
493.9054271659
 20
918.2292289255
 30
0.0
 11
493.9054271659
 21
917.2292289255
 31
0.0
  0
ELLIPSE
  5
9D
330
1F
100
AcDbEntity
  8
1
  6
SLD-Сплошная
100
AcDbEllipse
 10
493.9054271659
 20
916.2292289255
 30
0.0
 11
1.0
 21
0.0
 31
0.0
210
0.0
220
0.0
230
1.0
 40
0.0707106781
 41
3.141592653589791
 42
4.712388980384634
  0
LINE
  5
9E
330
1F
100
AcDbEntity
  8
1
  6
SLD-Сплошная
100
AcDbLine
 10
492.9054271659
 20
916.2292289255
 30
0.0
 11
491.9054271659
 21
916.2292289255
 31
0.0
  0
ELLIPSE
  5
9F
330
1F
100
AcDbEntity
  8
1
  6
SLD-Сплошная
100
AcDbEllipse
 10
1089.9054271659
 20
420.2292289255
 30
0.0
 11
2.0
 21
0.0
 31
0.0
210
0.0
220
0.0
230
1.0
 40
0.035355339
 41
0.0
 42
1.570796326794783
  0
LINE
  5
A0
330
1F
100
AcDbEntity
  8
1
  6
SLD-Сплошная
100
AcDbLine
 10
1091.9054271659
 20
420.2292289255
 30
0.0
 11
1090.9054271659
 21
420.2292289255
 31
0.0
  0
ELLIPSE
  5
A1
330
1F
100
AcDbEntity
  8
1
  6
SLD-Сплошная
100
AcDbEllipse
 10
1089.9054271659
 20
420.2292289255
 30
0.0
 11
0.9999999999997726
 21
0.0
 31
0.0
210
0.0
220
0.0
230
1.0
 40
0.070710678
 41
0.0
 42
1.570796326794897
  0
LINE
  5
A2
330
1F
100
AcDbEntity
  8
1
  6
SLD-Сплошная
100
AcDbLine
 10
1091.9054271659
 20
916.2292289255
 30
0.0
 11
1091.9054271659
 21
420.2292289255
 31
0.0
  0
ELLIPSE
  5
A3
330
1F
100
AcDbEntity
  8
1
  6
SLD-Сплошная
100
AcDbEllipse
 10
1089.9054271659
 20
916.2292289255
 30
0.0
 11
2.0
 21
0.0
 31
0.0
210
0.0
220
0.0
230
1.0
 40
0.035355339
 41
4.712388980384803
 42
6.283185307179586
  0
ELLIPSE
  5
A4
330
1F
100
AcDbEntity
  8
1
  6
SLD-Сплошная
100
AcDbEllipse
 10
1089.9054271659
 20
916.2292289255
 30
0.0
 11
0.9999999999997726
 21
0.0
 31
0.0
210
0.0
220
0.0
230
1.0
 40
0.070710678
 41
4.712388980384691
 42
6.283185307179586
  0
LINE
  5
A5
330
1F
100
AcDbEntity
  8
1
  6
SLD-Сплошная
100
AcDbLine
 10
1091.9054271659
 20
916.2292289255
 30
0.0
 11
1090.9054271659
 21
916.2292289255
 31
0.0
  0
ELLIPSE
  5
A6
330
1F
100
AcDbEntity
  8
1
  6
SLD-Сплошная
100
AcDbEllipse
 10
1089.905427166
 20
916.2292289255
 30
0.0
 11
0.0
 21
1.0
 31
0.0
210
0.0
220
0.0
230
1.0
 40
0.070710678
 41
0.0
 42
1.570796326794783
  0
LINE
  5
A7
330
1F
100
AcDbEntity
  8
1
  6
SLD-Сплошная
100
AcDbLine
 10
1089.9054271659
 20
917.2292289255
 30
0.0
 11
1089.9054271659
 21
918.2292289255
 31
0.0
  0
ELLIPSE
  5
A8
330
1F
100
AcDbEntity
  8
1
  6
SLD-Сплошная
100
AcDbEllipse
 10
493.9054271659
 20
420.2292289255
 30
0.0
 11
0.0
 21
2.0
 31
0.0
210
0.0
220
0.0
230
1.0
 40
0.035355339
 41
3.141592653574516
 42
4.712388980384462
  0
LINE
  5
A9
330
1F
100
AcDbEntity
  8
1
  6
SLD-Сплошная
100
AcDbLine
 10
493.9054271659
 20
418.2292289255
 30
0.0
 11
493.9054271659
 21
418.5588996167
 31
0.0
  0
LINE
  5
AA
330
1F
100
AcDbEntity
  8
1
  6
SLD-Сплошная
100
AcDbLine
 10
493.9054271659
 20
418.5588996167
 30
0.0
 11
493.9054271659
 21
419.2292289255
 31
0.0
  0
ELLIPSE
  5
AB
330
1F
100
AcDbEntity
  8
1
  6
SLD-Сплошная
100
AcDbEllipse
 10
493.9054271659
 20
420.2292289255
 30
0.0
 11
0.0
 21
1.0
 31
0.0
210
0.0
220
0.0
230
1.0
 40
0.0707106781
 41
3.141592653577733
 42
4.712388980384634
  0
ELLIPSE
  5
AC
330
1F
100
AcDbEntity
  8
1
  6
SLD-Сплошная
100
AcDbEllipse
 10
1089.905427166
 20
420.2292289255
 30
0.0
 11
0.0
 21
2.0
 31
0.0
210
0.0
220
0.0
230
1.0
 40
0.035355339
 41
1.570796326794953
 42
3.141592653490108
  0
ELLIPSE
  5
AD
330
1F
100
AcDbEntity
  8
1
  6
SLD-Сплошная
100
AcDbEllipse
 10
1089.905427166
 20
420.2292289255
 30
0.0
 11
0.0
 21
1.0
 31
0.0
210
0.0
220
0.0
230
1.0
 40
0.070710678
 41
1.570796326794897
 42
3.141592653490109
  0
LINE
  5
AE
330
1F
100
AcDbEntity
  8
1
  6
SLD-Сплошная
100
AcDbLine
 10
1089.9054271659
 20
419.2292289255
 30
0.0
 11
1089.9054271659
 21
418.2292289255
 31
0.0
  0
ELLIPSE
  5
AF
330
1F
100
AcDbEntity
  8
1
  6
SLD-Сплошная
100
AcDbEllipse
 10
493.9054271659
 20
420.2292289255
 30
0.0
 11
1.0
 21
0.0
 31
0.0
210
0.0
220
0.0
230
1.0
 40
0.0707106781
 41
1.570796326794953
 42
3.141592653590796
  0
LINE
  5
B0
330
1F
100
AcDbEntity
  8
1
  6
SLD-Сплошная
100
AcDbLine
 10
492.9054271659
 20
420.2292289255
 30
0.0
 11
491.9054271659
 21
420.2292289255
 31
0.0
  0
LINE
  5
B1
330
1F
100
AcDbEntity
  8
1
  6
SLD-Сплошная
100
AcDbLine
 10
495.0054271659
 20
418.2292289255
 30
0.0
 11
1089.9054271659
 21
418.2292289255
 31
0.0
  0
LINE
  5
B2
330
1F
100
AcDbEntity
  8
1
  6
SLD-Сплошная
100
AcDbLine
 10
493.9054271659
 20
418.2292289255
 30
0.0
 11
495.0054271659
 21
418.2292289255
 31
0.0
  0
LINE
  5
B3
330
1F
100
AcDbEntity
  8
1
  6
SLD-Сплошная
100
AcDbLine
 10
493.0054271659
 20
420.2292289255
 30
0.0
 11
493.0054271659
 21
420.2600509955
 31
0.0
  0
LINE
  5
B4
330
1F
100
AcDbEntity
  8
1
  6
SLD-Сплошная
100
AcDbLine
 10
494.0054271659
 20
420.2585182474
 30
0.0
 11
494.0054271659
 21
420.3999396036
 31
0.0
  0
ARC
  5
B5
330
1F
100
AcDbEntity
  8
1
  6
SLD-Сплошная
100
AcDbCircle
 10
495.0054271659
 20
420.2292289255
 30
0.0
 40
2.000000000000114
100
AcDbArc
 50
180.0
 51
236.6329870308
  0
ARC
  5
B6
330
1F
100
AcDbEntity
  8
1
  6
SLD-Сплошная
100
AcDbCircle
 10
493.9054271659
 20
916.2292289255
 30
0.0
 40
1.000000000007844
100
AcDbArc
 50
90.0
 51
180.0
  0
ARC
  5
B7
330
1F
100
AcDbEntity
  8
1
  6
SLD-Сплошная
100
AcDbCircle
 10
493.9054271659
 20
916.2292289255
 30
0.0
 40
2.000000000007844
100
AcDbArc
 50
90.0
 51
180.0
  0
ARC
  5
B8
330
1F
100
AcDbEntity
  8
1
  6
SLD-Сплошная
100
AcDbCircle
 10
1089.9054271659
 20
916.2292289255
 30
0.0
 40
2.0
100
AcDbArc
 50
0.0
 51
90.0
  0
ARC
  5
B9
330
1F
100
AcDbEntity
  8
1
  6
SLD-Сплошная
100
AcDbCircle
 10
1089.9054271659
 20
916.2292289255
 30
0.0
 40
1.0
100
AcDbArc
 50
0.0
 51
90.0
  0
ARC
  5
BA
330
1F
100
AcDbEntity
  8
1
  6
SLD-Сплошная
100
AcDbCircle
 10
1089.9054271659
 20
420.2292289255
 30
0.0
 40
1.0
100
AcDbArc
 50
270.0
 51
0.0
  0
ARC
  5
BB
330
1F
100
AcDbEntity
  8
1
  6
SLD-Сплошная
100
AcDbCircle
 10
1089.9054271659
 20
420.2292289255
 30
0.0
 40
2.0
100
AcDbArc
 50
270.0
 51
0.0
  0
LINE
  5
BC
330
1F
100
AcDbEntity
  8
1
  6
SLD-Сплошная
100
AcDbLine
 10
1089.9054271659
 20
420.1585182475
 30
0.0
 11
1089.9054271659
 21
419.2292289255
 31
0.0
  0
LINE
  5
BD
330
1F
100
AcDbEntity
  8
1
  6
SLD-Сплошная
100
AcDbLine
 10
493.0054271659
 20
420.2292289255
 30
0.0
 11
492.9054271659
 21
420.2292289255
 31
0.0
  0
LINE
  5
BE
330
1F
100
AcDbEntity
  8
1
  6
SLD-Сплошная
100
AcDbLine
 10
493.8347164879
 20
916.2292289255
 30
0.0
 11
492.9054271659
 21
916.2292289255
 31
0.0
  0
LINE
  5
BF
330
1F
100
AcDbEntity
  8
1
  6
SLD-Сплошная
100
AcDbLine
 10
1090.9054271659
 20
420.2292289255
 30
0.0
 11
1089.976137844
 21
420.2292289255
 31
0.0
  0
LINE
  5
C0
330
1F
100
AcDbEntity
  8
1
  6
SLD-Сплошная
100
AcDbLine
 10
1090.9054271659
 20
916.2292289255
 30
0.0
 11
1089.976137844
 21
916.2292289255
 31
0.0
  0
LINE
  5
C1
330
1F
100
AcDbEntity
  8
1
  6
SLD-Сплошная
100
AcDbLine
 10
493.9054271659
 20
917.2292289255
 30
0.0
 11
493.9054271659
 21
916.2999396036
 31
0.0
  0
LINE
  5
C2
330
1F
100
AcDbEntity
  8
1
  6
SLD-Сплошная
100
AcDbLine
 10
1089.9054271659
 20
916.2999396035
 30
0.0
 11
1089.9054271659
 21
917.2292289255
 31
0.0
  0
LINE
  5
C3
330
1F
100
AcDbEntity
  8
1
  6
SLD-Сплошная
100
AcDbLine
 10
999.3971010539
 20
417.7292289255
 30
0.0
 11
988.9054271659
 21
417.7292289255
 31
0.0
  0
ARC
  5
C4
330
1F
100
AcDbEntity
  8
1
  6
SLD-Сплошная
100
AcDbCircle
 10
999.3971010539
 20
420.1292289255
 30
0.0
 40
2.399999999999995
100
AcDbArc
 50
270.0
 51
307.6584620065
  0
LINE
  5
C5
330
1F
100
AcDbEntity
  8
1
  6
SLD-Сплошная
100
AcDbLine
 10
988.9054271659
 20
417.7292289255
 30
0.0
 11
594.9054271659
 21
417.7292289255
 31
0.0
  0
LINE
  5
C6
330
1F
100
AcDbEntity
  8
1
  6
SLD-Сплошная
100
AcDbLine
 10
594.9054271659
 20
417.7292289255
 30
0.0
 11
584.413753278
 21
417.7292289255
 31
0.0
  0
ARC
  5
C7
330
1F
100
AcDbEntity
  8
1
  6
SLD-Сплошная
100
AcDbCircle
 10
584.413753278
 20
420.1292289255
 30
0.0
 40
2.400000000000085
100
AcDbArc
 50
232.3415379935
 51
270.0
  0
CIRCLE
  5
C8
330
1F
100
AcDbEntity
  8
1
  6
SLD-Сплошная
100
AcDbCircle
 10
549.1054271659
 20
668.2292289255
 30
0.0
 40
14.0
  0
CIRCLE
  5
C9
330
1F
100
AcDbEntity
  8
1
  6
SLD-Сплошная
100
AcDbCircle
 10
549.1054271659
 20
668.2292289255
 30
0.0
 40
11.0
  0
CIRCLE
  5
CA
330
1F
100
AcDbEntity
  8
1
  6
SLD-Сплошная
100
AcDbCircle
 10
549.1054271659
 20
668.2292289255
 30
0.0
 40
8.0
  0
LINE
  5
CB
330
1F
100
AcDbEntity
  8
1
  6
SLD-Сплошная
100
AcDbLine
 10
544.831924474
 20
667.3632035217
 30
0.0
 11
550.4921785119
 21
664.0952543293
 31
0.0
  0
ARC
  5
CC
330
1F
100
AcDbEntity
  8
1
  6
SLD-Сплошная
100
AcDbCircle
 10
545.331924474
 20
668.2292289255
 30
0.0
 40
0.9999999999999836
100
AcDbArc
 50
120.0
 51
240.0
  0
LINE
  5
CD
330
1F
100
AcDbEntity
  8
1
  6
SLD-Сплошная
100
AcDbLine
 10
550.4921785119
 20
672.3632035217
 30
0.0
 11
544.831924474
 21
669.0952543293
 31
0.0
  0
ARC
  5
CE
330
1F
100
AcDbEntity
  8
1
  6
SLD-Сплошная
100
AcDbCircle
 10
550.9921785119
 20
671.4971781179
 30
0.0
 40
1.00000000000004
100
AcDbArc
 50
0.0
 51
120.0
  0
LINE
  5
CF
330
1F
100
AcDbEntity
  8
1
  6
SLD-Сплошная
100
AcDbLine
 10
551.9921785119
 20
664.9612797331
 30
0.0
 11
551.9921785119
 21
671.4971781179
 31
0.0
  0
ARC
  5
D0
330
1F
100
AcDbEntity
  8
1
  6
SLD-Сплошная
100
AcDbCircle
 10
550.9921785119
 20
664.9612797331
 30
0.0
 40
1.0
100
AcDbArc
 50
240.0
 51
0.0
  0
LINE
  5
D1
330
1F
100
AcDbEntity
  8
1
  6
SLD-Сплошная
100
AcDbLine
 10
1636.3145320736
 20
977.4262972124
 30
0.0
 11
1636.3145320736
 21
1381.1562173908
 31
0.0
  0
LINE
  5
D2
330
1F
100
AcDbEntity
  8
1
  6
SLD-Сплошная
100
AcDbLine
 10
1635.6266301919
 20
1382.3476491326
 30
0.0
 11
1216.7087380591
 21
1624.1838006336
 31
0.0
  0
LINE
  5
D3
330
1F
100
AcDbEntity
  8
1
  6
SLD-Сплошная
100
AcDbLine
 10
1204.3457427715
 20
1211.7818170006
 30
0.0
 11
1622.6731734059
 21
970.2865316671
 31
0.0
  0
LINE
  5
D4
330
1F
100
AcDbEntity
  8
1
  6
SLD-Сплошная
100
AcDbLine
 10
1203.7042692839
 20
1615.9407655325
 30
0.0
 11
1203.7042692839
 21
1212.8928214805
 31
0.0
  0
LINE
  5
D5
330
1F
100
AcDbEntity
  8
1
  6
SLD-Сплошная
100
AcDbLine
 10
1765.7508594684
 20
1049.5719191229
 30
0.0
 11
1765.7508594684
 21
1454.5761618182
 31
0.0
  0
LINE
  5
D6
330
1F
100
AcDbEntity
  8
1
  6
SLD-Сплошная
100
AcDbLine
 10
1764.8543112748
 20
1456.1289115403
 30
0.0
 11
1343.4186696876
 21
1699.4185288634
 31
0.0
  0
LINE
  5
D7
330
1F
100
AcDbEntity
  8
1
  6
SLD-Сплошная
100
AcDbLine
 10
1644.7497321805
 20
978.4451318932
 30
0.0
 11
1764.6043315916
 21
1047.6357193701
 31
0.0
  0
LINE
  5
D8
330
1F
100
AcDbEntity
  8
1
  6
SLD-Сплошная
100
AcDbLine
 10
1636.3145320736
 20
982.160187669
 30
0.0
 11
1642.7145422494
 21
978.4655404373
 31
0.0
  0
LINE
  5
D9
330
1F
100
AcDbEntity
  8
1
  6
SLD-Сплошная
100
AcDbLine
 10
1220.3141718607
 20
1628.4302625958
 30
0.0
 11
1220.3141718607
 21
1622.1024280032
 31
0.0
  0
LINE
  5
DA
330
1F
100
AcDbEntity
  8
1
  6
SLD-Сплошная
100
AcDbLine
 10
1341.1688525391
 20
1699.3937748382
 30
0.0
 11
1221.314253128
 21
1630.2031873612
 31
0.0
  0
LINE
  5
DB
330
1F
100
AcDbEntity
  8
1
  6
SLD-Сплошная
100
AcDbLine
 10
1230.870163913
 20
1397.2722231582
 30
0.0
 11
1230.870163913
 21
1394.8229988227
 31
0.0
  0
LINE
  5
DC
330
1F
100
AcDbEntity
  8
1
  6
SLD-Сплошная
100
AcDbLine
 10
1238.6470743339
 20
1381.3515351866
 30
0.0
 11
1240.7680499033
 21
1380.126723985
 31
0.0
  0
LINE
  5
DD
330
1F
100
AcDbEntity
  8
1
  6
SLD-Сплошная
100
AcDbLine
 10
1234.4773345023
 20
1404.0902545047
 30
0.0
 11
1233.7702277211
 21
1403.6820504488
 31
0.0
  0
LINE
  5
DE
330
1F
100
AcDbEntity
  8
1
  6
SLD-Сплошная
100
AcDbLine
 10
1247.7690899781
 20
1379.4326823021
 30
0.0
 11
1248.4761967592
 21
1379.840886358
 31
0.0
  0
LINE
  5
DF
330
1F
100
AcDbEntity
  8
1
  6
SLD-Сплошная
100
AcDbLine
 10
1242.6037528871
 20
1387.2527240744
 30
0.0
 11
1244.227599314
 21
1388.1901506629
 31
0.0
  0
LINE
  5
E0
330
1F
100
AcDbEntity
  8
1
  6
SLD-Сплошная
100
AcDbLine
 10
1239.2984864159
 20
1394.9434640758
 30
0.0
 11
1237.601430141
 21
1393.9637743417
 31
0.0
  0
LINE
  5
E1
330
1F
100
AcDbEntity
  8
1
  6
SLD-Сплошная
100
AcDbLine
 10
1639.092877931
 20
1027.4375806063
 30
0.0
 11
1640.5070914933
 21
1028.2539887181
 31
0.0
  0
LINE
  5
E2
330
1F
100
AcDbEntity
  8
1
  6
SLD-Сплошная
100
AcDbLine
 10
1636.5036849869
 20
1049.8859145485
 30
0.0
 11
1636.7865276993
 21
1050.0491961709
 31
0.0
  0
LINE
  5
E3
330
1F
100
AcDbEntity
  8
1
  6
SLD-Сплошная
100
AcDbLine
 10
1637.7394058077
 20
1052.1552822806
 30
0.0
 11
1637.7394058077
 21
1053.4786290556
 31
0.0
  0
LINE
  5
E4
330
1F
100
AcDbEntity
  8
1
  6
SLD-Сплошная
100
AcDbLine
 10
1637.7394058077
 20
1053.0240864423
 30
0.0
 11
1637.7944057804
 21
1053.0558372506
 31
0.0
  0
LINE
  5
E5
330
1F
100
AcDbEntity
  8
1
  6
SLD-Сплошная
100
AcDbLine
 10
1636.8572383775
 20
1311.38307638
 30
0.0
 11
1637.1400810899
 21
1311.5463580023
 31
0.0
  0
LINE
  5
E6
330
1F
100
AcDbEntity
  8
1
  6
SLD-Сплошная
100
AcDbLine
 10
1638.0929591983
 20
1313.6524441121
 30
0.0
 11
1638.0929591983
 21
1313.7340849233
 31
0.0
  0
LINE
  5
E7
330
1F
100
AcDbEntity
  8
1
  6
SLD-Сплошная
100
AcDbLine
 10
1639.4464313216
 20
1288.9347424377
 30
0.0
 11
1640.5070914933
 21
1289.5470485216
 31
0.0
  0
ELLIPSE
  5
E8
330
1F
100
AcDbEntity
  8
1
  6
SLD-Сплошная
100
AcDbEllipse
 10
1623.3144274715
 20
1374.4454137027
 30
0.0
 11
1.698791117367136
 21
0.8238102184843683
 31
0.0
210
0.0
220
0.0
230
1.0
 40
0.0778085159
 41
3.889276317776323
 42
5.460072644555876
  0
ELLIPSE
  5
E9
330
1F
100
AcDbEntity
  8
1
  6
SLD-Сплошная
100
AcDbEllipse
 10
1623.3144274715
 20
1374.4454137027
 30
0.0
 11
2.691140751008788
 21
0.8754882017476574
 31
0.0
210
0.0
220
0.0
230
1.0
 40
0.2496252376
 41
3.845959967500383
 42
5.416756294294982
  0
LINE
  5
EA
330
1F
100
AcDbEntity
  8
1
  6
SLD-Сплошная
100
AcDbLine
 10
1621.4052391623
 20
1373.3432627518
 30
0.0
 11
1622.1123459435
 21
1373.7514668077
 31
0.0
  0
ELLIPSE
  5
EB
330
1F
100
AcDbEntity
  8
1
  6
SLD-Сплошная
100
AcDbEllipse
 10
1623.3144274716
 20
973.0339505796
 30
0.0
 11
2.346496907419578
 21
-1.886933551484731
 31
0.0
210
0.0
220
0.0
230
1.0
 40
0.7078398481
 41
4.444461987434675
 42
6.015258314229583
  0
ELLIPSE
  5
EC
330
1F
100
AcDbEntity
  8
1
  6
SLD-Сплошная
100
AcDbEllipse
 10
1623.3144274715
 20
1374.4454137027
 30
0.0
 11
1.562801634033576
 21
1.059350639200829
 31
0.0
210
0.0
220
0.0
230
0.9999999999999999
 40
0.0779476132
 41
0.8230997739061925
 42
2.393896100700196
  0
ELLIPSE
  5
ED
330
1F
100
AcDbEntity
  8
1
  6
SLD-Сплошная
100
AcDbEllipse
 10
1623.3144274715
 20
1374.4454137027
 30
0.0
 11
2.103726216599853
 21
1.892910169520974
 31
0.0
210
0.0
220
0.0
230
1.0
 40
0.2497537726
 41
0.8663954412342371
 42
2.437191768026396
  0
ELLIPSE
  5
EE
330
1F
100
AcDbEntity
  8
1
  6
SLD-Сплошная
100
AcDbEllipse
 10
1206.4042692839
 20
1615.122525068
 30
0.0
 11
-0.4612130826678822
 21
2.975579473082689
 31
0.0
210
0.0
220
0.0
230
1.0
 40
0.7078581484
 41
0.2677802285251168
 42
1.838576555308772
  0
LINE
  5
EF
330
1F
100
AcDbEntity
  8
1
  6
SLD-Сплошная
100
AcDbLine
 10
1636.0069941939
 20
976.9997447192
 30
0.0
 11
1625.2236157808
 21
970.7746328666
 31
0.0
  0
LINE
  5
F0
330
1F
100
AcDbEntity
  8
1
  6
SLD-Сплошная
100
AcDbLine
 10
1636.0069941938
 20
1380.7255413665
 30
0.0
 11
1625.2236157807
 21
1374.5004295139
 31
0.0
  0
LINE
  5
F1
330
1F
100
AcDbEntity
  8
1
  6
SLD-Сплошная
100
AcDbLine
 10
1635.2998874126
 20
1381.1337454224
 30
0.0
 11
1624.5165089996
 21
1374.9086335698
 31
0.0
  0
LINE
  5
F2
330
1F
100
AcDbEntity
  8
1
  6
SLD-Сплошная
100
AcDbLine
 10
1636.0069941938
 20
1380.7255413665
 30
0.0
 11
1635.2998874126
 21
1381.1337454224
 31
0.0
  0
LINE
  5
F3
330
1F
100
AcDbEntity
  8
1
  6
SLD-Сплошная
100
AcDbLine
 10
1205.402187756
 20
1617.9056746127
 30
0.0
 11
1216.1855661691
 21
1624.1307864653
 31
0.0
  0
LINE
  5
F4
330
1F
100
AcDbEntity
  8
1
  6
SLD-Сплошная
100
AcDbLine
 10
1624.3165089995
 20
1376.0715845422
 30
0.0
 11
1635.0998874126
 21
1382.2966963948
 31
0.0
  0
LINE
  5
F5
330
1F
100
AcDbEntity
  8
1
  6
SLD-Сплошная
100
AcDbLine
 10
1624.3165089995
 20
1375.2550437303
 30
0.0
 11
1635.0998874126
 21
1381.480155583
 31
0.0
  0
LINE
  5
F6
330
1F
100
AcDbEntity
  8
1
  6
SLD-Сплошная
100
AcDbLine
 10
1635.0998874126
 20
1382.2966963948
 30
0.0
 11
1635.0998874126
 21
1381.480155583
 31
0.0
  0
LWPOLYLINE
  5
F7
330
1F
100
AcDbEntity
  8
1
  6
SLD-Сплошная
100
AcDbPolyline
 90
       17
 70
   128
 43
0.0
 10
1580.5344672098
 20
1025.9829663437
 10
1580.5613798592
 20
1026.1236683222
 10
1580.6380206004
 20
1026.2118770164
 10
1580.7527215753
 20
1026.2341634521
 10
1580.8880206004
 20
1026.1871347217
 10
1581.0233196254
 20
1026.0779505229
 10
1581.1380206004
 20
1025.9232331603
 10
1581.2146613416
 20
1025.7465369498
 10
1581.241573991
 20
1025.5747622878
 10
1581.2146613416
 20
1025.4340603093
 10
1581.1380206004
 20
1025.3458516151
 10
1581.0233196254
 20
1025.3235651793
 10
1580.8880206004
 20
1025.3705939098
 10
1580.7527215753
 20
1025.4797781086
 10
1580.6380206004
 20
1025.6344954712
 10
1580.5613798592
 20
1025.8111916816
 10
1580.5344672098
 20
1025.9829663437
  0
LWPOLYLINE
  5
F8
330
1F
100
AcDbEntity
  8
1
  6
SLD-Сплошная
100
AcDbPolyline
 90
       17
 70
   128
 43
0.0
 10
1581.2415739909
 20
1366.0722808442
 10
1581.2146613416
 20
1365.9315788657
 10
1581.1380206003
 20
1365.8433701715
 10
1581.0233196254
 20
1365.8210837357
 10
1580.8880206003
 20
1365.8681124662
 10
1580.7527215753
 20
1365.9772966649
 10
1580.6380206003
 20
1366.1320140275
 10
1580.5613798591
 20
1366.308710238
 10
1580.5344672098
 20
1366.4804849001
 10
1580.5613798591
 20
1366.6211868786
 10
1580.6380206003
 20
1366.7093955727
 10
1580.7527215753
 20
1366.7316820085
 10
1580.8880206003
 20
1366.6846532781
 10
1581.0233196254
 20
1366.5754690793
 10
1581.1380206003
 20
1366.4207517167
 10
1581.2146613416
 20
1366.2440555062
 10
1581.2415739909
 20
1366.0722808442
  0
LWPOLYLINE
  5
F9
330
1F
100
AcDbEntity
  8
1
  6
SLD-Сплошная
100
AcDbPolyline
 90
       17
 70
   128
 43
0.0
 10
1241.1232122402
 20
1546.0876154998
 10
1241.1501248896
 20
1546.2283174783
 10
1241.2267656308
 20
1546.3165261725
 10
1241.3414666057
 20
1546.3388126082
 10
1241.4767656308
 20
1546.2917838778
 10
1241.6120646558
 20
1546.182599679
 10
1241.7267656308
 20
1546.0278823164
 10
1241.803406372
 20
1545.8511861059
 10
1241.8303190214
 20
1545.6794114439
 10
1241.803406372
 20
1545.5387094654
 10
1241.7267656308
 20
1545.4505007712
 10
1241.6120646558
 20
1545.4282143354
 10
1241.4767656308
 20
1545.4752430659
 10
1241.3414666057
 20
1545.5844272647
 10
1241.2267656308
 20
1545.7391446273
 10
1241.1501248896
 20
1545.9158408377
 10
1241.1232122402
 20
1546.0876154998
  0
LWPOLYLINE
  5
FA
330
1F
100
AcDbEntity
  8
1
  6
SLD-Сплошная
100
AcDbPolyline
 90
       17
 70
   128
 43
0.0
 10
1241.8303190214
 20
1237.8435253629
 10
1241.803406372
 20
1237.7028233844
 10
1241.7267656308
 20
1237.6146146903
 10
1241.6120646558
 20
1237.5923282545
 10
1241.4767656308
 20
1237.6393569849
 10
1241.3414666058
 20
1237.7485411837
 10
1241.2267656308
 20
1237.9032585463
 10
1241.1501248896
 20
1238.0799547568
 10
1241.1232122402
 20
1238.2517294188
 10
1241.1501248896
 20
1238.3924313973
 10
1241.2267656308
 20
1238.4806400915
 10
1241.3414666058
 20
1238.5029265273
 10
1241.4767656308
 20
1238.4558977968
 10
1241.6120646558
 20
1238.3467135981
 10
1241.7267656308
 20
1238.1919962355
 10
1241.803406372
 20
1238.015300025
 10
1241.8303190214
 20
1237.8435253629
  0
LINE
  5
FB
330
1F
100
AcDbEntity
  8
1
  6
SLD-Сплошная
100
AcDbLine
 10
1624.273161788
 20
1375.2298739477
 30
0.0
 11
1624.316572203
 21
1375.2549342468
 31
0.0
  0
SPLINE
  5
FC
330
1F
100
AcDbEntity
  8
1
  6
SLD-Сплошная
100
AcDbSpline
210
0.0
220
0.0
230
1.0
 70
     8
 71
     3
 72
     9
 73
     5
 74
     0
 42
0.00000001
 43
0.00000001
 40
0.0
 40
0.0
 40
0.0
 40
0.0
 40
0.4999999999999964
 40
1.0
 40
1.0
 40
1.0
 40
1.0
 10
1636.006994193868
 20
976.9997447192011
 30
0.0
 10
1636.095171731668
 20
977.0657540644058
 30
0.0
 10
1636.271526807267
 20
977.1977727548156
 30
0.0
 10
1636.300196984837
 20
977.3651059170767
 30
0.0
 10
1636.314532073623
 20
977.4487724982073
 30
0.0
  0
SPLINE
  5
FD
330
1F
100
AcDbEntity
  8
1
  6
SLD-Сплошная
100
AcDbSpline
210
0.0
220
0.0
230
1.0
 70
     8
 71
     3
 72
    11
 73
     7
 74
     0
 42
0.00000001
 43
0.00000001
 40
0.0
 40
0.0
 40
0.0
 40
0.0
 40
0.250000000000002
 40
0.5000000000000041
 40
0.7499999999999956
 40
1.0
 40
1.0
 40
1.0
 40
1.0
 10
1636.006994193835
 20
1381.541942843327
 30
0.0
 10
1636.093123861807
 20
1381.482738004889
 30
0.0
 10
1636.265383197753
 20
1381.364328328011
 30
0.0
 10
1636.339106511507
 20
1381.133742104918
 30
0.0
 10
1636.265383197753
 20
1380.903155881824
 30
0.0
 10
1636.093123861808
 20
1380.784746204947
 30
0.0
 10
1636.006994193835
 20
1380.725541366508
 30
0.0
  0
SPLINE
  5
FE
330
1F
100
AcDbEntity
  8
1
  6
SLD-Сплошная
100
AcDbSpline
210
0.0
220
0.0
230
1.0
 70
     8
 71
     3
 72
    12
 73
     8
 74
     0
 42
0.00000001
 43
0.00000001
 40
0.0
 40
0.0
 40
0.0
 40
0.0
 40
0.076834993471911
 40
0.1653464171656667
 40
0.3824629150541811
 40
0.6595554638257647
 40
1.0
 40
1.0
 40
1.0
 40
1.0
 10
1634.522069953343
 20
1380.684574990847
 30
0.0
 10
1634.55912495914
 20
1380.709772238005
 30
0.0
 10
1634.638866131354
 20
1380.763995897715
 30
0.0
 10
1634.842936230524
 20
1380.90642267671
 30
0.0
 10
1635.170634445612
 20
1381.116455583879
 30
0.0
 10
1635.629440866092
 20
1381.361238317395
 30
0.0
 10
1635.87282046366
 20
1381.477724629575
 30
0.0
 10
1636.006994193835
 20
1381.541942843327
 30
0.0
  0
SPLINE
  5
FF
330
1F
100
AcDbEntity
  8
1
  6
SLD-Сплошная
100
AcDbSpline
210
0.0
220
0.0
230
1.0
 70
     8
 71
     3
 72
    11
 73
     7
 74
     0
 42
0.00000001
 43
0.00000001
 40
0.0
 40
0.0
 40
0.0
 40
0.0
 40
0.2500000000005226
 40
0.499999999999988
 40
0.7499999999993046
 40
1.0
 40
1.0
 40
1.0
 40
1.0
 10
1635.299887412648
 20
1381.133738787416
 30
0.0
 10
1635.303988825409
 20
1381.134159750712
 30
0.0
 10
1635.31219165093
 20
1381.135001677304
 30
0.0
 10
1635.315702284918
 20
1381.133742104918
 30
0.0
 10
1635.31219165093
 20
1381.132482532531
 30
0.0
 10
1635.303988825409
 20
1381.133324459123
 30
0.0
 10
1635.299887412648
 20
1381.133745422419
 30
0.0
  0
LINE
  5
100
330
1F
100
AcDbEntity
  8
1
  6
SLD-Сплошная
100
AcDbLine
 10
1635.2998874126
 20
1381.1337387874
 30
0.0
 11
1636.0069941938
 21
1381.5419428433
 31
0.0
  0
SPLINE
  5
101
330
1F
100
AcDbEntity
  8
1
  6
SLD-Сплошная
100
AcDbSpline
210
0.0
220
0.0
230
1.0
 70
     8
 71
     3
 72
    13
 73
     9
 74
     0
 42
0.00000001
 43
0.00000001
 40
0.0
 40
0.0
 40
0.0
 40
0.0
 40
0.3220863391198376
 40
0.499603395388182
 40
0.6100900277483431
 40
0.7293891021537927
 40
0.8589773926145877
 40
1.0
 40
1.0
 40
1.0
 40
1.0
 10
1635.806994193784
 20
1381.888353003853
 30
0.0
 10
1635.688386925508
 20
1381.814981738921
 30
0.0
 10
1635.504409566798
 20
1381.701172090289
 30
0.0
 10
1635.192835734629
 20
1381.538116062315
 30
0.0
 10
1634.976996161638
 20
1381.39693237144
 30
0.0
 10
1634.778158252265
 20
1381.265541536285
 30
0.0
 10
1634.55529741569
 20
1381.130116694486
 30
0.0
 10
1634.401971964268
 20
1381.064946887974
 30
0.0
 10
1634.322069953262
 20
1381.030985151361
 30
0.0
  0
SPLINE
  5
102
330
1F
100
AcDbEntity
  8
1
  6
SLD-Сплошная
100
AcDbSpline
210
0.0
220
0.0
230
1.0
 70
     8
 71
     3
 72
    11
 73
     7
 74
     0
 42
0.00000001
 43
0.00000001
 40
0.0
 40
0.0
 40
0.0
 40
0.0
 40
0.2499999999999996
 40
0.5000000000000051
 40
0.750000000000007
 40
1.0
 40
1.0
 40
1.0
 40
1.0
 10
1635.099887412598
 20
1382.296696394831
 30
0.0
 10
1635.194231175718
 20
1382.341674003178
 30
0.0
 10
1635.382918701958
 20
1382.431629219872
 30
0.0
 10
1635.619496962027
 20
1382.380142402511
 30
0.0
 10
1635.782351908342
 20
1382.200963060403
 30
0.0
 10
1635.798780098637
 20
1381.992556356036
 30
0.0
 10
1635.806994193784
 20
1381.888353003853
 30
0.0
  0
SPLINE
  5
103
330
1F
100
AcDbEntity
  8
1
  6
SLD-Сплошная
100
AcDbSpline
210
0.0
220
0.0
230
1.0
 70
     8
 71
     3
 72
     9
 73
     5
 74
     0
 42
0.00000001
 43
0.00000001
 40
0.0
 40
0.0
 40
0.0
 40
0.0
 40
0.4999489266172172
 40
1.0
 40
1.0
 40
1.0
 40
1.0
 10
1216.72819282947
 20
1624.172550785358
 30
0.0
 10
1216.648576426076
 20
1624.201975043862
 30
0.0
 10
1216.489327352513
 20
1624.260829572671
 30
0.0
 10
1216.286826791795
 20
1624.174137119574
 30
0.0
 10
1216.185566169047
 20
1624.130786465349
 30
0.0
  0
LINE
  5
104
330
1F
100
AcDbEntity
  8
1
  6
SLD-Сплошная
100
AcDbLine
 10
1635.0998874126
 20
1381.4801489479
 30
0.0
 11
1635.8069941938
 21
1381.8883530039
 31
0.0
  0
SPLINE
  5
105
330
1F
100
AcDbEntity
  8
1
  6
SLD-Сплошная
100
AcDbSpline
210
0.0
220
0.0
230
1.0
 70
     8
 71
     3
 72
    11
 73
     7
 74
     0
 42
0.00000001
 43
0.00000001
 40
0.0
 40
0.0
 40
0.0
 40
0.0
 40
0.249999999999904
 40
0.500000000000125
 40
0.7500000000001888
 40
1.0
 40
1.0
 40
1.0
 40
1.0
 10
1635.099887412598
 20
1381.480155582945
 30
0.0
 10
1635.101573993456
 20
1381.483917231184
 30
0.0
 10
1635.104947155172
 20
1381.49144052766
 30
0.0
 10
1635.107794848733
 20
1381.493848346547
 30
0.0
 10
1635.107131908305
 20
1381.490175569017
 30
0.0
 10
1635.1023022445
 20
1381.483491154967
 30
0.0
 10
1635.099887412598
 20
1381.480148947942
 30
0.0
  0
ELLIPSE
  5
106
330
1F
100
AcDbEntity
  8
1
  6
SLD-Сплошная
100
AcDbEllipse
 10
1623.3144274715
 20
973.0339505797
 30
0.0
 11
-0.4612130826676549
 21
2.975579473082689
 31
0.0
210
0.0
220
0.0
230
1.0
 40
0.7078581484
 41
1.838576555331033
 42
3.409372882115111
  0
ELLIPSE
  5
107
330
1F
100
AcDbEntity
  8
1
  6
SLD-Сплошная
100
AcDbEllipse
 10
1206.404269284
 20
1213.7110619449
 30
0.0
 11
2.103726216599853
 21
1.892910169520519
 31
0.0
210
0.0
220
0.0
230
1.0
 40
0.2497537726
 41
2.437191768040067
 42
3.222671195489348
  0
LINE
  5
108
330
1F
100
AcDbEntity
  8
1
  6
SLD-Сплошная
100
AcDbLine
 10
1624.3165089995
 20
970.250801035
 30
0.0
 11
1625.2236894899
 21
970.7745051847
 31
0.0
  0
ELLIPSE
  5
109
330
1F
100
AcDbEntity
  8
1
  6
SLD-Сплошная
100
AcDbEllipse
 10
1206.4042692839
 20
1615.122525068
 30
0.0
 11
2.346496907419578
 21
-1.886933551484617
 31
0.0
210
0.0
220
0.0
230
1.0
 40
0.7078398481
 41
2.873665660639703
 42
4.444461987434578
  0
ELLIPSE
  5
10A
330
1F
100
AcDbEntity
  8
1
  6
SLD-Сплошная
100
AcDbEllipse
 10
1206.4042692839
 20
1213.7110619449
 30
0.0
 11
2.691140751009016
 21
0.8754882017478849
 31
0.0
210
0.0
220
0.0
230
1.0
 40
0.2496252376
 41
3.060561804100811
 42
3.845959967500041
  0
LINE
  5
10B
330
1F
100
AcDbEntity
  8
1
  6
SLD-Сплошная
100
AcDbLine
 10
1205.3830250716
 20
1617.8944419972
 30
0.0
 11
1204.4950809747
 21
1617.3818427811
 31
0.0
  0
ELLIPSE
  5
10C
330
1F
100
AcDbEntity
  8
1
  6
SLD-Сплошная
100
AcDbEllipse
 10
1643.7498134478
 20
980.1772296179
 30
0.0
 11
1.999729017872369
 21
-0.05915489558151421
 31
0.0
210
0.0
220
0.0
230
0.9999999999999998
 40
0.5565381198
 41
3.943452537644681
 42
5.514248864444445
  0
ELLIPSE
  5
10D
330
1F
100
AcDbEntity
  8
1
  6
SLD-Сплошная
100
AcDbEllipse
 10
1643.7498134478
 20
1385.1814723133
 30
0.0
 11
1.999640479969458
 21
0.06348472504282655
 31
0.0
210
0.0
220
0.0
230
1.0
 40
0.5973141191
 41
3.908029519506504
 42
5.478825846296493
  0
ELLIPSE
  5
10E
330
1F
100
AcDbEntity
  8
1
  6
SLD-Сплошная
100
AcDbEllipse
 10
1643.7498134478
 20
1385.1814723133
 30
0.0
 11
0.9991743340497125
 21
0.06590621735699644
 31
0.0
210
0.0
220
0.0
230
0.9999999999999999
 40
0.616454653
 41
3.886351437168971
 42
5.457147763959664
  0
LINE
  5
10F
330
1F
100
AcDbEntity
  8
1
  6
SLD-Сплошная
100
AcDbLine
 10
1645.1640270102
 20
1384.3650642014
 30
0.0
 11
1644.456920229
 21
1384.7732682574
 31
0.0
  0
LINE
  5
110
330
1F
100
AcDbEntity
  8
1
  6
SLD-Сплошная
100
AcDbLine
 10
1643.0427066667
 20
1384.7155301029
 30
0.0
 11
1642.3355998855
 21
1384.307326047
 31
0.0
  0
ARC
  5
111
330
1F
100
AcDbEntity
  8
1
  6
SLD-Сплошная
100
AcDbCircle
 10
1761.9481942186
 20
1453.4159299739
 30
0.0
 40
3.073609615127937
100
AcDbArc
 50
2.6054784854
 51
57.3945216601
  0
ARC
  5
112
330
1F
100
AcDbEntity
  8
1
  6
SLD-Сплошная
100
AcDbCircle
 10
1642.0935948075
 20
1384.2253424969
 30
0.0
 40
3.073609615143514
100
AcDbArc
 50
2.6054784856
 51
57.39452166
  0
ELLIPSE
  5
113
330
1F
100
AcDbEntity
  8
1
  6
SLD-Сплошная
100
AcDbEllipse
 10
1643.7498134478
 20
1385.1814723133
 30
0.0
 11
1.054720450852756
 21
1.700046099234669
 31
0.0
210
0.0
220
0.0
230
1.0
 40
0.5974079498
 41
0.8042814001492146
 42
2.375077726937167
  0
ELLIPSE
  5
114
330
1F
100
AcDbEntity
  8
1
  6
SLD-Сплошная
100
AcDbEllipse
 10
1222.3141718607
 20
1628.4710896364
 30
0.0
 11
0.9485527510694283
 21
1.761437681458801
 31
0.0
210
0.0
220
0.0
230
0.9999999999999999
 40
0.5566319546
 41
0.7688525864859034
 42
2.339648913279984
  0
ARC
  5
115
330
1F
100
AcDbEntity
  8
1
  6
SLD-Сплошная
100
AcDbCircle
 10
1642.9217041277
 20
1384.7034074051
 30
0.0
 40
1.536804807573241
100
AcDbArc
 50
2.6054784857
 51
57.39452166
  0
LINE
  5
116
330
1F
100
AcDbEntity
  8
1
  6
SLD-Сплошная
100
AcDbLine
 10
1643.7498134478
 20
1385.9980131252
 30
0.0
 11
1643.7498134478
 21
1386.814553937
 31
0.0
  0
ELLIPSE
  5
117
330
1F
100
AcDbEntity
  8
1
  6
SLD-Сплошная
100
AcDbEllipse
 10
1643.7498134478
 20
1385.1814723133
 30
0.0
 11
0.5566258152889531
 21
0.832382309851482
 31
0.0
210
0.0
220
0.0
230
0.9999999999999998
 40
0.6165484624
 41
0.8259634570116144
 42
2.396759783793702
  0
LINE
  5
118
330
1F
100
AcDbEntity
  8
1
  6
SLD-Сплошная
100
AcDbLine
 10
1642.9927066667
 20
1384.8021326429
 30
0.0
 11
1642.2855998855
 21
1384.393928587
 31
0.0
  0
LWPOLYLINE
  5
119
330
1F
100
AcDbEntity
  8
1
  6
SLD-Сплошная
100
AcDbPolyline
 90
       17
 70
   128
 43
0.0
 10
1707.3894237546
 20
1045.903058872
 10
1707.2541247296
 20
1045.8560301416
 10
1707.1394237546
 20
1045.8783165773
 10
1707.0627830134
 20
1045.9665252715
 10
1707.035870364
 20
1046.10722725
 10
1707.0627830134
 20
1046.2790019121
 10
1707.1394237546
 20
1046.4556981225
 10
1707.2541247296
 20
1046.6104154851
 10
1707.3894237546
 20
1046.7195996839
 10
1707.5247227797
 20
1046.7666284144
 10
1707.6394237546
 20
1046.7443419786
 10
1707.7160644958
 20
1046.6561332844
 10
1707.7429771452
 20
1046.5154313059
 10
1707.7160644958
 20
1046.3436566439
 10
1707.6394237546
 20
1046.1669604334
 10
1707.5247227797
 20
1046.0122430708
 10
1707.3894237546
 20
1045.903058872
  0
LWPOLYLINE
  5
11A
330
1F
100
AcDbEntity
  8
1
  6
SLD-Сплошная
100
AcDbPolyline
 90
       17
 70
   128
 43
0.0
 10
1672.0340846953
 20
1033.6582641953
 10
1671.8987856703
 20
1033.6112354649
 10
1671.7840846953
 20
1033.6335219006
 10
1671.7074439541
 20
1033.7217305948
 10
1671.6805313047
 20
1033.8624325733
 10
1671.7074439541
 20
1034.0342072354
 10
1671.7840846953
 20
1034.2109034458
 10
1671.8987856703
 20
1034.3656208084
 10
1672.0340846953
 20
1034.4748050072
 10
1672.1693837203
 20
1034.5218337377
 10
1672.2840846953
 20
1034.4995473019
 10
1672.3607254365
 20
1034.4113386077
 10
1672.3876380859
 20
1034.2706366292
 10
1672.3607254365
 20
1034.0988619672
 10
1672.2840846953
 20
1033.9221657567
 10
1672.1693837203
 20
1033.7674483941
 10
1672.0340846953
 20
1033.6582641953
  0
LWPOLYLINE
  5
11B
330
1F
100
AcDbEntity
  8
1
  6
SLD-Сплошная
100
AcDbPolyline
 90
       17
 70
   128
 43
0.0
 10
1672.0340846953
 20
1361.0911297615
 10
1672.1693837203
 20
1361.138158492
 10
1672.2840846953
 20
1361.1158720562
 10
1672.3607254365
 20
1361.027663362
 10
1672.3876380859
 20
1360.8869613835
 10
1672.3607254365
 20
1360.7151867215
 10
1672.2840846953
 20
1360.538490511
 10
1672.1693837203
 20
1360.3837731484
 10
1672.0340846953
 20
1360.2745889496
 10
1671.8987856703
 20
1360.2275602192
 10
1671.7840846953
 20
1360.2498466549
 10
1671.7074439541
 20
1360.3380553491
 10
1671.6805313047
 20
1360.4787573276
 10
1671.7074439541
 20
1360.6505319897
 10
1671.7840846953
 20
1360.8272282001
 10
1671.8987856703
 20
1360.9819455627
 10
1672.0340846953
 20
1361.0911297615
  0
LINE
  5
11C
330
1F
100
AcDbEntity
  8
1
  6
SLD-Сплошная
100
AcDbLine
 10
1637.7394058077
 20
1052.9342742958
 30
0.0
 11
1637.8183198884
 21
1053.1208014896
 31
0.0
  0
LINE
  5
11D
330
1F
100
AcDbEntity
  8
1
  6
SLD-Сплошная
100
AcDbLine
 10
1642.3355998855
 20
979.4185596606
 30
0.0
 11
1636.3145320736
 21
989.8473549959
 31
0.0
  0
LINE
  5
11E
330
1F
100
AcDbEntity
  8
1
  6
SLD-Сплошная
100
AcDbLine
 10
1642.3355998855
 20
1384.307326047
 30
0.0
 11
1636.3145320736
 21
1380.8303076345
 31
0.0
  0
LINE
  5
11F
330
1F
100
AcDbEntity
  8
1
  6
SLD-Сплошная
100
AcDbLine
 10
1636.3145320736
 20
1380.9457839434
 30
0.0
 11
1642.2855998855
 21
1384.393928587
 31
0.0
  0
LINE
  5
120
330
1F
100
AcDbEntity
  8
1
  6
SLD-Сплошная
100
AcDbLine
 10
1220.9499582982
 20
1627.625817139
 30
0.0
 11
1226.0509360509
 21
1618.790664529
 31
0.0
  0
LINE
  5
121
330
1F
100
AcDbEntity
  8
1
  6
SLD-Сплошная
100
AcDbLine
 10
1636.3145320736
 20
1380.9456512433
 30
0.0
 11
1642.9927066667
 21
1384.8021326429
 31
0.0
  0
LINE
  5
122
330
1F
100
AcDbEntity
  8
1
  6
SLD-Сплошная
100
AcDbLine
 10
1636.6382190706
 20
1381.1324265443
 30
0.0
 11
1636.6380926636
 21
1381.1324995175
 31
0.0
  0
LINE
  5
123
330
1F
100
AcDbEntity
  8
1
  6
SLD-Сплошная
100
AcDbLine
 10
1635.9311122894
 20
1380.7242224884
 30
0.0
 11
1636.6382190706
 21
1381.1324265443
 31
0.0
  0
LINE
  5
124
330
1F
100
AcDbEntity
  8
1
  6
SLD-Сплошная
100
AcDbLine
 10
1636.3145320736
 20
1380.9455052732
 30
0.0
 11
1636.6382190706
 21
1381.1324265443
 31
0.0
  0
LINE
  5
125
330
1F
100
AcDbEntity
  8
1
  6
SLD-Сплошная
100
AcDbLine
 10
1628.1434642618
 20
1377.0438669795
 30
0.0
 11
1623.6133006399
 21
1374.4286591868
 31
0.0
  0
ELLIPSE
  5
126
330
1F
100
AcDbEntity
  8
1
  6
SLD-Сплошная
100
AcDbEllipse
 10
1629.5576778242
 20
1377.0439996795
 30
0.0
 11
1.580529840018698
 21
0.1927335649925226
 31
0.0
210
0.0
220
0.0
230
1.0
 40
0.2276700627
 41
2.32962612318473
 42
2.650189545573617
  0
ELLIPSE
  5
127
330
1F
100
AcDbEntity
  8
1
  6
SLD-Сплошная
100
AcDbEllipse
 10
1763.2508594684
 20
1454.1101532578
 30
0.0
 11
2.4930803407251
 21
0.9065865826364642
 31
0.0
210
0.0
220
0.0
230
1.0
 40
0.2050299685
 41
0.3206699639401165
 42
0.7109785221995482
  0
ARC
  5
128
330
1F
100
AcDbEntity
  8
1
  6
SLD-Сплошная
100
AcDbCircle
 10
1764.5167571334
 20
1049.6844583504
 30
0.0
 40
1.239223002903858
100
AcDbArc
 50
293.8903166262
 51
354.7895424159
  0
LWPOLYLINE
  5
129
330
1F
100
AcDbEntity
  8
1
  6
SLD-Сплошная
100
AcDbPolyline
 90
        9
 70
   128
 43
0.0
 10
1765.0186264213
 20
1453.5556516784
 10
1765.2593232178
 20
1453.7167835233
 10
1765.4563665386
 20
1453.8965937484
 10
1765.6054736946
 20
1454.0911742218
 10
1765.7034038777
 20
1454.2962957837
 10
1765.7480285991
 20
1454.5075001664
 10
1765.738377951
 20
1454.7201968936
 10
1765.6746616882
 20
1454.9297630531
 10
1765.558264668
 20
1455.131643775
  0
LWPOLYLINE
  5
12A
330
1F
100
AcDbEntity
  8
1
  6
SLD-Сплошная
100
AcDbPolyline
 90
        3
 70
   128
 43
0.0
 10
1764.7357007088
 20
1454.6989579719
 10
1764.7051408002
 20
1454.7883225592
 10
1764.6353025882
 20
1454.9094509923
  0
LINE
  5
12B
330
1F
100
AcDbEntity
  8
1
  6
SLD-Сплошная
100
AcDbLine
 10
1765.558264668
 20
1455.131643775
 30
0.0
 11
1764.6353025882
 21
1454.9094509923
 31
0.0
  0
LINE
  5
12C
330
1F
100
AcDbEntity
  8
1
  6
SLD-Сплошная
100
AcDbLine
 10
1765.2392290744
 20
1455.684229631
 30
0.0
 11
1764.5853025882
 21
1454.9960535323
 31
0.0
  0
LWPOLYLINE
  5
12D
330
1F
100
AcDbEntity
  8
1
  6
SLD-Сплошная
100
AcDbPolyline
 90
        3
 70
   128
 43
0.0
 10
1764.5853025882
 20
1454.9960535323
 10
1764.5153100267
 20
1455.1171191029
 10
1764.4532724774
 20
1455.1882016889
  0
LWPOLYLINE
  5
12E
330
1F
100
AcDbEntity
  8
1
  6
SLD-Сплошная
100
AcDbPolyline
 90
        9
 70
   128
 43
0.0
 10
1765.2392290744
 20
1455.684229631
 10
1765.1225748051
 20
1455.8860055819
 10
1764.9729236517
 20
1456.046002627
 10
1764.793528246
 20
1456.1607432689
 10
1764.5882877038
 20
1456.2277336475
 10
1764.361662879
 20
1456.2455177431
 10
1764.1185794074
 20
1456.2137090225
 10
1763.8643206498
 20
1456.1329988407
 10
1763.604412859
 20
1456.005141414
  0
ELLIPSE
  5
12F
330
1F
100
AcDbEntity
  8
1
  6
SLD-Сплошная
100
AcDbEllipse
 10
1763.2008594684
 20
1454.1967557978
 30
0.0
 11
2.031629674499754
 21
1.705837126210326
 31
0.0
210
0.0
220
0.0
230
0.9999999999999998
 40
0.2051618287
 41
5.57217797526516
 42
5.962486533519749
  0
ARC
  5
130
330
1F
100
AcDbEntity
  8
1
  6
SLD-Сплошная
100
AcDbCircle
 10
1342.8990057125
 20
1698.2934159465
 30
0.0
 40
1.239326318115314
100
AcDbArc
 50
65.2088626953
 51
126.1015957338
  0
ELLIPSE
  5
131
330
1F
100
AcDbEntity
  8
1
  6
SLD-Сплошная
100
AcDbEllipse
 10
1763.2008594684
 20
1454.1967557978
 30
0.0
 11
1.500000002402885
 21
0.8660723249063268
 31
0.0
210
0.0
220
0.0
230
1.0
 40
0.0000703729
 41
5.497746514198975
 42
5.888055071988892
  0
LINE
  5
132
330
1F
100
AcDbEntity
  8
1
  6
SLD-Сплошная
100
AcDbLine
 10
1765.0186264213
 20
1455.1306633976
 30
0.0
 11
1764.6355276174
 21
1454.9095051656
 31
0.0
  0
LINE
  5
133
330
1F
100
AcDbEntity
  8
1
  6
SLD-Сплошная
100
AcDbLine
 10
1764.9686264214
 20
1455.2172659376
 30
0.0
 11
1764.5792151065
 21
1454.9924635705
 31
0.0
  0
LINE
  5
134
330
1F
100
AcDbEntity
  8
1
  6
SLD-Сплошная
100
AcDbLine
 10
1764.5792475363
 20
1454.9924092186
 30
0.0
 11
1764.9686264214
 21
1455.2172659376
 31
0.0
  0
LINE
  5
135
330
1F
100
AcDbEntity
  8
1
  6
SLD-Сплошная
100
AcDbLine
 10
1636.3145320736
 20
989.731878687
 30
0.0
 11
1642.2855998855
 21
979.3896858917
 31
0.0
  0
LINE
  5
136
330
1F
100
AcDbEntity
  8
1
  6
SLD-Сплошная
100
AcDbLine
 10
1642.3356080126
 20
979.4185549689
 30
0.0
 11
1642.2855998855
 21
979.3896858917
 31
0.0
  0
ARC
  5
137
330
1F
100
AcDbEntity
  8
1
  6
SLD-Сплошная
100
AcDbCircle
 10
1764.0386226545
 20
1048.4432354913
 30
0.0
 40
0.9859558242495977
100
AcDbArc
 50
305.013331644
 51
6.2988487493
  0
ARC
  5
138
330
1F
100
AcDbEntity
  8
1
  6
SLD-Сплошная
100
AcDbCircle
 10
1644.3018782754
 20
979.2209671123
 30
0.0
 40
0.8734183948568082
100
AcDbArc
 50
230.7967147643
 51
9.2140369905
  0
LINE
  5
139
330
1F
100
AcDbEntity
  8
1
  6
SLD-Сплошная
100
AcDbLine
 10
1643.7498134478
 20
979.0634812343
 30
0.0
 11
1643.7498134478
 21
978.5441479942
 31
0.0
  0
ELLIPSE
  5
13A
330
1F
100
AcDbEntity
  8
1
  6
SLD-Сплошная
100
AcDbEllipse
 10
1643.7498134478
 20
980.1772296179
 30
0.0
 11
1.054720450852756
 21
1.700046099234669
 31
0.0
210
0.0
220
0.0
230
1.0
 40
0.5974079498
 41
2.375077726937443
 42
3.945874053732054
  0
LINE
  5
13B
330
1F
100
AcDbEntity
  8
1
  6
SLD-Сплошная
100
AcDbLine
 10
1225.950936051
 20
1618.8483933002
 30
0.0
 11
1220.8999582983
 21
1627.5969433701
 31
0.0
  0
LINE
  5
13C
330
1F
100
AcDbEntity
  8
1
  6
SLD-Сплошная
100
AcDbLine
 10
1220.9499623615
 20
1627.6258101013
 30
0.0
 11
1220.8999582983
 21
1627.5969433701
 31
0.0
  0
ELLIPSE
  5
13D
330
1F
100
AcDbEntity
  8
1
  6
SLD-Сплошная
100
AcDbEllipse
 10
1222.3141718607
 20
1628.4710896364
 30
0.0
 11
1.999640479968775
 21
0.06348472510740066
 31
0.0
210
0.0
220
0.0
230
1.0
 40
0.5973141192
 41
2.337233192689038
 42
3.908029519483929
  0
LINE
  5
13E
330
1F
100
AcDbEntity
  8
1
  6
SLD-Сплошная
100
AcDbLine
 10
1221.3494488119
 20
1629.028012398
 30
0.0
 11
1220.8999582983
 21
1629.2874977483
 31
0.0
  0
ARC
  5
13F
330
1F
100
AcDbEntity
  8
1
  6
SLD-Сплошная
100
AcDbCircle
 10
1221.7621070331
 20
1629.4273521421
 30
0.0
 40
0.8734183948615774
100
AcDbArc
 50
50.7967147649
 51
189.2140369902
  0
ARC
  5
140
330
1F
100
AcDbEntity
  8
1
  6
SLD-Сплошная
100
AcDbCircle
 10
1341.5829311621
 20
1698.4769960789
 30
0.0
 40
1.005954471804874
100
AcDbArc
 50
54.3824225248
 51
114.3071190461
  0
LWPOLYLINE
  5
141
330
1F
100
AcDbEntity
  8
1
  6
SLD-Сплошная
100
AcDbPolyline
 90
       21
 70
   128
 43
0.0
 10
1240.7696588496
 20
1402.9889377419
 10
1242.3576495122
 20
1401.9241743986
 10
1243.9045120508
 20
1400.5909161729
 10
1245.3701835382
 20
1399.0236937527
 10
1246.7167038526
 20
1397.2630973752
 10
1247.9091988254
 20
1395.3547255619
 10
1248.9167834629
 20
1393.3480041403
 10
1249.7133618525
 20
1391.2949061413
 10
1250.2783030322
 20
1389.2486057244
 10
1250.5969753223
 20
1387.2621009956
 10
1250.6611252777
 20
1385.386841384
 10
1250.4690914484
 20
1383.6713951284
 10
1250.0258474097
 20
1382.1601913859
 10
1249.3428729493
 20
1380.8923695394
 10
1248.4378567471
 20
1379.9007655089
 10
1247.3342382472
 20
1379.211061318
 10
1246.0606005891
 20
1378.8411199428
 10
1244.6499303192
 20
1378.8005226707
 10
1243.1387630565
 20
1379.0903209497
 10
1241.5662372392
 20
1379.7030091565
 10
1240.7680499033
 20
1380.126723985
  0
LWPOLYLINE
  5
142
330
1F
100
AcDbEntity
  8
1
  6
SLD-Сплошная
100
AcDbPolyline
 90
       11
 70
   128
 43
0.0
 10
1230.870163913
 20
1397.2722231582
 10
1230.9423423769
 20
1398.6084790805
 10
1231.261014667
 20
1400.2270526148
 10
1231.8259558467
 20
1401.6210858295
 10
1232.6225342363
 20
1402.7544739966
 10
1233.6301188738
 20
1403.5978629578
 10
1234.8226138466
 20
1404.1294093821
 10
1236.169134161
 20
1404.3353464964
 10
1237.6348056484
 20
1404.2103406375
 10
1239.181668187
 20
1403.7576293915
 10
1240.7696588496
 20
1402.9889377419
  0
LWPOLYLINE
  5
143
330
1F
100
AcDbEntity
  8
1
  6
SLD-Сплошная
100
AcDbPolyline
 90
       36
 70
   128
 43
0.0
 10
1238.648338506
 20
1399.3147031385
 10
1240.0371852086
 20
1398.3685953886
 10
1241.3813932353
 20
1397.1642090913
 10
1242.6377586344
 20
1395.7402542131
 10
1243.7659007879
 20
1394.1424978354
 10
1244.729560279
 20
1392.4222931628
 10
1245.4977642987
 20
1390.634928989
 10
1246.0458221376
 20
1388.837852669
 10
1246.356118766
 20
1387.0888237146
 10
1246.4186809948
 20
1385.4440573552
 10
1246.2314980226
 20
1383.9564177352
 10
1245.8005860641
 20
1382.6737188158
 10
1245.1397949842
 20
1381.6371875959
 10
1244.2703631519
 20
1380.8801390415
 10
1243.2202348216
 20
1380.4269053162
 10
1242.023161982
 20
1380.2920537249
 10
1240.717619539
 20
1380.4799185086
 10
1239.3455687011
 20
1380.9844615386
 10
1237.951108311
 20
1381.7894663868
 10
1236.579057473
 20
1382.869059535
 10
1235.2735150301
 20
1384.1885419711
 10
1234.0764421905
 20
1385.705504444
 10
1233.0263138602
 20
1387.3711905316
 10
1232.1568820279
 20
1389.1320637126
 10
1231.496090948
 20
1390.931528074
 10
1231.0651789895
 20
1392.7117473506
 10
1230.8779960172
 20
1394.4155038302
 10
1230.9405582461
 20
1395.9880373776
 10
1231.2508548744
 20
1397.3788054708
 10
1231.7989127134
 20
1398.5431076789
 10
1232.5671167331
 20
1399.4435223709
 10
1233.5307762242
 20
1400.0511094777
 10
1234.6589183777
 20
1400.3463406499
 10
1235.9152837767
 20
1400.3197269147
 10
1237.2594918035
 20
1399.9721236593
 10
1238.648338506
 20
1399.3147031385
  0
LWPOLYLINE
  5
144
330
1F
100
AcDbEntity
  8
1
  6
SLD-Сплошная
100
AcDbPolyline
 90
       16
 70
   128
 43
0.0
 10
1241.4767656308
 20
1403.3971417978
 10
1243.0647562934
 20
1402.3323784545
 10
1244.611618832
 20
1400.9991202289
 10
1246.0772903194
 20
1399.4318978086
 10
1247.4238106338
 20
1397.6713014311
 10
1248.6163056065
 20
1395.7629296178
 10
1249.6238902441
 20
1393.7562081963
 10
1250.4204686337
 20
1391.7031101972
 10
1250.9854098134
 20
1389.6568097803
 10
1251.3040821034
 20
1387.6703050515
 10
1251.3682320589
 20
1385.7950454399
 10
1251.1761982296
 20
1384.0795991843
 10
1250.7329541909
 20
1382.5683954418
 10
1250.0499797305
 20
1381.3005735953
 10
1249.1449635283
 20
1380.3089695648
 10
1248.4761967592
 20
1379.840886358
  0
ARC
  5
145
330
1F
100
AcDbEntity
  8
1
  6
SLD-Сплошная
100
AcDbCircle
 10
1237.3668717156
 20
1397.5817835004
 30
0.0
 40
7.121068748505079
100
AcDbArc
 50
54.7499671021
 51
113.9395744688
  0
LWPOLYLINE
  5
146
330
1F
100
AcDbEntity
  8
1
  6
SLD-Сплошная
100
AcDbPolyline
 90
       30
 70
   128
 43
0.0
 10
1238.648338506
 20
1396.8650807028
 10
1239.8643949543
 20
1396.0103440947
 10
1241.0235899545
 20
1394.8901296936
 10
1242.0717208369
 20
1393.55681748
 10
1242.9597781664
 20
1392.072751651
 10
1243.6462373691
 20
1390.5073254755
 10
1244.0990003758
 20
1388.9337365415
 10
1244.2968964914
 20
1387.4255641187
 10
1244.2306723136
 20
1386.0533286734
 10
1243.9034244112
 20
1384.8811944097
 10
1243.3304545325
 20
1383.9639690233
 10
1242.5385541122
 20
1383.3445409537
 10
1241.5647515339
 20
1383.051873969
 10
1240.4545807237
 20
1383.0996528522
 10
1239.2599520349
 20
1383.4856435157
 10
1238.0367249772
 20
1384.1917974652
 10
1236.8420962884
 20
1385.1850957267
 10
1235.7319254782
 20
1386.4190927777
 10
1234.7581228999
 20
1387.8360882873
 10
1233.9662224796
 20
1389.3698251206
 10
1233.3932526009
 20
1390.9485874478
 10
1233.0660046985
 20
1392.4985540971
 10
1232.9997805206
 20
1393.9472503507
 10
1233.1976766363
 20
1395.2269367818
 10
1233.6504396429
 20
1396.2777766753
 10
1234.3368988457
 20
1397.0506339257
 10
1235.2249561751
 20
1397.5093705868
 10
1236.2730870576
 20
1397.6325366422
 10
1237.4322820578
 20
1397.4143729842
 10
1238.648338506
 20
1396.8650807028
  0
LWPOLYLINE
  5
147
330
1F
100
AcDbEntity
  8
1
  6
SLD-Сплошная
100
AcDbPolyline
 90
       12
 70
   128
 43
0.0
 10
1244.072293406
 20
1385.3464911544
 10
1243.0783286533
 20
1385.6899454176
 10
1241.8551015956
 20
1386.3960993671
 10
1240.6604729068
 20
1387.3893976287
 10
1239.5503020966
 20
1388.6233946796
 10
1238.5764995183
 20
1390.0403901893
 10
1237.784599098
 20
1391.5741270225
 10
1237.2116292193
 20
1393.1528893497
 10
1236.8843813169
 20
1394.702855999
 10
1236.818157139
 20
1396.1515522526
 10
1237.0160532547
 20
1397.4312386838
 10
1237.0427602245
 20
1397.523319163
  0
LINE
  5
148
330
1F
100
AcDbEntity
  8
1
  6
SLD-Сплошная
100
AcDbLine
 10
1239.4448923916
 20
1394.9886623277
 30
0.0
 11
1240.8193461563
 21
1395.111559206
 31
0.0
  0
LINE
  5
149
330
1F
100
AcDbEntity
  8
1
  6
SLD-Сплошная
100
AcDbLine
 10
1239.4448923916
 20
1394.9886623277
 30
0.0
 11
1239.2984864159
 21
1394.9434640758
 31
0.0
  0
LWPOLYLINE
  5
14A
330
1F
100
AcDbEntity
  8
1
  6
SLD-Сплошная
100
AcDbPolyline
 90
        9
 70
   128
 43
0.0
 10
1241.7502401301
 20
1387.6157298784
 10
1241.9207808188
 20
1387.4357060623
 10
1242.1037935207
 20
1387.3022321249
 10
1242.2868062226
 20
1387.2244040944
 10
1242.4573469113
 20
1387.2075258225
 10
1242.6037935207
 20
1387.2527475355
 10
1242.7161659564
 20
1387.3569874485
 10
1242.7868062226
 20
1387.5131417835
 10
1242.8109003019
 20
1387.7105688808
  0
LINE
  5
14B
330
1F
100
AcDbEntity
  8
1
  6
SLD-Сплошная
100
AcDbLine
 10
1237.7478361167
 20
1392.5946824209
 30
0.0
 11
1241.7502401301
 21
1387.6157298784
 31
0.0
  0
LWPOLYLINE
  5
14C
330
1F
100
AcDbEntity
  8
1
  6
SLD-Сплошная
100
AcDbPolyline
 90
        9
 70
   128
 43
0.0
 10
1237.7478361167
 20
1394.0089725936
 10
1237.6013895073
 20
1393.9637508805
 10
1237.4890170716
 20
1393.8595109676
 10
1237.4183768054
 20
1393.7033566325
 10
1237.3942827261
 20
1393.5059295352
 10
1237.4183768054
 20
1393.2806840061
 10
1237.4890170716
 20
1393.0429701557
 10
1237.6013895073
 20
1392.8089877901
 10
1237.7478361167
 20
1392.5946824209
  0
LINE
  5
14D
330
1F
100
AcDbEntity
  8
1
  6
SLD-Сплошная
100
AcDbLine
 10
1241.4877784151
 20
1394.3433797922
 30
0.0
 11
1237.7478361167
 21
1394.0089725936
 31
0.0
  0
LINE
  5
14E
330
1F
100
AcDbEntity
  8
1
  6
SLD-Сплошная
100
AcDbLine
 10
1242.8109003019
 20
1387.7105688808
 30
0.0
 11
1242.8109003019
 21
1392.3531310622
 31
0.0
  0
ARC
  5
14F
330
1F
100
AcDbEntity
  8
1
  6
SLD-Сплошная
100
AcDbCircle
 10
1636.7480301105
 20
1074.3000499245
 30
0.0
 40
2.603316187508927
100
AcDbArc
 50
37.9787348638
 51
58.8941006488
  0
ARC
  5
150
330
1F
100
AcDbEntity
  8
1
  6
SLD-Сплошная
100
AcDbCircle
 10
1637.8509541203
 20
1074.7562420921
 30
0.0
 40
3.073609615145046
100
AcDbArc
 50
2.6054784857
 51
57.39452166
  0
SPLINE
  5
151
330
1F
100
AcDbEntity
  8
1
  6
SLD-Сплошная
100
AcDbSpline
210
0.0
220
0.0
230
1.0
 70
     8
 71
     3
 72
    12
 73
     8
 74
     0
 42
0.00000001
 43
0.00000001
 40
0.0
 40
0.0
 40
0.0
 40
0.0
 40
0.0038128522418986
 40
0.1589839410707332
 40
0.523432497000078
 40
0.7821768889117862
 40
1.0
 40
1.0
 40
1.0
 40
1.0
 10
1640.214279541898
 20
1074.487759740749
 30
0.0
 10
1640.213060303784
 20
1074.489046021668
 30
0.0
 10
1640.162221910826
 20
1074.542679888591
 30
0.0
 10
1639.976563182757
 20
1074.729678814202
 30
0.0
 10
1639.622839548694
 20
1075.061322715321
 30
0.0
 10
1639.161835708415
 20
1075.491323479895
 30
0.0
 10
1638.913549379568
 20
1075.773209304466
 30
0.0
 10
1638.800065979525
 20
1075.902049913389
 30
0.0
  0
SPLINE
  5
152
330
1F
100
AcDbEntity
  8
1
  6
SLD-Сплошная
100
AcDbSpline
210
0.0
220
0.0
230
1.0
 70
     8
 71
     3
 72
    12
 73
     8
 74
     0
 42
0.00000001
 43
0.00000001
 40
0.0
 40
0.0
 40
0.0
 40
0.0
 40
0.2178231110881947
 40
0.4765675029999277
 40
0.8410160589292637
 40
0.9961871477580916
 40
0.9999999999999999
 40
0.9999999999999999
 40
0.9999999999999999
 40
0.9999999999999999
 10
1638.800065979522
 20
1027.34718410251
 30
0.0
 10
1638.913549379564
 20
1027.376599774873
 30
0.0
 10
1639.161835708411
 20
1027.440957287065
 30
0.0
 10
1639.622839548691
 20
1027.818983573502
 30
0.0
 10
1639.976563182754
 20
1028.287571957909
 30
0.0
 10
1640.162221910823
 20
1028.646656064435
 30
0.0
 10
1640.21306030378
 20
1028.758785125915
 30
0.0
 10
1640.214279541895
 20
1028.761474275149
 30
0.0
  0
LWPOLYLINE
  5
153
330
1F
100
AcDbEntity
  8
1
  6
SLD-Сплошная
100
AcDbPolyline
 90
        9
 70
   128
 43
0.0
 10
1636.2829994051
 20
1056.4052590269
 10
1636.677096476
 20
1055.8588308692
 10
1637.3014288114
 20
1054.7264561675
 10
1637.7222509589
 20
1053.5456800097
 10
1637.9083524647
 20
1052.4040751619
 10
1637.8459310317
 20
1051.3863092331
 10
1637.5396161719
 20
1050.5678652663
 10
1637.0121258572
 20
1050.0094435063
 10
1636.3145320736
 20
1049.753992079
  0
ARC
  5
154
330
1F
100
AcDbEntity
  8
1
  6
SLD-Сплошная
100
AcDbCircle
 10
1638.7495820986
 20
1028.57329613
 30
0.0
 40
1.227150897868164
100
AcDbArc
 50
237.6507184097
 51
272.3577620584
  0
LINE
  5
155
330
1F
100
AcDbEntity
  8
1
  6
SLD-Сплошная
100
AcDbLine
 10
1636.3145320736
 20
1028.5632608332
 30
0.0
 11
1638.0929591983
 21
1027.5365967073
 31
0.0
  0
LINE
  5
156
330
1F
100
AcDbEntity
  8
1
  6
SLD-Сплошная
100
AcDbLine
 10
1636.3145320736
 20
1077.5557095464
 30
0.0
 11
1638.0929591983
 21
1076.5290454204
 31
0.0
  0
LINE
  5
157
330
1F
100
AcDbEntity
  8
1
  6
SLD-Сплошная
100
AcDbLine
 10
1636.3145320736
 20
1079.18852577
 30
0.0
 11
1639.5071727607
 21
1077.3454535323
 31
0.0
  0
LINE
  5
158
330
1F
100
AcDbEntity
  8
1
  6
SLD-Сплошная
100
AcDbLine
 10
1640.9213863231
 20
1029.1696783311
 30
0.0
 11
1640.9213863231
 21
1074.8959637967
 31
0.0
  0
LINE
  5
159
330
1F
100
AcDbEntity
  8
1
  6
SLD-Сплошная
100
AcDbLine
 10
1637.7394058077
 20
1052.9342742958
 30
0.0
 11
1637.8183199103
 21
1053.1208015534
 31
0.0
  0
ARC
  5
15A
330
1F
100
AcDbEntity
  8
1
  6
SLD-Сплошная
100
AcDbCircle
 10
1639.9700152119
 20
1029.0485502736
 30
0.0
 40
0.9590510921846211
100
AcDbArc
 50
304.0563508079
 51
7.2558295855
  0
LWPOLYLINE
  5
15B
330
1F
100
AcDbEntity
  8
1
  6
SLD-Сплошная
100
AcDbPolyline
 90
        8
 70
   128
 43
0.0
 10
1636.3145320736
 20
1049.7933617807
 10
1636.5038719018
 20
1049.8860224697
 10
1637.0586906219
 20
1050.4215863073
 10
1637.3822289075
 20
1051.2364989946
 10
1637.4482756109
 20
1052.2647411522
 10
1637.251480021
 20
1053.4230107157
 10
1636.8077853462
 20
1054.6174715735
 10
1636.3145320736
 20
1055.5092004871
  0
LWPOLYLINE
  5
15C
330
1F
100
AcDbEntity
  8
1
  6
SLD-Сплошная
100
AcDbPolyline
 90
        8
 70
   128
 43
0.0
 10
1636.7867146143
 20
1050.0493040921
 10
1637.3415333343
 20
1050.5848679296
 10
1637.6650716199
 20
1051.3997806169
 10
1637.7311183234
 20
1052.4280227745
 10
1637.5343227335
 20
1053.586292338
 10
1637.0906280586
 20
1054.7807531959
 10
1636.4359798026
 20
1055.9146372332
 10
1636.3145320736
 20
1056.0847973689
  0
LWPOLYLINE
  5
15D
330
1F
100
AcDbEntity
  8
1
  6
SLD-Сплошная
100
AcDbPolyline
 90
        9
 70
   128
 43
0.0
 10
1636.2739370576
 20
1311.1854911255
 10
1636.8574252924
 20
1311.3831843012
 10
1637.4122440125
 20
1311.9187481387
 10
1637.7357822981
 20
1312.733660826
 10
1637.8018290015
 20
1313.7619029836
 10
1637.6050334116
 20
1314.9201725471
 10
1637.1613387368
 20
1316.114633405
 10
1636.5066904807
 20
1317.2485174422
 10
1636.3145320736
 20
1317.5134283196
  0
LWPOLYLINE
  5
15E
330
1F
100
AcDbEntity
  8
1
  6
SLD-Сплошная
100
AcDbPolyline
 90
        8
 70
   128
 43
0.0
 10
1637.1402680049
 20
1311.5464659236
 10
1637.6950867249
 20
1312.0820297611
 10
1638.0186250105
 20
1312.8969424484
 10
1638.084671714
 20
1313.925184606
 10
1637.8878761241
 20
1315.0834541695
 10
1637.4441814492
 20
1316.2779150274
 10
1636.7895331932
 20
1317.4117990646
 10
1636.3145320736
 20
1318.0272333399
  0
ARC
  5
15F
330
1F
100
AcDbEntity
  8
1
  6
SLD-Сплошная
100
AcDbCircle
 10
1637.1015835011
 20
1335.797211756
 30
0.0
 40
2.603316187509845
100
AcDbArc
 50
37.9787348638
 51
58.8941006488
  0
ARC
  5
160
330
1F
100
AcDbEntity
  8
1
  6
SLD-Сплошная
100
AcDbCircle
 10
1637.8509541203
 20
1336.0493018956
 30
0.0
 40
3.073609615144808
100
AcDbArc
 50
2.6054784857
 51
57.39452166
  0
SPLINE
  5
161
330
1F
100
AcDbEntity
  8
1
  6
SLD-Сплошная
100
AcDbSpline
210
0.0
220
0.0
230
1.0
 70
     8
 71
     3
 72
    12
 73
     8
 74
     0
 42
0.00000001
 43
0.00000001
 40
0.0
 40
0.0
 40
0.0
 40
0.0
 40
0.0038128522419083
 40
0.1589839410707352
 40
0.5234324970000687
 40
0.7821768889117998
 40
1.0
 40
1.0
 40
1.0
 40
1.0
 10
1640.567832932488
 20
1335.984921572199
 30
0.0
 10
1640.566613694373
 20
1335.986207853118
 30
0.0
 10
1640.515775301415
 20
1336.039841720042
 30
0.0
 10
1640.330116573348
 20
1336.226840645651
 30
0.0
 10
1639.976392939284
 20
1336.558484546772
 30
0.0
 10
1639.515389099005
 20
1336.988485311345
 30
0.0
 10
1639.267102770158
 20
1337.270371135915
 30
0.0
 10
1639.153619370115
 20
1337.399211744839
 30
0.0
  0
SPLINE
  5
162
330
1F
100
AcDbEntity
  8
1
  6
SLD-Сплошная
100
AcDbSpline
210
0.0
220
0.0
230
1.0
 70
     8
 71
     3
 72
    12
 73
     8
 74
     0
 42
0.00000001
 43
0.00000001
 40
0.0
 40
0.0
 40
0.0
 40
0.0
 40
0.2178231110882103
 40
0.4765675029999227
 40
0.8410160589292642
 40
0.9961871477581015
 40
1.0
 40
1.0
 40
1.0
 40
1.0
 10
1639.153619370118
 20
1288.844345933956
 30
0.0
 10
1639.267102770161
 20
1288.873761606319
 30
0.0
 10
1639.515389099008
 20
1288.93811911851
 30
0.0
 10
1639.976392939288
 20
1289.316145404948
 30
0.0
 10
1640.33011657335
 20
1289.784733789357
 30
0.0
 10
1640.51577530142
 20
1290.14381789588
 30
0.0
 10
1640.566613694377
 20
1290.255946957361
 30
0.0
 10
1640.567832932491
 20
1290.258636106596
 30
0.0
  0
ARC
  5
163
330
1F
100
AcDbEntity
  8
1
  6
SLD-Сплошная
100
AcDbCircle
 10
1639.1031354892
 20
1290.0704579614
 30
0.0
 40
1.227150897865702
100
AcDbArc
 50
237.6507184097
 51
272.3577620584
  0
LINE
  5
164
330
1F
100
AcDbEntity
  8
1
  6
SLD-Сплошная
100
AcDbLine
 10
1636.3145320736
 20
1290.2645246926
 30
0.0
 11
1638.4465125889
 21
1289.0337585387
 31
0.0
  0
LINE
  5
165
330
1F
100
AcDbEntity
  8
1
  6
SLD-Сплошная
100
AcDbLine
 10
1636.3145320736
 20
1339.2569734058
 30
0.0
 11
1638.4465125889
 21
1338.0262072519
 31
0.0
  0
LINE
  5
166
330
1F
100
AcDbEntity
  8
1
  6
SLD-Сплошная
100
AcDbLine
 10
1636.3145320736
 20
1340.4815855735
 30
0.0
 11
1639.5071727607
 21
1338.6385133357
 31
0.0
  0
LINE
  5
167
330
1F
100
AcDbEntity
  8
1
  6
SLD-Сплошная
100
AcDbLine
 10
1640.9213863231
 20
1290.4627381346
 30
0.0
 11
1640.9213863231
 21
1336.1890236002
 31
0.0
  0
ARC
  5
168
330
1F
100
AcDbEntity
  8
1
  6
SLD-Сплошная
100
AcDbCircle
 10
1639.9700152115
 20
1290.3416100772
 30
0.0
 40
0.9590510925578904
100
AcDbArc
 50
304.0563508215
 51
7.2558295718
  0
ARC
  5
169
330
1F
100
AcDbEntity
  8
1
  6
SLD-Сплошная
100
AcDbCircle
 10
1581.6392005842
 20
1026.2125112905
 30
0.0
 40
0.7516083991923524
100
AcDbArc
 50
181.9346283267
 51
238.0599961621
  0
ARC
  5
16A
330
1F
100
AcDbEntity
  8
1
  6
SLD-Сплошная
100
AcDbCircle
 10
1706.6462272768
 20
1046.7403677391
 30
0.0
 40
0.7434868099524291
100
AcDbArc
 50
301.6060150311
 51
358.3987269116
  0
LINE
  5
16B
330
1F
100
AcDbEntity
  8
0
  6
SLD-Сплошная
 62
     8
370
    18
100
AcDbLine
 10
1625.2236157807
 20
1374.5004295138
 30
0.0
 11
1624.5165089996
 21
1374.9086335698
 31
0.0
  0
LINE
  5
16C
330
1F
100
AcDbEntity
  8
0
  6
SLD-Сплошная
 62
     8
370
    18
100
AcDbLine
 10
1625.2236157807
 20
1374.5004295138
 30
0.0
 11
1625.2236157808
 21
970.7746328666
 31
0.0
  0
LINE
  5
16D
330
1F
100
AcDbEntity
  8
0
  6
SLD-Сплошная
 62
     8
370
    18
100
AcDbLine
 10
1621.4052391623
 20
1373.3432627518
 30
0.0
 11
1621.4052391624
 21
971.9317996287
 31
0.0
  0
LINE
  5
16E
330
1F
100
AcDbEntity
  8
0
  6
SLD-Сплошная
 62
     8
370
    18
100
AcDbLine
 10
1624.3165089995
 20
1376.0715845422
 30
0.0
 11
1624.3165089995
 21
1375.2550437303
 31
0.0
  0
LINE
  5
16F
330
1F
100
AcDbEntity
  8
0
  6
SLD-Сплошная
 62
     8
370
    18
100
AcDbLine
 10
1204.4950809747
 20
1614.0203741171
 30
0.0
 11
1621.4052391623
 21
1373.3432627518
 31
0.0
  0
LINE
  5
170
330
1F
100
AcDbEntity
  8
0
  6
SLD-Сплошная
 62
     8
370
    18
100
AcDbLine
 10
1205.402187756
 20
1617.9056746127
 30
0.0
 11
1624.3165089995
 21
1376.0715845422
 31
0.0
  0
LINE
  5
171
330
1F
100
AcDbEntity
  8
0
  6
SLD-Сплошная
 62
     8
370
    18
100
AcDbLine
 10
1636.0069941938
 20
1380.7255413665
 30
0.0
 11
1636.0069941939
 21
976.9997447192
 31
0.0
  0
LINE
  5
172
330
1F
100
AcDbEntity
  8
0
  6
SLD-Сплошная
 62
     8
370
    18
100
AcDbLine
 10
1216.185566169
 20
1624.1307864653
 30
0.0
 11
1635.0998874126
 21
1382.2966963948
 31
0.0
  0
LINE
  5
173
330
1F
100
AcDbEntity
  8
0
  6
SLD-Сплошная
 62
     8
370
    18
100
AcDbLine
 10
1204.4950809747
 20
1212.608910994
 30
0.0
 11
1621.4052391624
 21
971.9317996287
 31
0.0
  0
LINE
  5
174
330
1F
100
AcDbEntity
  8
0
  6
SLD-Сплошная
 62
     8
370
    18
100
AcDbLine
 10
1204.4950809747
 20
1614.0203741171
 30
0.0
 11
1204.4950809747
 21
1212.608910994
 31
0.0
  0
LINE
  5
175
330
1F
100
AcDbEntity
  8
0
  6
SLD-Сплошная
 62
     8
370
    18
100
AcDbLine
 10
1624.3165089995
 20
970.250801035
 30
0.0
 11
1624.3165089995
 21
970.5231184471
 31
0.0
  0
LINE
  5
176
330
1F
100
AcDbEntity
  8
0
  6
SLD-Сплошная
 62
     8
370
    18
100
AcDbLine
 10
1204.4950809747
 20
1617.3818427811
 30
0.0
 11
1204.7307133708
 21
1617.2458150942
 31
0.0
  0
LINE
  5
177
330
1F
100
AcDbEntity
  8
0
  6
SLD-Сплошная
 62
     8
370
    18
100
AcDbLine
 10
1645.1640270102
 20
1384.3650642014
 30
0.0
 11
1645.1640270102
 21
979.3608215061
 31
0.0
  0
LINE
  5
178
330
1F
100
AcDbEntity
  8
0
  6
SLD-Сплошная
 62
     8
370
    18
100
AcDbLine
 10
1642.3355998855
 20
979.4185596606
 30
0.0
 11
1642.3355998855
 21
1384.307326047
 31
0.0
  0
LINE
  5
179
330
1F
100
AcDbEntity
  8
0
  6
SLD-Сплошная
 62
     8
370
    18
100
AcDbLine
 10
1763.604412859
 20
1456.005141414
 30
0.0
 11
1643.7498134478
 21
1386.814553937
 31
0.0
  0
LINE
  5
17A
330
1F
100
AcDbEntity
  8
0
  6
SLD-Сплошная
 62
     8
370
    18
100
AcDbLine
 10
1765.0186264213
 20
1453.5556516784
 30
0.0
 11
1645.1640270102
 21
1384.3650642014
 31
0.0
  0
LINE
  5
17B
330
1F
100
AcDbEntity
  8
0
  6
SLD-Сплошная
 62
     8
370
    18
100
AcDbLine
 10
1222.3141718607
 20
1630.1041712602
 30
0.0
 11
1643.7498134478
 21
1386.814553937
 31
0.0
  0
LINE
  5
17C
330
1F
100
AcDbEntity
  8
0
  6
SLD-Сплошная
 62
     8
370
    18
100
AcDbLine
 10
1642.2855998855
 20
1384.393928587
 30
0.0
 11
1220.9499582982
 21
1627.625817139
 31
0.0
  0
LINE
  5
17D
330
1F
100
AcDbEntity
  8
0
  6
SLD-Сплошная
 62
     8
370
    18
100
AcDbLine
 10
1765.0186264213
 20
1453.5556516784
 30
0.0
 11
1765.0186264213
 21
1048.5514089831
 31
0.0
  0
LINE
  5
17E
330
1F
100
AcDbEntity
  8
0
  6
SLD-Сплошная
 62
     8
370
    18
100
AcDbLine
 10
1765.0186264213
 20
1048.5514089831
 30
0.0
 11
1645.1640270102
 21
979.3608215061
 31
0.0
  0
LINE
  5
17F
330
1F
100
AcDbEntity
  8
0
  6
SLD-Сплошная
 62
     8
370
    18
100
AcDbLine
 10
1342.1687712718
 20
1699.2947587372
 30
0.0
 11
1222.3141718607
 21
1630.1041712602
 31
0.0
  0
LINE
  5
180
330
1F
100
AcDbEntity
  8
0
  6
SLD-Сплошная
 62
     8
370
    18
100
AcDbLine
 10
1342.1687712718
 20
1699.2947587372
 30
0.0
 11
1763.604412859
 21
1456.005141414
 31
0.0
  0
LINE
  5
181
330
1F
100
AcDbEntity
  8
0
  6
SLD-Сплошная
 62
     8
370
    18
100
AcDbLine
 10
1629.5936818857
 20
1377.8396230891
 30
0.0
 11
1629.1937758048
 21
1378.0704839555
 31
0.0
  0
LINE
  5
182
330
1F
100
AcDbEntity
  8
0
  6
SLD-Сплошная
 62
     8
370
    18
100
AcDbLine
 10
1628.1434642618
 20
1377.0438669795
 30
0.0
 11
1627.7794473084
 21
1377.2540094937
 31
0.0
  0
LINE
  5
183
330
1F
100
AcDbEntity
  8
0
  6
SLD-Сплошная
 62
     8
370
    18
100
AcDbLine
 10
1628.1434642618
 20
1377.0024302749
 30
0.0
 11
1628.1434642618
 21
1377.0438669795
 31
0.0
  0
LINE
  5
184
330
1F
100
AcDbEntity
  8
0
  6
SLD-Сплошная
 62
     8
370
    18
100
AcDbLine
 10
1642.2855998855
 20
979.3896858917
 30
0.0
 11
1636.3145320736
 21
982.8367099675
 31
0.0
  0
LINE
  5
185
330
1F
100
AcDbEntity
  8
0
  6
SLD-Сплошная
 62
     8
370
    18
100
AcDbLine
 10
1220.8999582983
 20
1627.5969433701
 30
0.0
 11
1220.8999582983
 21
1621.7642606909
 31
0.0
  0
LINE
  5
186
330
1F
100
AcDbEntity
  8
0
  6
SLD-Сплошная
 62
     8
370
    18
100
AcDbLine
 10
1242.8109003019
 20
1387.7105688808
 30
0.0
 11
1244.1807844779
 21
1388.5013861826
 31
0.0
  0
LINE
  5
187
330
1F
100
AcDbEntity
  8
0
  6
SLD-Сплошная
 62
     8
370
    18
100
AcDbLine
 10
1239.4448923916
 20
1394.9886623277
 30
0.0
 11
1237.7478361167
 21
1394.0089725936
 31
0.0
  0
LINE
  5
188
330
1F
100
AcDbEntity
  8
0
  6
SLD-Сплошная
 62
     8
370
    18
100
AcDbLine
 10
1638.0929591983
 20
1076.5290454204
 30
0.0
 11
1639.5071727607
 21
1077.3454535323
 31
0.0
  0
LINE
  5
189
330
1F
100
AcDbEntity
  8
0
  6
SLD-Сплошная
 62
     8
370
    18
100
AcDbLine
 10
1640.9213863231
 20
1074.8959637967
 30
0.0
 11
1640.2142795419
 21
1074.4877597407
 31
0.0
  0
LINE
  5
18A
330
1F
100
AcDbEntity
  8
0
  6
SLD-Сплошная
 62
     8
370
    18
100
AcDbLine
 10
1638.8000659795
 20
1075.9020499134
 30
0.0
 11
1638.8000659795
 21
1027.3471841025
 31
0.0
  0
LINE
  5
18B
330
1F
100
AcDbEntity
  8
0
  6
SLD-Сплошная
 62
     8
370
    18
100
AcDbLine
 10
1640.2142795419
 20
1074.4877597407
 30
0.0
 11
1640.2142795419
 21
1028.7614742751
 31
0.0
  0
LINE
  5
18C
330
1F
100
AcDbEntity
  8
0
  6
SLD-Сплошная
 62
     8
370
    18
100
AcDbLine
 10
1640.2142795419
 20
1028.7614742751
 30
0.0
 11
1640.9213863231
 21
1029.1696783311
 31
0.0
  0
LINE
  5
18D
330
1F
100
AcDbEntity
  8
0
  6
SLD-Сплошная
 62
     8
370
    18
100
AcDbLine
 10
1638.4465125889
 20
1338.0262072519
 30
0.0
 11
1639.5071727607
 21
1338.6385133357
 31
0.0
  0
LINE
  5
18E
330
1F
100
AcDbEntity
  8
0
  6
SLD-Сплошная
 62
     8
370
    18
100
AcDbLine
 10
1640.9213863231
 20
1336.1890236002
 30
0.0
 11
1640.5678329325
 21
1335.9849215722
 31
0.0
  0
LINE
  5
18F
330
1F
100
AcDbEntity
  8
0
  6
SLD-Сплошная
 62
     8
370
    18
100
AcDbLine
 10
1639.1536193701
 20
1337.3992117448
 30
0.0
 11
1639.1536193701
 21
1288.844345934
 31
0.0
  0
LINE
  5
190
330
1F
100
AcDbEntity
  8
0
  6
SLD-Сплошная
 62
     8
370
    18
100
AcDbLine
 10
1640.5678329325
 20
1335.9849215722
 30
0.0
 11
1640.5678329325
 21
1290.2586361066
 31
0.0
  0
LINE
  5
191
330
1F
100
AcDbEntity
  8
0
  6
SLD-Сплошная
 62
     8
370
    18
100
AcDbLine
 10
1640.5678329325
 20
1290.2586361066
 30
0.0
 11
1640.9213863231
 21
1290.4627381346
 31
0.0
  0
LINE
  5
192
330
1F
100
AcDbEntity
  8
1
  6
SLD-Сплошная
100
AcDbLine
 10
495.3857448785
 20
1479.1958155776
 30
0.0
 11
1087.8251094534
 21
1479.1958155776
 31
0.0
  0
ARC
  5
193
330
1F
100
AcDbEntity
  8
1
  6
SLD-Сплошная
100
AcDbCircle
 10
507.7554271659
 20
1473.2611916163
 30
0.0
 40
0.1999999999999886
100
AcDbArc
 50
0.0
 51
68.1849373759
  0
ARC
  5
194
330
1F
100
AcDbEntity
  8
1
  6
SLD-Сплошная
100
AcDbCircle
 10
498.0554271659
 20
1473.2611916163
 30
0.0
 40
0.2000000000000455
100
AcDbArc
 50
111.8150626241
 51
180.0
  0
LINE
  5
195
330
1F
100
AcDbEntity
  8
1
  6
SLD-Сплошная
100
AcDbLine
 10
507.9554271659
 20
1472.0958155776
 30
0.0
 11
507.9554271659
 21
1473.2611916163
 31
0.0
  0
LINE
  5
196
330
1F
100
AcDbEntity
  8
1
  6
SLD-Сплошная
100
AcDbLine
 10
497.8554271659
 20
1473.2611916163
 30
0.0
 11
497.8554271659
 21
1472.0958155776
 31
0.0
  0
ARC
  5
197
330
1F
100
AcDbEntity
  8
1
  6
SLD-Сплошная
100
AcDbCircle
 10
502.9054271659
 20
1461.1445655776
 30
0.0
 40
13.2512499999999
100
AcDbArc
 50
68.1849373759
 51
90.0
  0
ARC
  5
198
330
1F
100
AcDbEntity
  8
1
  6
SLD-Сплошная
100
AcDbCircle
 10
502.9054271659
 20
1461.1445655776
 30
0.0
 40
13.25124999999992
100
AcDbArc
 50
90.0
 51
111.8150626241
  0
LWPOLYLINE
  5
199
330
1F
100
AcDbEntity
  8
1
  6
SLD-Сплошная
100
AcDbPolyline
 90
        3
 70
   128
 43
0.0
 10
1088.005427166
 20
1489.0557835268
 10
1088.0250132294
 20
1489.1062336932
 10
1088.105427166
 20
1489.3536341083
  0
LWPOLYLINE
  5
19A
330
1F
100
AcDbEntity
  8
1
  6
SLD-Сплошная
100
AcDbPolyline
 90
        3
 70
   128
 43
0.0
 10
1088.105427166
 20
1490.8379970468
 10
1088.0250132294
 20
1491.0853974619
 10
1088.005427166
 20
1491.1358476284
  0
LINE
  5
19B
330
1F
100
AcDbEntity
  8
1
  6
SLD-Сплошная
100
AcDbLine
 10
563.1054271659
 20
1498.1958155776
 30
0.0
 11
563.1054271659
 21
1499.1958155776
 31
0.0
  0
LINE
  5
19C
330
1F
100
AcDbEntity
  8
1
  6
SLD-Сплошная
100
AcDbLine
 10
535.1054271659
 20
1499.1958155776
 30
0.0
 11
535.1054271659
 21
1498.1958155776
 31
0.0
  0
LINE
  5
19D
330
1F
100
AcDbEntity
  8
1
  6
SLD-Сплошная
100
AcDbLine
 10
563.1054271659
 20
1499.1958155776
 30
0.0
 11
560.1054271659
 21
1502.1958155776
 31
0.0
  0
LINE
  5
19E
330
1F
100
AcDbEntity
  8
1
  6
SLD-Сплошная
100
AcDbLine
 10
538.1054271659
 20
1502.1958155776
 30
0.0
 11
535.1054271659
 21
1499.1958155776
 31
0.0
  0
LINE
  5
19F
330
1F
100
AcDbEntity
  8
1
  6
SLD-Сплошная
100
AcDbLine
 10
1076.3054271659
 20
1474.1958155776
 30
0.0
 11
1076.4054271659
 21
1474.0958155776
 31
0.0
  0
LINE
  5
1A0
330
1F
100
AcDbEntity
  8
1
  6
SLD-Сплошная
100
AcDbLine
 10
1085.4054271659
 20
1474.0958155776
 30
0.0
 11
1085.5054271659
 21
1474.1958155776
 31
0.0
  0
LINE
  5
1A1
330
1F
100
AcDbEntity
  8
1
  6
SLD-Сплошная
100
AcDbLine
 10
1076.3054271659
 20
1474.5958155776
 30
0.0
 11
1076.3054271659
 21
1474.1958155776
 31
0.0
  0
LINE
  5
1A2
330
1F
100
AcDbEntity
  8
1
  6
SLD-Сплошная
100
AcDbLine
 10
1085.5054271659
 20
1474.1958155776
 30
0.0
 11
1085.5054271659
 21
1474.5958155776
 31
0.0
  0
LINE
  5
1A3
330
1F
100
AcDbEntity
  8
1
  6
SLD-Сплошная
100
AcDbLine
 10
493.0054271659
 20
1436.0958155776
 30
0.0
 11
492.9054271659
 21
1436.0958155776
 31
0.0
  0
LINE
  5
1A4
330
1F
100
AcDbEntity
  8
1
  6
SLD-Сплошная
100
AcDbLine
 10
492.9054271659
 20
1428.0958155776
 30
0.0
 11
493.0054271659
 21
1428.0958155776
 31
0.0
  0
LINE
  5
1A5
330
1F
100
AcDbEntity
  8
1
  6
SLD-Сплошная
100
AcDbLine
 10
492.9054271659
 20
1378.5458155776
 30
0.0
 11
493.0054271659
 21
1378.5458155776
 31
0.0
  0
LINE
  5
1A6
330
1F
100
AcDbEntity
  8
1
  6
SLD-Сплошная
100
AcDbLine
 10
493.0054271659
 20
1385.6458155776
 30
0.0
 11
492.9054271659
 21
1385.6458155776
 31
0.0
  0
SPLINE
  5
1A7
330
1F
100
AcDbEntity
  8
1
  6
SLD-Сплошная
100
AcDbSpline
210
0.0
220
0.0
230
1.0
 70
     8
 71
     3
 72
    11
 73
     7
 74
     0
 42
0.00000001
 43
0.00000001
 40
0.0
 40
0.0
 40
0.0
 40
0.0
 40
0.2500000000000092
 40
0.4999999999999966
 40
0.7500000000000017
 40
1.0
 40
1.0
 40
1.0
 40
1.0
 10
1087.772584453425
 20
1479.195815577579
 30
0.0
 10
1087.776751120091
 20
1479.211598729006
 30
0.0
 10
1087.785084453425
 20
1479.243165031859
 30
0.0
 10
1087.797584453425
 20
1479.485976705637
 30
0.0
 10
1087.810084453425
 20
1479.833048889589
 30
0.0
 10
1087.818417786758
 20
1480.108226681582
 30
0.0
 10
1087.822584453425
 20
1480.245815577579
 30
0.0
  0
SPLINE
  5
1A8
330
1F
100
AcDbEntity
  8
1
  6
SLD-Сплошная
100
AcDbSpline
210
0.0
220
0.0
230
1.0
 70
     8
 71
     3
 72
    11
 73
     7
 74
     0
 42
0.00000001
 43
0.00000001
 40
0.0
 40
0.0
 40
0.0
 40
0.0
 40
0.249999999999997
 40
0.500000000000001
 40
0.7499999999999907
 40
0.9999999999999999
 40
0.9999999999999999
 40
0.9999999999999999
 40
0.9999999999999999
 10
495.3882698784762
 20
1480.245815577579
 30
0.0
 10
495.3924365451429
 20
1480.108226681583
 30
0.0
 10
495.4007698784762
 20
1479.833048889589
 30
0.0
 10
495.413269878476
 20
1479.485976705638
 30
0.0
 10
495.4257698784762
 20
1479.243165031859
 30
0.0
 10
495.4341032118093
 20
1479.211598729006
 30
0.0
 10
495.438269878476
 20
1479.195815577579
 30
0.0
  0
LINE
  5
1A9
330
1F
100
AcDbEntity
  8
1
  6
SLD-Сплошная
100
AcDbLine
 10
495.3882698785
 20
1495.4958155776
 30
0.0
 11
495.3882698785
 21
1480.2458155776
 31
0.0
  0
LINE
  5
1AA
330
1F
100
AcDbEntity
  8
1
  6
SLD-Сплошная
100
AcDbLine
 10
1087.8225844534
 20
1495.4958155776
 30
0.0
 11
1087.8225844534
 21
1480.2458155776
 31
0.0
  0
ELLIPSE
  5
1AB
330
1F
100
AcDbEntity
  8
1
  6
SLD-Сплошная
100
AcDbEllipse
 10
496.805427166
 20
1495.4958155776
 30
0.0
 11
0.0
 21
2.699999999999818
 31
0.0
210
0.0
220
0.0
230
1.0
 40
0.5248730694
 41
0.0
 42
1.570796326794897
  0
LINE
  5
1AC
330
1F
100
AcDbEntity
  8
1
  6
SLD-Сплошная
100
AcDbLine
 10
496.8054271659
 20
1498.1958155776
 30
0.0
 11
1086.405427166
 21
1498.1958155776
 31
0.0
  0
ELLIPSE
  5
1AD
330
1F
100
AcDbEntity
  8
1
  6
SLD-Сплошная
100
AcDbEllipse
 10
1086.4054271659
 20
1495.4958155776
 30
0.0
 11
0.0
 21
2.700000000000045
 31
0.0
210
0.0
220
0.0
230
1.0
 40
0.5248730694
 41
4.712388980384697
 42
6.283185307179586
  0
LINE
  5
1AE
330
1F
100
AcDbEntity
  8
1
  6
SLD-Сплошная
100
AcDbLine
 10
495.1054271659
 20
1480.2458155776
 30
0.0
 11
495.1054271659
 21
1495.4958155776
 31
0.0
  0
LINE
  5
1AF
330
1F
100
AcDbEntity
  8
1
  6
SLD-Сплошная
100
AcDbLine
 10
494.1054271659
 20
1480.2458155776
 30
0.0
 11
495.1054271659
 21
1480.2458155776
 31
0.0
  0
LINE
  5
1B0
330
1F
100
AcDbEntity
  8
1
  6
SLD-Сплошная
100
AcDbLine
 10
494.1054271659
 20
1480.2458155776
 30
0.0
 11
494.1054271659
 21
1495.4958155776
 31
0.0
  0
SPLINE
  5
1B1
330
1F
100
AcDbEntity
  8
1
  6
SLD-Сплошная
100
AcDbSpline
210
0.0
220
0.0
230
1.0
 70
     8
 71
     3
 72
    11
 73
     7
 74
     0
 42
0.00000001
 43
0.00000001
 40
0.0
 40
0.0
 40
0.0
 40
0.0
 40
0.2499999999999888
 40
0.5000000000000101
 40
0.7500000000000007
 40
0.9999999999999999
 40
0.9999999999999999
 40
0.9999999999999999
 40
0.9999999999999999
 10
495.15542716593
 20
1479.195815577579
 30
0.0
 10
495.0178382699327
 20
1479.211598729005
 30
0.0
 10
494.7426604779383
 20
1479.243165031857
 30
0.0
 10
494.3955882939838
 20
1479.485976705635
 30
0.0
 10
494.1527766202034
 20
1479.833048889588
 30
0.0
 10
494.1212103173497
 20
1480.108226681582
 30
0.0
 10
494.1054271659229
 20
1480.245815577579
 30
0.0
  0
SPLINE
  5
1B2
330
1F
100
AcDbEntity
  8
1
  6
SLD-Сплошная
100
AcDbSpline
210
0.0
220
0.0
230
1.0
 70
     8
 71
     3
 72
    11
 73
     7
 74
     0
 42
0.00000001
 43
0.00000001
 40
0.0
 40
0.0
 40
0.0
 40
0.0
 40
0.2500000000002877
 40
0.5000000000000984
 40
0.7500000000002242
 40
0.9999999999999999
 40
0.9999999999999999
 40
0.9999999999999999
 40
0.9999999999999999
 10
495.1554271659232
 20
1480.195815577579
 30
0.0
 10
495.148875313733
 20
1480.196567156218
 30
0.0
 10
495.1357716093522
 20
1480.198070313497
 30
0.0
 10
495.1192443624972
 20
1480.209632774153
 30
0.0
 10
495.1076819018411
 20
1480.226160021008
 30
0.0
 10
495.1061787445623
 20
1480.239263725389
 30
0.0
 10
495.1054271659229
 20
1480.245815577579
 30
0.0
  0
LINE
  5
1B3
330
1F
100
AcDbEntity
  8
1
  6
SLD-Сплошная
100
AcDbLine
 10
495.1554271659
 20
1480.1958155776
 30
0.0
 11
495.1554271659
 21
1479.1958155776
 31
0.0
  0
LINE
  5
1B4
330
1F
100
AcDbEntity
  8
1
  6
SLD-Сплошная
100
AcDbLine
 10
1089.105427166
 20
1480.2458155776
 30
0.0
 11
1089.105427166
 21
1495.4958155776
 31
0.0
  0
LINE
  5
1B5
330
1F
100
AcDbEntity
  8
1
  6
SLD-Сплошная
100
AcDbLine
 10
1089.105427166
 20
1480.2458155776
 30
0.0
 11
1088.105427166
 21
1480.2458155776
 31
0.0
  0
LINE
  5
1B6
330
1F
100
AcDbEntity
  8
1
  6
SLD-Сплошная
100
AcDbLine
 10
1088.105427166
 20
1480.2458155776
 30
0.0
 11
1088.105427166
 21
1495.4958155776
 31
0.0
  0
SPLINE
  5
1B7
330
1F
100
AcDbEntity
  8
1
  6
SLD-Сплошная
100
AcDbSpline
210
0.0
220
0.0
230
1.0
 70
     8
 71
     3
 72
    11
 73
     7
 74
     0
 42
0.00000001
 43
0.00000001
 40
0.0
 40
0.0
 40
0.0
 40
0.0
 40
0.2500000000000016
 40
0.5000000000000067
 40
0.7500000000000204
 40
1.0
 40
1.0
 40
1.0
 40
1.0
 10
1089.105427165978
 20
1480.245815577579
 30
0.0
 10
1089.089644014551
 20
1480.108226681582
 30
0.0
 10
1089.058077711697
 20
1479.833048889587
 30
0.0
 10
1088.815266037917
 20
1479.485976705635
 30
0.0
 10
1088.468193853962
 20
1479.243165031857
 30
0.0
 10
1088.193016061968
 20
1479.211598729005
 30
0.0
 10
1088.055427165971
 20
1479.195815577579
 30
0.0
  0
LINE
  5
1B8
330
1F
100
AcDbEntity
  8
1
  6
SLD-Сплошная
100
AcDbLine
 10
1088.055427166
 20
1480.1958155776
 30
0.0
 11
1088.055427166
 21
1479.1958155776
 31
0.0
  0
SPLINE
  5
1B9
330
1F
100
AcDbEntity
  8
1
  6
SLD-Сплошная
100
AcDbSpline
210
0.0
220
0.0
230
1.0
 70
     8
 71
     3
 72
    11
 73
     7
 74
     0
 42
0.00000001
 43
0.00000001
 40
0.0
 40
0.0
 40
0.0
 40
0.0
 40
0.2500000000002179
 40
0.4999999999998426
 40
0.7499999999999163
 40
1.0
 40
1.0
 40
1.0
 40
1.0
 10
1088.105427165978
 20
1480.245815577579
 30
0.0
 10
1088.104675587339
 20
1480.239263725389
 30
0.0
 10
1088.10317243006
 20
1480.226160021008
 30
0.0
 10
1088.091609969404
 20
1480.209632774153
 30
0.0
 10
1088.075082722549
 20
1480.198070313497
 30
0.0
 10
1088.061979018168
 20
1480.196567156218
 30
0.0
 10
1088.055427165978
 20
1480.195815577579
 30
0.0
  0
ARC
  5
1BA
330
1F
100
AcDbEntity
  8
1
  6
SLD-Сплошная
100
AcDbCircle
 10
496.8054271659
 20
1495.4958155776
 30
0.0
 40
1.699999999999865
100
AcDbArc
 50
139.5408896241
 51
180.0
  0
ARC
  5
1BB
330
1F
100
AcDbEntity
  8
1
  6
SLD-Сплошная
100
AcDbCircle
 10
496.8054271659
 20
1495.4958155776
 30
0.0
 40
2.699999999999875
100
AcDbArc
 50
90.0
 51
180.0
  0
ARC
  5
1BC
330
1F
100
AcDbEntity
  8
1
  6
SLD-Сплошная
100
AcDbCircle
 10
1086.405427166
 20
1495.4958155776
 30
0.0
 40
2.700000000000045
100
AcDbArc
 50
0.0
 51
90.0
  0
ARC
  5
1BD
330
1F
100
AcDbEntity
  8
1
  6
SLD-Сплошная
100
AcDbCircle
 10
1086.405427166
 20
1495.4958155776
 30
0.0
 40
1.700000000000273
100
AcDbArc
 50
0.0
 51
40.4591103799
  0
LINE
  5
1BE
330
1F
100
AcDbEntity
  8
1
  6
SLD-Сплошная
100
AcDbLine
 10
495.3882698785
 20
1480.2458155776
 30
0.0
 11
495.2054271659
 21
1480.2458155776
 31
0.0
  0
LINE
  5
1BF
330
1F
100
AcDbEntity
  8
1
  6
SLD-Сплошная
100
AcDbLine
 10
495.4382698784
 20
1479.2657751469
 30
0.0
 11
495.1554271659
 21
1479.1958155776
 31
0.0
  0
SPLINE
  5
1C0
330
1F
100
AcDbEntity
  8
1
  6
SLD-Сплошная
100
AcDbSpline
210
0.0
220
0.0
230
1.0
 70
     8
 71
     3
 72
    11
 73
     7
 74
     0
 42
0.00000001
 43
0.00000001
 40
0.0
 40
0.0
 40
0.0
 40
0.0
 40
0.0090245670111547
 40
0.0782108948228558
 40
0.270636753628031
 40
1.0
 40
1.0
 40
1.0
 40
1.0
 10
495.2054271659229
 20
1480.245815577579
 30
0.0
 10
495.205390016627
 20
1480.244621993844
 30
0.0
 10
495.2050680643755
 20
1480.234277868539
 30
0.0
 10
495.2016874535568
 20
1480.228708909669
 30
0.0
 10
495.1871731359007
 20
1480.196054620276
 30
0.0
 10
495.1694503078219
 20
1480.195921169869
 30
0.0
 10
495.1554271659232
 20
1480.195815577579
 30
0.0
  0
LINE
  5
1C1
330
1F
100
AcDbEntity
  8
1
  6
SLD-Сплошная
100
AcDbLine
 10
1087.8225844534
 20
1480.2458155776
 30
0.0
 11
1088.005427166
 21
1480.2458155776
 31
0.0
  0
SPLINE
  5
1C2
330
1F
100
AcDbEntity
  8
1
  6
SLD-Сплошная
100
AcDbSpline
210
0.0
220
0.0
230
1.0
 70
     8
 71
     3
 72
    12
 73
     8
 74
     0
 42
0.00000001
 43
0.00000001
 40
0.0
 40
0.0
 40
0.0
 40
0.0
 40
0.7293340570117073
 40
0.9217522148731093
 40
0.975006699862128
 40
0.9909757941535772
 40
1.0
 40
1.0
 40
1.0
 40
1.0
 10
1088.055427165978
 20
1480.195815577579
 30
0.0
 10
1088.041569365633
 20
1480.198536859318
 30
0.0
 10
1088.024055500706
 20
1480.201976089182
 30
0.0
 10
1088.009157479428
 20
1480.224344294097
 30
0.0
 10
1088.006263449783
 20
1480.236390950513
 30
0.0
 10
1088.005556787173
 20
1480.241149851152
 30
0.0
 10
1088.005461552048
 20
1480.244577847931
 30
0.0
 10
1088.005427165978
 20
1480.245815577579
 30
0.0
  0
LINE
  5
1C3
330
1F
100
AcDbEntity
  8
1
  6
SLD-Сплошная
100
AcDbLine
 10
1088.055427166
 20
1479.1958155776
 30
0.0
 11
1087.7725844534
 21
1479.2657751469
 31
0.0
  0
LINE
  5
1C4
330
1F
100
AcDbEntity
  8
1
  6
SLD-Сплошная
100
AcDbLine
 10
495.3882698785
 20
1495.0858155776
 30
0.0
 11
495.2054271659
 21
1495.0858155776
 31
0.0
  0
LINE
  5
1C5
330
1F
100
AcDbEntity
  8
1
  6
SLD-Сплошная
100
AcDbLine
 10
495.2054271659
 20
1480.2458155776
 30
0.0
 11
495.2054271659
 21
1495.0858155776
 31
0.0
  0
LINE
  5
1C6
330
1F
100
AcDbEntity
  8
1
  6
SLD-Сплошная
100
AcDbLine
 10
1087.8225844534
 20
1495.0858155776
 30
0.0
 11
1088.005427166
 21
1495.0858155776
 31
0.0
  0
LINE
  5
1C7
330
1F
100
AcDbEntity
  8
1
  6
SLD-Сплошная
100
AcDbLine
 10
1088.005427166
 20
1480.2458155776
 30
0.0
 11
1088.005427166
 21
1495.0858155776
 31
0.0
  0
ARC
  5
1C8
330
1F
100
AcDbEntity
  8
1
  6
SLD-Сплошная
100
AcDbCircle
 10
497.2154271659
 20
1495.0858155776
 30
0.0
 40
2.010000000000011
100
AcDbArc
 50
153.9069487051
 51
180.0
  0
ARC
  5
1C9
330
1F
100
AcDbEntity
  8
1
  6
SLD-Сплошная
100
AcDbCircle
 10
1085.995427166
 20
1495.0858155776
 30
0.0
 40
2.009999999999764
100
AcDbArc
 50
0.0
 51
26.0930512997
  0
LINE
  5
1CA
330
1F
100
AcDbEntity
  8
1
  6
SLD-Сплошная
100
AcDbLine
 10
493.9054271659
 20
1300.5958155776
 30
0.0
 11
493.0054271659
 21
1300.5958155776
 31
0.0
  0
LINE
  5
1CB
330
1F
100
AcDbEntity
  8
1
  6
SLD-Сплошная
100
AcDbLine
 10
493.0054271659
 20
1300.5958155776
 30
0.0
 11
493.0054271659
 21
1470.0958155776
 31
0.0
  0
LINE
  5
1CC
330
1F
100
AcDbEntity
  8
1
  6
SLD-Сплошная
100
AcDbLine
 10
493.0054271659
 20
1470.0958155776
 30
0.0
 11
493.9054271659
 21
1470.0958155776
 31
0.0
  0
LINE
  5
1CD
330
1F
100
AcDbEntity
  8
1
  6
SLD-Сплошная
100
AcDbLine
 10
1089.8347164879
 20
1472.0958155776
 30
0.0
 11
493.976137844
 21
1472.0958155776
 31
0.0
  0
LINE
  5
1CE
330
1F
100
AcDbEntity
  8
1
  6
SLD-Сплошная
100
AcDbLine
 10
1089.8347164879
 20
1472.0958155776
 30
0.0
 11
1089.905427166
 21
1470.0958155776
 31
0.0
  0
LINE
  5
1CF
330
1F
100
AcDbEntity
  8
1
  6
SLD-Сплошная
100
AcDbLine
 10
493.9054271659
 20
1470.0958155776
 30
0.0
 11
495.0054271659
 21
1470.0958155776
 31
0.0
  0
LINE
  5
1D0
330
1F
100
AcDbEntity
  8
1
  6
SLD-Сплошная
100
AcDbLine
 10
493.9054271659
 20
1470.0958155776
 30
0.0
 11
493.976137844
 21
1472.0958155776
 31
0.0
  0
ELLIPSE
  5
1D1
330
1F
100
AcDbEntity
  8
1
  6
SLD-Сплошная
100
AcDbEllipse
 10
494.476137844
 20
1300.5958155776
 30
0.0
 11
0.0
 21
2.499999999999773
 31
0.0
210
0.0
220
0.0
230
1.0
 40
0.6
 41
2.751284095301619
 42
3.141592653589793
  0
LINE
  5
1D2
330
1F
100
AcDbEntity
  8
1
  6
SLD-Сплошная
100
AcDbLine
 10
493.9054271659
 20
1300.5958155776
 30
0.0
 11
493.9054271659
 21
1298.2838363137
 31
0.0
  0
LINE
  5
1D3
330
1F
100
AcDbEntity
  8
1
  6
SLD-Сплошная
100
AcDbLine
 10
493.9054271659
 20
1300.5958155776
 30
0.0
 11
495.0054271659
 21
1300.5958155776
 31
0.0
  0
LINE
  5
1D4
330
1F
100
AcDbEntity
  8
1
  6
SLD-Сплошная
100
AcDbLine
 10
1089.9054271659
 20
1298.2838363137
 30
0.0
 11
1089.9054271659
 21
1300.5958155776
 31
0.0
  0
ELLIPSE
  5
1D5
330
1F
100
AcDbEntity
  8
1
  6
SLD-Сплошная
100
AcDbEllipse
 10
1089.3347164879
 20
1300.5958155776
 30
0.0
 11
0.0
 21
2.499999999999773
 31
0.0
210
0.0
220
0.0
230
1.0
 40
0.6
 41
3.14159265358949
 42
3.531901211844464
  0
LINE
  5
1D6
330
1F
100
AcDbEntity
  8
1
  6
SLD-Сплошная
100
AcDbLine
 10
494.476137844
 20
1298.0958155776
 30
0.0
 11
1089.3347164879
 21
1298.0958155776
 31
0.0
  0
LINE
  5
1D7
330
1F
100
AcDbEntity
  8
1
  6
SLD-Сплошная
100
AcDbLine
 10
1091.9054271659
 20
1300.5958155776
 30
0.0
 11
1091.9054271659
 21
1470.0958155776
 31
0.0
  0
LINE
  5
1D8
330
1F
100
AcDbEntity
  8
1
  6
SLD-Сплошная
100
AcDbLine
 10
1089.9054271659
 20
1470.0958155776
 30
0.0
 11
1091.9054271659
 21
1470.0958155776
 31
0.0
  0
LINE
  5
1D9
330
1F
100
AcDbEntity
  8
1
  6
SLD-Сплошная
100
AcDbLine
 10
1089.9054271659
 20
1300.5958155776
 30
0.0
 11
1091.9054271659
 21
1300.5958155776
 31
0.0
  0
LINE
  5
1DA
330
1F
100
AcDbEntity
  8
1
  6
SLD-Сплошная
100
AcDbLine
 10
493.4542427025
 20
1298.2838363137
 30
0.0
 11
493.8347164879
 21
1299.2086280193
 31
0.0
  0
ARC
  5
1DB
330
1F
100
AcDbEntity
  8
1
  6
SLD-Сплошная
100
AcDbCircle
 10
494.4054271659
 20
1300.5958155776
 30
0.0
 40
2.500000000000039
100
AcDbArc
 50
180.0
 51
247.6369669017
  0
ARC
  5
1DC
330
1F
100
AcDbEntity
  8
1
  6
SLD-Сплошная
100
AcDbCircle
 10
494.4054271659
 20
1300.5958155776
 30
0.0
 40
1.500000000000568
100
AcDbArc
 50
180.0
 51
247.6369669017
  0
LINE
  5
1DD
330
1F
100
AcDbEntity
  8
1
  6
SLD-Сплошная
100
AcDbLine
 10
491.9054271659
 20
1300.5958155776
 30
0.0
 11
491.9054271659
 21
1470.0958155776
 31
0.0
  0
LINE
  5
1DE
330
1F
100
AcDbEntity
  8
1
  6
SLD-Сплошная
100
AcDbLine
 10
492.9054271659
 20
1470.0958155776
 30
0.0
 11
491.9054271659
 21
1470.0958155776
 31
0.0
  0
LINE
  5
1DF
330
1F
100
AcDbEntity
  8
1
  6
SLD-Сплошная
100
AcDbLine
 10
492.9054271659
 20
1300.5958155776
 30
0.0
 11
492.9054271659
 21
1470.0958155776
 31
0.0
  0
ARC
  5
1E0
330
1F
100
AcDbEntity
  8
1
  6
SLD-Сплошная
100
AcDbCircle
 10
1089.4054271659
 20
1300.5958155776
 30
0.0
 40
2.500000000000179
100
AcDbArc
 50
292.3630330961
 51
0.0
  0
LINE
  5
1E1
330
1F
100
AcDbEntity
  8
1
  6
SLD-Сплошная
100
AcDbLine
 10
1090.3566116293
 20
1298.2838363137
 30
0.0
 11
1089.976137844
 21
1299.2086280192
 31
0.0
  0
ARC
  5
1E2
330
1F
100
AcDbEntity
  8
1
  6
SLD-Сплошная
100
AcDbCircle
 10
1089.4054271659
 20
1300.5958155776
 30
0.0
 40
1.499999999999895
100
AcDbArc
 50
292.3630330961
 51
0.0
  0
ARC
  5
1E3
330
1F
100
AcDbEntity
  8
1
  6
SLD-Сплошная
100
AcDbCircle
 10
494.4054271659
 20
1300.5958155776
 30
0.0
 40
2.500000000000039
100
AcDbArc
 50
247.6369669017
 51
270.0
  0
LINE
  5
1E4
330
1F
100
AcDbEntity
  8
1
  6
SLD-Сплошная
100
AcDbLine
 10
494.4054271659
 20
1298.0958155776
 30
0.0
 11
494.4054271659
 21
1298.0985949003
 31
0.0
  0
LINE
  5
1E5
330
1F
100
AcDbEntity
  8
1
  6
SLD-Сплошная
100
AcDbLine
 10
1089.4054271659
 20
1298.0958155776
 30
0.0
 11
1089.4054271659
 21
1298.0985949003
 31
0.0
  0
ARC
  5
1E6
330
1F
100
AcDbEntity
  8
1
  6
SLD-Сплошная
100
AcDbCircle
 10
1089.4054271659
 20
1300.5958155776
 30
0.0
 40
2.500000000000179
100
AcDbArc
 50
270.0
 51
292.3630330961
  0
LINE
  5
1E7
330
1F
100
AcDbEntity
  8
1
  6
SLD-Сплошная
100
AcDbLine
 10
493.9054271659
 20
1471.0958155776
 30
0.0
 11
493.9054271659
 21
1472.0958155776
 31
0.0
  0
ARC
  5
1E8
330
1F
100
AcDbEntity
  8
1
  6
SLD-Сплошная
100
AcDbCircle
 10
493.9054271659
 20
1470.0958155776
 30
0.0
 40
1.000000000000227
100
AcDbArc
 50
90.0
 51
180.0
  0
ARC
  5
1E9
330
1F
100
AcDbEntity
  8
1
  6
SLD-Сплошная
100
AcDbCircle
 10
493.9054271659
 20
1470.0958155776
 30
0.0
 40
2.0
100
AcDbArc
 50
90.0
 51
180.0
  0
ARC
  5
1EA
330
1F
100
AcDbEntity
  8
1
  6
SLD-Сплошная
100
AcDbCircle
 10
1089.9054271659
 20
1470.0958155776
 30
0.0
 40
2.0
100
AcDbArc
 50
0.0
 51
90.0
  0
ARC
  5
1EB
330
1F
100
AcDbEntity
  8
1
  6
SLD-Сплошная
100
AcDbCircle
 10
1089.9054271659
 20
1470.0958155776
 30
0.0
 40
1.000000000000227
100
AcDbArc
 50
0.0
 51
90.0
  0
LINE
  5
1EC
330
1F
100
AcDbEntity
  8
1
  6
SLD-Сплошная
100
AcDbLine
 10
1089.9054271659
 20
1471.0958155776
 30
0.0
 11
1089.9054271659
 21
1472.0958155776
 31
0.0
  0
LINE
  5
1ED
330
1F
100
AcDbEntity
  8
1
  6
SLD-Сплошная
100
AcDbLine
 10
1089.9054271659
 20
1472.0958155776
 30
0.0
 11
1089.8347164879
 21
1472.0958155776
 31
0.0
  0
LINE
  5
1EE
330
1F
100
AcDbEntity
  8
1
  6
SLD-Сплошная
100
AcDbLine
 10
1089.9054271659
 20
1471.0958155776
 30
0.0
 11
1089.8700718269
 21
1471.0958155776
 31
0.0
  0
LINE
  5
1EF
330
1F
100
AcDbEntity
  8
1
  6
SLD-Сплошная
100
AcDbLine
 10
493.976137844
 20
1472.0958155776
 30
0.0
 11
493.9054271659
 21
1472.0958155776
 31
0.0
  0
LINE
  5
1F0
330
1F
100
AcDbEntity
  8
1
  6
SLD-Сплошная
100
AcDbLine
 10
493.940782505
 20
1471.0958155776
 30
0.0
 11
493.9054271659
 21
1471.0958155776
 31
0.0
  0
LINE
  5
1F1
330
1F
100
AcDbEntity
  8
1
  6
SLD-Сплошная
100
AcDbLine
 10
1089.4054271659
 20
1298.0958155776
 30
0.0
 11
1089.3347164879
 21
1298.0958155776
 31
0.0
  0
LINE
  5
1F2
330
1F
100
AcDbEntity
  8
1
  6
SLD-Сплошная
100
AcDbLine
 10
494.476137844
 20
1298.0958155776
 30
0.0
 11
494.4054271659
 21
1298.0958155776
 31
0.0
  0
ELLIPSE
  5
1F3
330
1F
100
AcDbEntity
  8
1
  6
SLD-Сплошная
100
AcDbEllipse
 10
1072.8347164879
 20
1473.0958155776
 30
0.0
 11
2.0
 21
0.0
 31
0.0
210
0.0
220
0.0
230
1.0
 40
0.5
 41
3.141592653589793
 42
4.71238898038481
  0
ELLIPSE
  5
1F4
330
1F
100
AcDbEntity
  8
1
  6
SLD-Сплошная
100
AcDbEllipse
 10
510.976137844
 20
1473.0958155776
 30
0.0
 11
2.0
 21
0.0
 31
0.0
210
0.0
220
0.0
230
1.0
 40
0.5
 41
4.712388980384867
 42
6.283185307179586
  0
ARC
  5
1F5
330
1F
100
AcDbEntity
  8
1
  6
SLD-Сплошная
100
AcDbCircle
 10
1072.9054271659
 20
1473.0958155776
 30
0.0
 40
1.0
100
AcDbArc
 50
180.0
 51
270.0
  0
ARC
  5
1F6
330
1F
100
AcDbEntity
  8
1
  6
SLD-Сплошная
100
AcDbCircle
 10
1072.9054271659
 20
1473.0958155776
 30
0.0
 40
2.0
100
AcDbArc
 50
180.0
 51
188.7004774891
  0
ARC
  5
1F7
330
1F
100
AcDbEntity
  8
1
  6
SLD-Сплошная
100
AcDbCircle
 10
510.9054271659
 20
1473.0958155776
 30
0.0
 40
2.0
100
AcDbArc
 50
351.2995225108
 51
0.0
  0
ARC
  5
1F8
330
1F
100
AcDbEntity
  8
1
  6
SLD-Сплошная
100
AcDbCircle
 10
510.9054271659
 20
1473.0958155776
 30
0.0
 40
1.0
100
AcDbArc
 50
270.0
 51
0.0
  0
LINE
  5
1F9
330
1F
100
AcDbEntity
  8
1
  6
SLD-Сплошная
100
AcDbLine
 10
1070.8347164879
 20
1473.0958155776
 30
0.0
 11
1070.8347164879
 21
1479.1958155776
 31
0.0
  0
LINE
  5
1FA
330
1F
100
AcDbEntity
  8
1
  6
SLD-Сплошная
100
AcDbLine
 10
512.976137844
 20
1479.1958155776
 30
0.0
 11
512.976137844
 21
1473.0958155776
 31
0.0
  0
LINE
  5
1FB
330
1F
100
AcDbEntity
  8
1
  6
SLD-Сплошная
100
AcDbLine
 10
1071.9054271659
 20
1479.1958155776
 30
0.0
 11
1071.9054271659
 21
1473.0958155776
 31
0.0
  0
LINE
  5
1FC
330
1F
100
AcDbEntity
  8
1
  6
SLD-Сплошная
100
AcDbLine
 10
1070.9054271659
 20
1479.1958155776
 30
0.0
 11
1070.9054271659
 21
1473.0958155776
 31
0.0
  0
LINE
  5
1FD
330
1F
100
AcDbEntity
  8
1
  6
SLD-Сплошная
100
AcDbLine
 10
511.9054271659
 20
1473.0958155776
 30
0.0
 11
511.9054271659
 21
1479.1958155776
 31
0.0
  0
LINE
  5
1FE
330
1F
100
AcDbEntity
  8
1
  6
SLD-Сплошная
100
AcDbLine
 10
512.9054271659
 20
1473.0958155776
 30
0.0
 11
512.9054271659
 21
1479.1958155776
 31
0.0
  0
LINE
  5
1FF
330
1F
100
AcDbEntity
  8
1
  6
SLD-Сплошная
100
AcDbLine
 10
492.9054271659
 20
1470.0958155776
 30
0.0
 11
493.0054271659
 21
1470.0958155776
 31
0.0
  0
LINE
  5
200
330
1F
100
AcDbEntity
  8
1
  6
SLD-Сплошная
100
AcDbLine
 10
996.9054271659
 20
1444.8458155776
 30
0.0
 11
586.9054271659
 21
1444.8458155776
 31
0.0
  0
ARC
  5
201
330
1F
100
AcDbEntity
  8
1
  6
SLD-Сплошная
100
AcDbCircle
 10
996.9054271659
 20
1427.3458155776
 30
0.0
 40
17.5
100
AcDbArc
 50
0.0
 51
90.0
  0
LINE
  5
202
330
1F
100
AcDbEntity
  8
1
  6
SLD-Сплошная
100
AcDbLine
 10
1014.4054271659
 20
1342.3458155776
 30
0.0
 11
1014.4054271659
 21
1427.3458155776
 31
0.0
  0
LINE
  5
203
330
1F
100
AcDbEntity
  8
1
  6
SLD-Сплошная
100
AcDbLine
 10
569.4054271659
 20
1427.3458155776
 30
0.0
 11
569.4054271659
 21
1342.3458155776
 31
0.0
  0
ARC
  5
204
330
1F
100
AcDbEntity
  8
1
  6
SLD-Сплошная
100
AcDbCircle
 10
586.9054271659
 20
1427.3458155776
 30
0.0
 40
17.50000000000011
100
AcDbArc
 50
90.0
 51
180.0
  0
ARC
  5
205
330
1F
100
AcDbEntity
  8
1
  6
SLD-Сплошная
100
AcDbCircle
 10
996.9054271659
 20
1342.3458155776
 30
0.0
 40
17.49999999999989
100
AcDbArc
 50
270.0
 51
0.0
  0
LINE
  5
206
330
1F
100
AcDbEntity
  8
1
  6
SLD-Сплошная
100
AcDbLine
 10
586.9054271659
 20
1324.8458155776
 30
0.0
 11
996.9054271659
 21
1324.8458155776
 31
0.0
  0
ARC
  5
207
330
1F
100
AcDbEntity
  8
1
  6
SLD-Сплошная
100
AcDbCircle
 10
586.9054271659
 20
1342.3458155776
 30
0.0
 40
17.50000000000011
100
AcDbArc
 50
180.0
 51
270.0
  0
ARC
  5
208
330
1F
100
AcDbEntity
  8
1
  6
SLD-Сплошная
100
AcDbCircle
 10
557.1601591845
 20
1364.591083559
 30
0.0
 40
26.56195549634293
100
AcDbArc
 50
313.8816987744
 51
316.1183012256
  0
ARC
  5
209
330
1F
100
AcDbEntity
  8
1
  6
SLD-Сплошная
100
AcDbCircle
 10
558.3924041919
 20
1331.1044013412
 30
0.0
 40
23.41191191662471
100
AcDbArc
 50
40.0824770913
 51
42.9865596105
  0
SPLINE
  5
20A
330
1F
100
AcDbEntity
  8
1
  6
SLD-Сплошная
100
AcDbSpline
210
0.0
220
0.0
230
1.0
 70
     8
 71
     3
 72
    12
 73
     8
 74
     0
 42
0.00000001
 43
0.00000001
 40
0.0
 40
0.0
 40
0.0
 40
0.0
 40
0.2187857887072036
 40
0.4375776469534673
 40
0.6562353658863823
 40
0.8748419359490875
 40
1.0
 40
1.0
 40
1.0
 40
1.0
 10
575.5185376597593
 20
1347.624361273708
 30
0.0
 10
575.4915742336873
 20
1347.589035876839
 30
0.0
 10
575.4376466335258
 20
1347.518384103106
 30
0.0
 10
575.4050507445526
 20
1347.384420874465
 30
0.0
 10
575.4143998757947
 20
1347.248878248186
 30
0.0
 10
575.4582786338767
 20
1347.139980443892
 30
0.0
 10
575.5024541921631
 20
1347.086676733086
 30
0.0
 10
575.5185376597593
 20
1347.067269881452
 30
0.0
  0
ARC
  5
20B
330
1F
100
AcDbEntity
  8
1
  6
SLD-Сплошная
100
AcDbCircle
 10
558.3924041923
 20
1363.5872298136
 30
0.0
 40
23.41191191609608
100
AcDbArc
 50
317.0134403894
 51
319.9175229087
  0
ARC
  5
20C
330
1F
100
AcDbEntity
  8
1
  6
SLD-Сплошная
100
AcDbCircle
 10
557.1601591846
 20
1330.1005475963
 30
0.0
 40
26.56195549619713
100
AcDbArc
 50
43.8816987744
 51
46.1183012256
  0
ARC
  5
20D
330
1F
100
AcDbEntity
  8
1
  6
SLD-Сплошная
100
AcDbCircle
 10
590.6468414019
 20
1331.3327926039
 30
0.0
 40
23.41191191603723
100
AcDbArc
 50
130.0824770913
 51
132.9865596106
  0
SPLINE
  5
20E
330
1F
100
AcDbEntity
  8
1
  6
SLD-Сплошная
100
AcDbSpline
210
0.0
220
0.0
230
1.0
 70
     8
 71
     3
 72
    12
 73
     8
 74
     0
 42
0.00000001
 43
0.00000001
 40
0.0
 40
0.0
 40
0.0
 40
0.0
 40
0.2187857887071668
 40
0.4375776469534847
 40
0.6562353658863561
 40
0.8748419359491043
 40
1.0
 40
1.0
 40
1.0
 40
1.0
 10
574.1268814698191
 20
1348.458926071392
 30
0.0
 10
574.162206866688
 20
1348.43196264532
 30
0.0
 10
574.2328586404204
 20
1348.378035045158
 30
0.0
 10
574.3668218690614
 20
1348.345439156185
 30
0.0
 10
574.5023644953415
 20
1348.354788287427
 30
0.0
 10
574.6112622996353
 20
1348.398667045509
 30
0.0
 10
574.6645660104414
 20
1348.442842603796
 30
0.0
 10
574.683972862075
 20
1348.458926071392
 30
0.0
  0
ARC
  5
20F
330
1F
100
AcDbEntity
  8
1
  6
SLD-Сплошная
100
AcDbCircle
 10
558.16401293
 20
1331.3327926039
 30
0.0
 40
23.41191191603723
100
AcDbArc
 50
47.0134403894
 51
49.9175229087
  0
ARC
  5
210
330
1F
100
AcDbEntity
  8
1
  6
SLD-Сплошная
100
AcDbCircle
 10
591.6506951472
 20
1330.1005475963
 30
0.0
 40
26.56195549612411
100
AcDbArc
 50
133.8816987744
 51
136.1183012256
  0
ARC
  5
211
330
1F
100
AcDbEntity
  8
1
  6
SLD-Сплошная
100
AcDbCircle
 10
590.4184501396
 20
1363.5872298135
 30
0.0
 40
23.41191191600865
100
AcDbArc
 50
220.0824770913
 51
222.9865596106
  0
SPLINE
  5
212
330
1F
100
AcDbEntity
  8
1
  6
SLD-Сплошная
100
AcDbSpline
210
0.0
220
0.0
230
1.0
 70
     8
 71
     3
 72
    12
 73
     8
 74
     0
 42
0.00000001
 43
0.00000001
 40
0.0
 40
0.0
 40
0.0
 40
0.0
 40
0.2187857887071817
 40
0.4375776469534589
 40
0.6562353658863839
 40
0.8748419359490818
 40
1.0
 40
1.0
 40
1.0
 40
1.0
 10
573.2923166721349
 20
1347.067269881452
 30
0.0
 10
573.3192800982068
 20
1347.102595278321
 30
0.0
 10
573.3732076983684
 20
1347.173247052053
 30
0.0
 10
573.4058035873414
 20
1347.307210280694
 30
0.0
 10
573.3964544560994
 20
1347.442752906974
 30
0.0
 10
573.3525756980175
 20
1347.551650711268
 30
0.0
 10
573.308400139731
 20
1347.604954422074
 30
0.0
 10
573.2923166721349
 20
1347.624361273708
 30
0.0
  0
ARC
  5
213
330
1F
100
AcDbEntity
  8
1
  6
SLD-Сплошная
100
AcDbCircle
 10
590.4184501398
 20
1331.1044013414
 30
0.0
 40
23.4119119163754
100
AcDbArc
 50
137.0134403894
 51
139.9175229087
  0
ARC
  5
214
330
1F
100
AcDbEntity
  8
1
  6
SLD-Сплошная
100
AcDbCircle
 10
591.6506951475
 20
1364.5910835591
 30
0.0
 40
26.5619554965335
100
AcDbArc
 50
223.8816987744
 51
226.1183012256
  0
ARC
  5
215
330
1F
100
AcDbEntity
  8
1
  6
SLD-Сплошная
100
AcDbCircle
 10
558.16401293
 20
1363.3588385512
 30
0.0
 40
23.4119119159779
100
AcDbArc
 50
310.0824770913
 51
312.9865596106
  0
SPLINE
  5
216
330
1F
100
AcDbEntity
  8
1
  6
SLD-Сплошная
100
AcDbSpline
210
0.0
220
0.0
230
1.0
 70
     8
 71
     3
 72
    12
 73
     8
 74
     0
 42
0.00000001
 43
0.00000001
 40
0.0
 40
0.0
 40
0.0
 40
0.0
 40
0.2187857887072144
 40
0.4375776469534825
 40
0.6562353658864019
 40
0.8748419359491026
 40
1.0
 40
1.0
 40
1.0
 40
1.0
 10
574.683972862075
 20
1346.232705083768
 30
0.0
 10
574.6486474652062
 20
1346.25966850984
 30
0.0
 10
574.5779956914738
 20
1346.313596110001
 30
0.0
 10
574.4440324628328
 20
1346.346191998974
 30
0.0
 10
574.3084898365527
 20
1346.336842867732
 30
0.0
 10
574.1995920322587
 20
1346.29296410965
 30
0.0
 10
574.1462883214529
 20
1346.248788551364
 30
0.0
 10
574.1268814698191
 20
1346.232705083768
 30
0.0
  0
ARC
  5
217
330
1F
100
AcDbEntity
  8
1
  6
SLD-Сплошная
100
AcDbCircle
 10
590.6468414018
 20
1363.3588385511
 30
0.0
 40
23.41191191590077
100
AcDbArc
 50
227.0134403894
 51
229.9175229087
  0
CIRCLE
  5
218
330
1F
100
AcDbEntity
  8
1
  6
SLD-Сплошная
100
AcDbCircle
 10
574.4054271659
 20
1347.3458155776
 30
0.0
 40
3.499999999999948
  0
ELLIPSE
  5
219
330
1F
100
AcDbEntity
  8
1
  6
SLD-Сплошная
100
AcDbEllipse
 10
574.4054271659
 20
1346.2764287963
 30
0.0
 11
0.0
 21
0.4122489361056978
 31
0.0
210
0.0
220
0.0
230
1.0
 40
0.9702875252
 41
5.512866274278947
 42
7.053504340080444
  0
ELLIPSE
  5
21A
330
1F
100
AcDbEntity
  8
1
  6
SLD-Сплошная
100
AcDbEllipse
 10
574.4054271659
 20
1348.4152023589
 30
0.0
 11
0.0
 21
-0.4122489361059252
 31
0.0
210
0.0
220
0.0
230
1.0
 40
0.9702875252
 41
5.512866274278609
 42
7.053504340080373
  0
ELLIPSE
  5
21B
330
1F
100
AcDbEntity
  8
1
  6
SLD-Сплошная
100
AcDbEllipse
 10
573.3360403847
 20
1347.3458155776
 30
0.0
 11
0.4122489361056978
 21
0.0
 31
0.0
210
0.0
220
0.0
230
1.0
 40
0.9702875252
 41
5.512866274278908
 42
7.053504340080686
  0
ELLIPSE
  5
21C
330
1F
100
AcDbEntity
  8
1
  6
SLD-Сплошная
100
AcDbEllipse
 10
575.4748139472
 20
1347.3458155776
 30
0.0
 11
-0.4122489361055841
 21
0.0
 31
0.0
210
0.0
220
0.0
230
1.0
 40
0.9702875252
 41
5.512866274278639
 42
7.05350434008014
  0
LINE
  5
21D
330
1F
100
AcDbEntity
  8
1
  6
SLD-Сплошная
100
AcDbLine
 10
572.5055665121
 20
1346.1790893886
 30
0.0
 11
572.7437262302
 21
1346.1790893886
 31
0.0
  0
LINE
  5
21E
330
1F
100
AcDbEntity
  8
1
  6
SLD-Сплошная
100
AcDbLine
 10
573.631906723
 20
1347.0672698815
 30
0.0
 11
572.7437262302
 21
1346.1790893886
 31
0.0
  0
LINE
  5
21F
330
1F
100
AcDbEntity
  8
1
  6
SLD-Сплошная
100
AcDbLine
 10
575.5721533549
 20
1345.4459549238
 30
0.0
 11
575.5721533549
 21
1345.6841146418
 31
0.0
  0
LINE
  5
220
330
1F
100
AcDbEntity
  8
1
  6
SLD-Сплошная
100
AcDbLine
 10
574.6839728621
 20
1346.5722951346
 30
0.0
 11
575.5721533549
 21
1345.6841146418
 31
0.0
  0
LINE
  5
221
330
1F
100
AcDbEntity
  8
1
  6
SLD-Сплошная
100
AcDbLine
 10
576.3052878198
 20
1346.1790893886
 30
0.0
 11
576.0671281017
 21
1346.1790893886
 31
0.0
  0
LINE
  5
222
330
1F
100
AcDbEntity
  8
1
  6
SLD-Сплошная
100
AcDbLine
 10
576.0671281017
 20
1346.1790893886
 30
0.0
 11
575.1789476089
 21
1347.0672698815
 31
0.0
  0
LINE
  5
223
330
1F
100
AcDbEntity
  8
1
  6
SLD-Сплошная
100
AcDbLine
 10
573.238700977
 20
1345.4459549238
 30
0.0
 11
573.238700977
 21
1345.6841146418
 31
0.0
  0
LINE
  5
224
330
1F
100
AcDbEntity
  8
1
  6
SLD-Сплошная
100
AcDbLine
 10
573.238700977
 20
1345.6841146418
 30
0.0
 11
574.1268814698
 21
1346.5722951346
 31
0.0
  0
LINE
  5
225
330
1F
100
AcDbEntity
  8
1
  6
SLD-Сплошная
100
AcDbLine
 10
575.5721533549
 20
1349.2456762314
 30
0.0
 11
575.5721533549
 21
1349.0075165134
 31
0.0
  0
LINE
  5
226
330
1F
100
AcDbEntity
  8
1
  6
SLD-Сплошная
100
AcDbLine
 10
575.5721533549
 20
1349.0075165134
 30
0.0
 11
574.6839728621
 21
1348.1193360205
 31
0.0
  0
LINE
  5
227
330
1F
100
AcDbEntity
  8
1
  6
SLD-Сплошная
100
AcDbLine
 10
576.3052878198
 20
1348.5125417665
 30
0.0
 11
576.0671281017
 21
1348.5125417665
 31
0.0
  0
LINE
  5
228
330
1F
100
AcDbEntity
  8
1
  6
SLD-Сплошная
100
AcDbLine
 10
575.1789476089
 20
1347.6243612737
 30
0.0
 11
576.0671281017
 21
1348.5125417665
 31
0.0
  0
LINE
  5
229
330
1F
100
AcDbEntity
  8
1
  6
SLD-Сплошная
100
AcDbLine
 10
572.5055665121
 20
1348.5125417665
 30
0.0
 11
572.7437262302
 21
1348.5125417665
 31
0.0
  0
LINE
  5
22A
330
1F
100
AcDbEntity
  8
1
  6
SLD-Сплошная
100
AcDbLine
 10
572.7437262302
 20
1348.5125417665
 30
0.0
 11
573.631906723
 21
1347.6243612737
 31
0.0
  0
LINE
  5
22B
330
1F
100
AcDbEntity
  8
1
  6
SLD-Сплошная
100
AcDbLine
 10
573.238700977
 20
1349.2456762314
 30
0.0
 11
573.238700977
 21
1349.0075165134
 31
0.0
  0
LINE
  5
22C
330
1F
100
AcDbEntity
  8
1
  6
SLD-Сплошная
100
AcDbLine
 10
574.1268814698
 20
1348.1193360205
 30
0.0
 11
573.238700977
 21
1349.0075165134
 31
0.0
  0
LINE
  5
22D
330
1F
100
AcDbEntity
  8
1
  6
SLD-Сплошная
100
AcDbLine
 10
572.7437262302
 20
1346.1790893886
 30
0.0
 11
573.238700977
 21
1345.6841146418
 31
0.0
  0
LINE
  5
22E
330
1F
100
AcDbEntity
  8
1
  6
SLD-Сплошная
100
AcDbLine
 10
575.5721533549
 20
1345.6841146418
 30
0.0
 11
576.0671281017
 21
1346.1790893886
 31
0.0
  0
LINE
  5
22F
330
1F
100
AcDbEntity
  8
1
  6
SLD-Сплошная
100
AcDbLine
 10
573.238700977
 20
1349.0075165134
 30
0.0
 11
572.7437262302
 21
1348.5125417665
 31
0.0
  0
LINE
  5
230
330
1F
100
AcDbEntity
  8
1
  6
SLD-Сплошная
100
AcDbLine
 10
576.0671281017
 20
1348.5125417665
 30
0.0
 11
575.5721533549
 21
1349.0075165134
 31
0.0
  0
CIRCLE
  5
231
330
1F
100
AcDbEntity
  8
1
  6
SLD-Сплошная
100
AcDbCircle
 10
574.4054271659
 20
1347.3458155776
 30
0.0
 40
4.999999999999879
  0
ARC
  5
232
330
1F
100
AcDbEntity
  8
1
  6
SLD-Сплошная
100
AcDbCircle
 10
591.6506951472
 20
1439.5910835588
 30
0.0
 40
26.56195549612146
100
AcDbArc
 50
223.8816987744
 51
226.1183012256
  0
ARC
  5
233
330
1F
100
AcDbEntity
  8
1
  6
SLD-Сплошная
100
AcDbCircle
 10
558.1640129298
 20
1438.3588385514
 30
0.0
 40
23.41191191629063
100
AcDbArc
 50
310.0824770913
 51
312.9865596106
  0
SPLINE
  5
234
330
1F
100
AcDbEntity
  8
1
  6
SLD-Сплошная
100
AcDbSpline
210
0.0
220
0.0
230
1.0
 70
     8
 71
     3
 72
    12
 73
     8
 74
     0
 42
0.00000001
 43
0.00000001
 40
0.0
 40
0.0
 40
0.0
 40
0.0
 40
0.2187857887072029
 40
0.4375776469534793
 40
0.6562353658864007
 40
0.8748419359491081
 40
1.0
 40
1.0
 40
1.0
 40
1.0
 10
574.683972862075
 20
1421.232705083768
 30
0.0
 10
574.6486474652062
 20
1421.25966850984
 30
0.0
 10
574.5779956914737
 20
1421.313596110001
 30
0.0
 10
574.4440324628328
 20
1421.346191998974
 30
0.0
 10
574.3084898365527
 20
1421.336842867732
 30
0.0
 10
574.1995920322588
 20
1421.29296410965
 30
0.0
 10
574.146288321453
 20
1421.248788551364
 30
0.0
 10
574.1268814698191
 20
1421.232705083768
 30
0.0
  0
ARC
  5
235
330
1F
100
AcDbEntity
  8
1
  6
SLD-Сплошная
100
AcDbCircle
 10
590.646841402
 20
1438.3588385514
 30
0.0
 40
23.4119119162135
100
AcDbArc
 50
227.0134403894
 51
229.9175229087
  0
ARC
  5
236
330
1F
100
AcDbEntity
  8
1
  6
SLD-Сплошная
100
AcDbCircle
 10
557.1601591846
 20
1439.5910835589
 30
0.0
 40
26.56195549619424
100
AcDbArc
 50
313.8816987744
 51
316.1183012256
  0
ARC
  5
237
330
1F
100
AcDbEntity
  8
1
  6
SLD-Сплошная
100
AcDbCircle
 10
558.3924041922
 20
1406.1044013415
 30
0.0
 40
23.41191191620976
100
AcDbArc
 50
40.0824770913
 51
42.9865596106
  0
SPLINE
  5
238
330
1F
100
AcDbEntity
  8
1
  6
SLD-Сплошная
100
AcDbSpline
210
0.0
220
0.0
230
1.0
 70
     8
 71
     3
 72
    12
 73
     8
 74
     0
 42
0.00000001
 43
0.00000001
 40
0.0
 40
0.0
 40
0.0
 40
0.0
 40
0.2187857887072033
 40
0.4375776469534777
 40
0.6562353658863811
 40
0.8748419359490965
 40
1.0
 40
1.0
 40
1.0
 40
1.0
 10
575.5185376597593
 20
1422.624361273708
 30
0.0
 10
575.4915742336873
 20
1422.589035876839
 30
0.0
 10
575.4376466335257
 20
1422.518384103107
 30
0.0
 10
575.4050507445527
 20
1422.384420874466
 30
0.0
 10
575.4143998757947
 20
1422.248878248186
 30
0.0
 10
575.4582786338767
 20
1422.139980443892
 30
0.0
 10
575.5024541921632
 20
1422.086676733086
 30
0.0
 10
575.5185376597593
 20
1422.067269881452
 30
0.0
  0
ARC
  5
239
330
1F
100
AcDbEntity
  8
1
  6
SLD-Сплошная
100
AcDbCircle
 10
558.3924041923
 20
1438.5872298135
 30
0.0
 40
23.4119119160038
100
AcDbArc
 50
317.0134403894
 51
319.9175229087
  0
ARC
  5
23A
330
1F
100
AcDbEntity
  8
1
  6
SLD-Сплошная
100
AcDbCircle
 10
557.1601591848
 20
1405.1005475964
 30
0.0
 40
26.56195549597153
100
AcDbArc
 50
43.8816987744
 51
46.1183012256
  0
ARC
  5
23B
330
1F
100
AcDbEntity
  8
1
  6
SLD-Сплошная
100
AcDbCircle
 10
590.646841402
 20
1406.3327926038
 30
0.0
 40
23.41191191621436
100
AcDbArc
 50
130.0824770913
 51
132.9865596106
  0
SPLINE
  5
23C
330
1F
100
AcDbEntity
  8
1
  6
SLD-Сплошная
100
AcDbSpline
210
0.0
220
0.0
230
1.0
 70
     8
 71
     3
 72
    12
 73
     8
 74
     0
 42
0.00000001
 43
0.00000001
 40
0.0
 40
0.0
 40
0.0
 40
0.0
 40
0.2187857887071716
 40
0.4375776469534868
 40
0.6562353658863617
 40
0.874841935949109
 40
1.0
 40
1.0
 40
1.0
 40
1.0
 10
574.1268814698191
 20
1423.458926071392
 30
0.0
 10
574.162206866688
 20
1423.43196264532
 30
0.0
 10
574.2328586404204
 20
1423.378035045159
 30
0.0
 10
574.3668218690613
 20
1423.345439156185
 30
0.0
 10
574.5023644953416
 20
1423.354788287427
 30
0.0
 10
574.6112622996352
 20
1423.398667045509
 30
0.0
 10
574.6645660104413
 20
1423.442842603796
 30
0.0
 10
574.683972862075
 20
1423.458926071392
 30
0.0
  0
ARC
  5
23D
330
1F
100
AcDbEntity
  8
1
  6
SLD-Сплошная
100
AcDbCircle
 10
558.1640129299
 20
1406.3327926038
 30
0.0
 40
23.41191191621436
100
AcDbArc
 50
47.0134403894
 51
49.9175229087
  0
ARC
  5
23E
330
1F
100
AcDbEntity
  8
1
  6
SLD-Сплошная
100
AcDbCircle
 10
591.6506951475
 20
1405.100547596
 30
0.0
 40
26.56195549653366
100
AcDbArc
 50
133.8816987744
 51
136.1183012256
  0
ARC
  5
23F
330
1F
100
AcDbEntity
  8
1
  6
SLD-Сплошная
100
AcDbCircle
 10
590.4184501395
 20
1438.5872298134
 30
0.0
 40
23.41191191588306
100
AcDbArc
 50
220.0824770913
 51
222.9865596106
  0
SPLINE
  5
240
330
1F
100
AcDbEntity
  8
1
  6
SLD-Сплошная
100
AcDbSpline
210
0.0
220
0.0
230
1.0
 70
     8
 71
     3
 72
    12
 73
     8
 74
     0
 42
0.00000001
 43
0.00000001
 40
0.0
 40
0.0
 40
0.0
 40
0.0
 40
0.2187857887071835
 40
0.4375776469534734
 40
0.656235365886389
 40
0.8748419359491165
 40
1.0
 40
1.0
 40
1.0
 40
1.0
 10
573.2923166721349
 20
1422.067269881452
 30
0.0
 10
573.3192800982068
 20
1422.102595278321
 30
0.0
 10
573.3732076983684
 20
1422.173247052053
 30
0.0
 10
573.4058035873416
 20
1422.307210280694
 30
0.0
 10
573.3964544560994
 20
1422.442752906974
 30
0.0
 10
573.3525756980175
 20
1422.551650711268
 30
0.0
 10
573.308400139731
 20
1422.604954422074
 30
0.0
 10
573.2923166721349
 20
1422.624361273708
 30
0.0
  0
ARC
  5
241
330
1F
100
AcDbEntity
  8
1
  6
SLD-Сплошная
100
AcDbCircle
 10
590.4184501396
 20
1406.1044013417
 30
0.0
 40
23.41191191600663
100
AcDbArc
 50
137.0134403894
 51
139.9175229087
  0
CIRCLE
  5
242
330
1F
100
AcDbEntity
  8
1
  6
SLD-Сплошная
100
AcDbCircle
 10
574.4054271659
 20
1422.3458155776
 30
0.0
 40
3.499999999999948
  0
ELLIPSE
  5
243
330
1F
100
AcDbEntity
  8
1
  6
SLD-Сплошная
100
AcDbEllipse
 10
573.3360403847
 20
1422.3458155776
 30
0.0
 11
0.4122489361056978
 21
0.0
 31
0.0
210
0.0
220
0.0
230
1.0
 40
0.9702875252
 41
5.512866274278501
 42
7.053504340080686
  0
ELLIPSE
  5
244
330
1F
100
AcDbEntity
  8
1
  6
SLD-Сплошная
100
AcDbEllipse
 10
575.4748139472
 20
1422.3458155776
 30
0.0
 11
-0.4122489361055841
 21
0.0
 31
0.0
210
0.0
220
0.0
230
1.0
 40
0.9702875252
 41
5.512866274278355
 42
7.053504340080831
  0
ELLIPSE
  5
245
330
1F
100
AcDbEntity
  8
1
  6
SLD-Сплошная
100
AcDbEllipse
 10
574.4054271659
 20
1421.2764287963
 30
0.0
 11
0.0
 21
0.4122489361054704
 31
0.0
210
0.0
220
0.0
230
1.0
 40
0.9702875252
 41
5.512866274278838
 42
7.053504340080551
  0
ELLIPSE
  5
246
330
1F
100
AcDbEntity
  8
1
  6
SLD-Сплошная
100
AcDbEllipse
 10
574.4054271659
 20
1423.4152023589
 30
0.0
 11
0.0
 21
-0.4122489361054704
 31
0.0
210
0.0
220
0.0
230
1.0
 40
0.9702875252
 41
5.512866274278393
 42
7.053504340080591
  0
LINE
  5
247
330
1F
100
AcDbEntity
  8
1
  6
SLD-Сплошная
100
AcDbLine
 10
572.5055665121
 20
1423.5125417665
 30
0.0
 11
572.7437262302
 21
1423.5125417665
 31
0.0
  0
LINE
  5
248
330
1F
100
AcDbEntity
  8
1
  6
SLD-Сплошная
100
AcDbLine
 10
572.7437262302
 20
1423.5125417665
 30
0.0
 11
573.631906723
 21
1422.6243612737
 31
0.0
  0
LINE
  5
249
330
1F
100
AcDbEntity
  8
1
  6
SLD-Сплошная
100
AcDbLine
 10
575.5721533549
 20
1420.4459549238
 30
0.0
 11
575.5721533549
 21
1420.6841146418
 31
0.0
  0
LINE
  5
24A
330
1F
100
AcDbEntity
  8
1
  6
SLD-Сплошная
100
AcDbLine
 10
574.6839728621
 20
1421.5722951346
 30
0.0
 11
575.5721533549
 21
1420.6841146418
 31
0.0
  0
LINE
  5
24B
330
1F
100
AcDbEntity
  8
1
  6
SLD-Сплошная
100
AcDbLine
 10
573.238700977
 20
1424.2456762314
 30
0.0
 11
573.238700977
 21
1424.0075165134
 31
0.0
  0
LINE
  5
24C
330
1F
100
AcDbEntity
  8
1
  6
SLD-Сплошная
100
AcDbLine
 10
574.1268814698
 20
1423.1193360205
 30
0.0
 11
573.238700977
 21
1424.0075165134
 31
0.0
  0
LINE
  5
24D
330
1F
100
AcDbEntity
  8
1
  6
SLD-Сплошная
100
AcDbLine
 10
573.238700977
 20
1420.4459549238
 30
0.0
 11
573.238700977
 21
1420.6841146418
 31
0.0
  0
LINE
  5
24E
330
1F
100
AcDbEntity
  8
1
  6
SLD-Сплошная
100
AcDbLine
 10
573.238700977
 20
1420.6841146418
 30
0.0
 11
574.1268814698
 21
1421.5722951346
 31
0.0
  0
LINE
  5
24F
330
1F
100
AcDbEntity
  8
1
  6
SLD-Сплошная
100
AcDbLine
 10
572.5055665121
 20
1421.1790893886
 30
0.0
 11
572.7437262302
 21
1421.1790893886
 31
0.0
  0
LINE
  5
250
330
1F
100
AcDbEntity
  8
1
  6
SLD-Сплошная
100
AcDbLine
 10
573.631906723
 20
1422.0672698815
 30
0.0
 11
572.7437262302
 21
1421.1790893886
 31
0.0
  0
LINE
  5
251
330
1F
100
AcDbEntity
  8
1
  6
SLD-Сплошная
100
AcDbLine
 10
576.3052878198
 20
1421.1790893886
 30
0.0
 11
576.0671281017
 21
1421.1790893886
 31
0.0
  0
LINE
  5
252
330
1F
100
AcDbEntity
  8
1
  6
SLD-Сплошная
100
AcDbLine
 10
576.0671281017
 20
1421.1790893886
 30
0.0
 11
575.1789476089
 21
1422.0672698815
 31
0.0
  0
LINE
  5
253
330
1F
100
AcDbEntity
  8
1
  6
SLD-Сплошная
100
AcDbLine
 10
576.3052878198
 20
1423.5125417665
 30
0.0
 11
576.0671281017
 21
1423.5125417665
 31
0.0
  0
LINE
  5
254
330
1F
100
AcDbEntity
  8
1
  6
SLD-Сплошная
100
AcDbLine
 10
575.1789476089
 20
1422.6243612737
 30
0.0
 11
576.0671281017
 21
1423.5125417665
 31
0.0
  0
LINE
  5
255
330
1F
100
AcDbEntity
  8
1
  6
SLD-Сплошная
100
AcDbLine
 10
575.5721533549
 20
1424.2456762314
 30
0.0
 11
575.5721533549
 21
1424.0075165134
 31
0.0
  0
LINE
  5
256
330
1F
100
AcDbEntity
  8
1
  6
SLD-Сплошная
100
AcDbLine
 10
575.5721533549
 20
1424.0075165134
 30
0.0
 11
574.6839728621
 21
1423.1193360205
 31
0.0
  0
LINE
  5
257
330
1F
100
AcDbEntity
  8
1
  6
SLD-Сплошная
100
AcDbLine
 10
575.5721533549
 20
1420.6841146418
 30
0.0
 11
576.0671281017
 21
1421.1790893886
 31
0.0
  0
LINE
  5
258
330
1F
100
AcDbEntity
  8
1
  6
SLD-Сплошная
100
AcDbLine
 10
576.0671281017
 20
1423.5125417665
 30
0.0
 11
575.5721533549
 21
1424.0075165134
 31
0.0
  0
LINE
  5
259
330
1F
100
AcDbEntity
  8
1
  6
SLD-Сплошная
100
AcDbLine
 10
572.7437262302
 20
1421.1790893886
 30
0.0
 11
573.238700977
 21
1420.6841146418
 31
0.0
  0
LINE
  5
25A
330
1F
100
AcDbEntity
  8
1
  6
SLD-Сплошная
100
AcDbLine
 10
573.238700977
 20
1424.0075165134
 30
0.0
 11
572.7437262302
 21
1423.5125417665
 31
0.0
  0
CIRCLE
  5
25B
330
1F
100
AcDbEntity
  8
1
  6
SLD-Сплошная
100
AcDbCircle
 10
574.4054271659
 20
1422.3458155776
 30
0.0
 40
4.99999999999996
  0
ARC
  5
25C
330
1F
100
AcDbEntity
  8
1
  6
SLD-Сплошная
100
AcDbCircle
 10
609.1506951477
 20
1457.0910835594
 30
0.0
 40
26.56195549686021
100
AcDbArc
 50
223.8816987744
 51
226.1183012256
  0
ARC
  5
25D
330
1F
100
AcDbEntity
  8
1
  6
SLD-Сплошная
100
AcDbCircle
 10
575.6640129296
 20
1455.8588385517
 30
0.0
 40
23.41191191669024
100
AcDbArc
 50
310.0824770914
 51
312.9865596106
  0
SPLINE
  5
25E
330
1F
100
AcDbEntity
  8
1
  6
SLD-Сплошная
100
AcDbSpline
210
0.0
220
0.0
230
1.0
 70
     8
 71
     3
 72
    12
 73
     8
 74
     0
 42
0.00000001
 43
0.00000001
 40
0.0
 40
0.0
 40
0.0
 40
0.0
 40
0.2187857887072029
 40
0.4375776469534793
 40
0.6562353658864007
 40
0.8748419359491081
 40
1.0
 40
1.0
 40
1.0
 40
1.0
 10
592.183972862075
 20
1438.732705083768
 30
0.0
 10
592.1486474652061
 20
1438.75966850984
 30
0.0
 10
592.0779956914737
 20
1438.813596110001
 30
0.0
 10
591.9440324628326
 20
1438.846191998974
 30
0.0
 10
591.8084898365528
 20
1438.836842867732
 30
0.0
 10
591.6995920322587
 20
1438.79296410965
 30
0.0
 10
591.6462883214529
 20
1438.748788551364
 30
0.0
 10
591.6268814698191
 20
1438.732705083768
 30
0.0
  0
ARC
  5
25F
330
1F
100
AcDbEntity
  8
1
  6
SLD-Сплошная
100
AcDbCircle
 10
608.1468414022
 20
1455.8588385515
 30
0.0
 40
23.41191191643606
100
AcDbArc
 50
227.0134403894
 51
229.9175229087
  0
ARC
  5
260
330
1F
100
AcDbEntity
  8
1
  6
SLD-Сплошная
100
AcDbCircle
 10
574.660159184
 20
1457.0910835596
 30
0.0
 40
26.56195549712252
100
AcDbArc
 50
313.8816987745
 51
316.1183012255
  0
ARC
  5
261
330
1F
100
AcDbEntity
  8
1
  6
SLD-Сплошная
100
AcDbCircle
 10
575.8924041922
 20
1423.6044013415
 30
0.0
 40
23.41191191624859
100
AcDbArc
 50
40.0824770913
 51
42.9865596106
  0
SPLINE
  5
262
330
1F
100
AcDbEntity
  8
1
  6
SLD-Сплошная
100
AcDbSpline
210
0.0
220
0.0
230
1.0
 70
     8
 71
     3
 72
    12
 73
     8
 74
     0
 42
0.00000001
 43
0.00000001
 40
0.0
 40
0.0
 40
0.0
 40
0.0
 40
0.2187857887072079
 40
0.4375776469534822
 40
0.6562353658863856
 40
0.8748419359491009
 40
1.0
 40
1.0
 40
1.0
 40
1.0
 10
593.0185376597593
 20
1440.124361273708
 30
0.0
 10
592.9915742336872
 20
1440.089035876839
 30
0.0
 10
592.9376466335258
 20
1440.018384103107
 30
0.0
 10
592.9050507445526
 20
1439.884420874466
 30
0.0
 10
592.9143998757949
 20
1439.748878248186
 30
0.0
 10
592.9582786338765
 20
1439.639980443892
 30
0.0
 10
593.0024541921631
 20
1439.586676733086
 30
0.0
 10
593.0185376597593
 20
1439.567269881452
 30
0.0
  0
ARC
  5
263
330
1F
100
AcDbEntity
  8
1
  6
SLD-Сплошная
100
AcDbCircle
 10
575.8924041922
 20
1456.0872298136
 30
0.0
 40
23.41191191613096
100
AcDbArc
 50
317.0134403894
 51
319.9175229087
  0
ARC
  5
264
330
1F
100
AcDbEntity
  8
1
  6
SLD-Сплошная
100
AcDbCircle
 10
574.6601591847
 20
1422.6005475963
 30
0.0
 40
26.56195549606496
100
AcDbArc
 50
43.8816987744
 51
46.1183012256
  0
ARC
  5
265
330
1F
100
AcDbEntity
  8
1
  6
SLD-Сплошная
100
AcDbCircle
 10
608.1468414019
 20
1423.832792604
 30
0.0
 40
23.41191191602185
100
AcDbArc
 50
130.0824770913
 51
132.9865596106
  0
SPLINE
  5
266
330
1F
100
AcDbEntity
  8
1
  6
SLD-Сплошная
100
AcDbSpline
210
0.0
220
0.0
230
1.0
 70
     8
 71
     3
 72
    12
 73
     8
 74
     0
 42
0.00000001
 43
0.00000001
 40
0.0
 40
0.0
 40
0.0
 40
0.0
 40
0.2187857887071742
 40
0.4375776469534876
 40
0.6562353658863623
 40
0.8748419359491093
 40
1.0
 40
1.0
 40
1.0
 40
1.0
 10
591.6268814698191
 20
1440.958926071392
 30
0.0
 10
591.6622068666879
 20
1440.93196264532
 30
0.0
 10
591.7328586404203
 20
1440.878035045159
 30
0.0
 10
591.8668218690614
 20
1440.845439156186
 30
0.0
 10
592.0023644953415
 20
1440.854788287428
 30
0.0
 10
592.1112622996353
 20
1440.898667045509
 30
0.0
 10
592.1645660104413
 20
1440.942842603796
 30
0.0
 10
592.183972862075
 20
1440.958926071392
 30
0.0
  0
ARC
  5
267
330
1F
100
AcDbEntity
  8
1
  6
SLD-Сплошная
100
AcDbCircle
 10
575.6640129301
 20
1423.832792604
 30
0.0
 40
23.41191191594238
100
AcDbArc
 50
47.0134403894
 51
49.9175229087
  0
ARC
  5
268
330
1F
100
AcDbEntity
  8
1
  6
SLD-Сплошная
100
AcDbCircle
 10
609.150695147
 20
1422.6005475965
 30
0.0
 40
26.56195549580234
100
AcDbArc
 50
133.8816987744
 51
136.1183012256
  0
ARC
  5
269
330
1F
100
AcDbEntity
  8
1
  6
SLD-Сплошная
100
AcDbCircle
 10
607.9184501395
 20
1456.0872298135
 30
0.0
 40
23.41191191596515
100
AcDbArc
 50
220.0824770913
 51
222.9865596106
  0
SPLINE
  5
26A
330
1F
100
AcDbEntity
  8
1
  6
SLD-Сплошная
100
AcDbSpline
210
0.0
220
0.0
230
1.0
 70
     8
 71
     3
 72
    12
 73
     8
 74
     0
 42
0.00000001
 43
0.00000001
 40
0.0
 40
0.0
 40
0.0
 40
0.0
 40
0.2187857887071884
 40
0.4375776469534731
 40
0.6562353658863888
 40
0.8748419359491165
 40
1.0
 40
1.0
 40
1.0
 40
1.0
 10
590.7923166721348
 20
1439.567269881452
 30
0.0
 10
590.8192800982068
 20
1439.602595278321
 30
0.0
 10
590.8732076983683
 20
1439.673247052053
 30
0.0
 10
590.9058035873414
 20
1439.807210280694
 30
0.0
 10
590.8964544560994
 20
1439.942752906974
 30
0.0
 10
590.8525756980175
 20
1440.051650711268
 30
0.0
 10
590.8084001397311
 20
1440.104954422074
 30
0.0
 10
590.7923166721348
 20
1440.124361273708
 30
0.0
  0
ARC
  5
26B
330
1F
100
AcDbEntity
  8
1
  6
SLD-Сплошная
100
AcDbCircle
 10
607.9184501395
 20
1423.6044013417
 30
0.0
 40
23.41191191596499
100
AcDbArc
 50
137.0134403894
 51
139.9175229087
  0
CIRCLE
  5
26C
330
1F
100
AcDbEntity
  8
1
  6
SLD-Сплошная
100
AcDbCircle
 10
591.9054271659
 20
1439.8458155776
 30
0.0
 40
3.500000000000028
  0
ELLIPSE
  5
26D
330
1F
100
AcDbEntity
  8
1
  6
SLD-Сплошная
100
AcDbEllipse
 10
590.8360403847
 20
1439.8458155776
 30
0.0
 11
0.4122489361056978
 21
0.0
 31
0.0
210
0.0
220
0.0
230
1.0
 40
0.9702875252
 41
5.5128662742786
 42
7.053504340080586
  0
ELLIPSE
  5
26E
330
1F
100
AcDbEntity
  8
1
  6
SLD-Сплошная
100
AcDbEllipse
 10
591.9054271659
 20
1438.7764287963
 30
0.0
 11
0.0
 21
0.4122489361056978
 31
0.0
210
0.0
220
0.0
230
1.0
 40
0.9702875252
 41
5.512866274278562
 42
7.053504340080828
  0
ELLIPSE
  5
26F
330
1F
100
AcDbEntity
  8
1
  6
SLD-Сплошная
100
AcDbEllipse
 10
592.9748139472
 20
1439.8458155776
 30
0.0
 11
-0.4122489361056978
 21
0.0
 31
0.0
210
0.0
220
0.0
230
1.0
 40
0.9702875252
 41
5.5128662742786
 42
7.053504340080586
  0
ELLIPSE
  5
270
330
1F
100
AcDbEntity
  8
1
  6
SLD-Сплошная
100
AcDbEllipse
 10
591.9054271659
 20
1440.9152023589
 30
0.0
 11
0.0
 21
-0.4122489361056978
 31
0.0
210
0.0
220
0.0
230
1.0
 40
0.9702875252
 41
5.512866274278501
 42
7.053504340080481
  0
LINE
  5
271
330
1F
100
AcDbEntity
  8
1
  6
SLD-Сплошная
100
AcDbLine
 10
590.0055665121
 20
1438.6790893886
 30
0.0
 11
590.2437262302
 21
1438.6790893886
 31
0.0
  0
LINE
  5
272
330
1F
100
AcDbEntity
  8
1
  6
SLD-Сплошная
100
AcDbLine
 10
591.131906723
 20
1439.5672698815
 30
0.0
 11
590.2437262302
 21
1438.6790893886
 31
0.0
  0
LINE
  5
273
330
1F
100
AcDbEntity
  8
1
  6
SLD-Сплошная
100
AcDbLine
 10
593.8052878198
 20
1438.6790893886
 30
0.0
 11
593.5671281017
 21
1438.6790893886
 31
0.0
  0
LINE
  5
274
330
1F
100
AcDbEntity
  8
1
  6
SLD-Сплошная
100
AcDbLine
 10
593.5671281017
 20
1438.6790893886
 30
0.0
 11
592.6789476089
 21
1439.5672698815
 31
0.0
  0
LINE
  5
275
330
1F
100
AcDbEntity
  8
1
  6
SLD-Сплошная
100
AcDbLine
 10
590.738700977
 20
1437.9459549238
 30
0.0
 11
590.738700977
 21
1438.1841146418
 31
0.0
  0
LINE
  5
276
330
1F
100
AcDbEntity
  8
1
  6
SLD-Сплошная
100
AcDbLine
 10
590.738700977
 20
1438.1841146418
 30
0.0
 11
591.6268814698
 21
1439.0722951346
 31
0.0
  0
LINE
  5
277
330
1F
100
AcDbEntity
  8
1
  6
SLD-Сплошная
100
AcDbLine
 10
593.0721533549
 20
1441.7456762314
 30
0.0
 11
593.0721533549
 21
1441.5075165134
 31
0.0
  0
LINE
  5
278
330
1F
100
AcDbEntity
  8
1
  6
SLD-Сплошная
100
AcDbLine
 10
593.0721533549
 20
1441.5075165134
 30
0.0
 11
592.1839728621
 21
1440.6193360205
 31
0.0
  0
LINE
  5
279
330
1F
100
AcDbEntity
  8
1
  6
SLD-Сплошная
100
AcDbLine
 10
593.0721533549
 20
1437.9459549238
 30
0.0
 11
593.0721533549
 21
1438.1841146418
 31
0.0
  0
LINE
  5
27A
330
1F
100
AcDbEntity
  8
1
  6
SLD-Сплошная
100
AcDbLine
 10
592.1839728621
 20
1439.0722951346
 30
0.0
 11
593.0721533549
 21
1438.1841146418
 31
0.0
  0
LINE
  5
27B
330
1F
100
AcDbEntity
  8
1
  6
SLD-Сплошная
100
AcDbLine
 10
590.738700977
 20
1441.7456762314
 30
0.0
 11
590.738700977
 21
1441.5075165134
 31
0.0
  0
LINE
  5
27C
330
1F
100
AcDbEntity
  8
1
  6
SLD-Сплошная
100
AcDbLine
 10
591.6268814698
 20
1440.6193360205
 30
0.0
 11
590.738700977
 21
1441.5075165134
 31
0.0
  0
LINE
  5
27D
330
1F
100
AcDbEntity
  8
1
  6
SLD-Сплошная
100
AcDbLine
 10
590.0055665121
 20
1441.0125417665
 30
0.0
 11
590.2437262302
 21
1441.0125417665
 31
0.0
  0
LINE
  5
27E
330
1F
100
AcDbEntity
  8
1
  6
SLD-Сплошная
100
AcDbLine
 10
590.2437262302
 20
1441.0125417665
 30
0.0
 11
591.131906723
 21
1440.1243612737
 31
0.0
  0
LINE
  5
27F
330
1F
100
AcDbEntity
  8
1
  6
SLD-Сплошная
100
AcDbLine
 10
593.8052878198
 20
1441.0125417665
 30
0.0
 11
593.5671281017
 21
1441.0125417665
 31
0.0
  0
LINE
  5
280
330
1F
100
AcDbEntity
  8
1
  6
SLD-Сплошная
100
AcDbLine
 10
592.6789476089
 20
1440.1243612737
 30
0.0
 11
593.5671281017
 21
1441.0125417665
 31
0.0
  0
LINE
  5
281
330
1F
100
AcDbEntity
  8
1
  6
SLD-Сплошная
100
AcDbLine
 10
590.2437262302
 20
1438.6790893886
 30
0.0
 11
590.738700977
 21
1438.1841146418
 31
0.0
  0
LINE
  5
282
330
1F
100
AcDbEntity
  8
1
  6
SLD-Сплошная
100
AcDbLine
 10
593.5671281017
 20
1441.0125417665
 30
0.0
 11
593.0721533549
 21
1441.5075165134
 31
0.0
  0
LINE
  5
283
330
1F
100
AcDbEntity
  8
1
  6
SLD-Сплошная
100
AcDbLine
 10
590.738700977
 20
1441.5075165134
 30
0.0
 11
590.2437262302
 21
1441.0125417665
 31
0.0
  0
LINE
  5
284
330
1F
100
AcDbEntity
  8
1
  6
SLD-Сплошная
100
AcDbLine
 10
593.0721533549
 20
1438.1841146418
 30
0.0
 11
593.5671281017
 21
1438.6790893886
 31
0.0
  0
CIRCLE
  5
285
330
1F
100
AcDbEntity
  8
1
  6
SLD-Сплошная
100
AcDbCircle
 10
591.9054271659
 20
1439.8458155776
 30
0.0
 40
5.000000000000121
  0
ARC
  5
286
330
1F
100
AcDbEntity
  8
1
  6
SLD-Сплошная
100
AcDbCircle
 10
815.6055766449
 20
1445.5992015508
 30
0.0
 40
26.56195549594552
100
AcDbArc
 50
192.5267196435
 51
194.7633220947
  0
ARC
  5
287
330
1F
100
AcDbEntity
  8
1
  6
SLD-Сплошная
100
AcDbCircle
 10
786.3681071927
 20
1461.9713331682
 30
0.0
 40
23.41191191604031
100
AcDbArc
 50
278.7274979604
 51
281.6315804797
  0
SPLINE
  5
288
330
1F
100
AcDbEntity
  8
1
  6
SLD-Сплошная
100
AcDbSpline
210
0.0
220
0.0
230
1.0
 70
     8
 71
     3
 72
    12
 73
     8
 74
     0
 42
0.00000001
 43
0.00000001
 40
0.0
 40
0.0
 40
0.0
 40
0.0
 40
0.2187857887071894
 40
0.4375776469534765
 40
0.6562353658863845
 40
0.8748419359491019
 40
0.9999999999999999
 40
0.9999999999999999
 40
0.9999999999999999
 40
0.9999999999999999
 10
791.5640994676716
 20
1438.750325696907
 30
0.0
 10
791.5479631107698
 20
1438.791732556187
 30
0.0
 10
791.5156899493127
 20
1438.874547423453
 30
0.0
 10
791.4182516260264
 20
1438.972089269658
 30
0.0
 10
791.2976389396839
 20
1439.034633571453
 30
0.0
 10
791.1818127594811
 20
1439.05382662151
 30
0.0
 10
791.1133072704437
 20
1439.043838453142
 30
0.0
 10
791.0883657449523
 20
1439.040201953944
 30
0.0
  0
ARC
  5
289
330
1F
100
AcDbEntity
  8
1
  6
SLD-Сплошная
100
AcDbCircle
 10
814.1071409101
 20
1445.0692577345
 30
0.0
 40
23.41191191612896
100
AcDbArc
 50
195.6584612585
 51
198.5625437778
  0
ARC
  5
28A
330
1F
100
AcDbEntity
  8
1
  6
SLD-Сплошная
100
AcDbCircle
 10
786.1520411926
 20
1463.5459650573
 30
0.0
 40
26.56195549673696
100
AcDbArc
 50
282.5267196436
 51
284.7633220947
  0
ARC
  5
28B
330
1F
100
AcDbEntity
  8
1
  6
SLD-Сплошная
100
AcDbCircle
 10
769.7799095752
 20
1434.3084956043
 30
0.0
 40
23.41191191623654
100
AcDbArc
 50
8.7274979605
 51
11.6315804797
  0
SPLINE
  5
28C
330
1F
100
AcDbEntity
  8
1
  6
SLD-Сплошная
100
AcDbSpline
210
0.0
220
0.0
230
1.0
 70
     8
 71
     3
 72
    12
 73
     8
 74
     0
 42
0.00000001
 43
0.00000001
 40
0.0
 40
0.0
 40
0.0
 40
0.0
 40
0.2187857887071981
 40
0.4375776469534807
 40
0.6562353658863856
 40
0.8748419359491004
 40
1.0
 40
1.0
 40
1.0
 40
1.0
 10
793.0009170466197
 20
1439.504487879304
 30
0.0
 10
792.9595101873399
 20
1439.488351522403
 30
0.0
 10
792.8766953200738
 20
1439.456078360945
 30
0.0
 10
792.7791534738691
 20
1439.358640037659
 30
0.0
 10
792.7166091720735
 20
1439.238027351317
 30
0.0
 10
792.6974161220171
 20
1439.122201171114
 30
0.0
 10
792.707404290385
 20
1439.053695682077
 30
0.0
 10
792.7110407895834
 20
1439.028754156585
 30
0.0
  0
ARC
  5
28D
330
1F
100
AcDbEntity
  8
1
  6
SLD-Сплошная
100
AcDbCircle
 10
786.681985009
 20
1462.0475293218
 30
0.0
 40
23.4119119162588
100
AcDbArc
 50
285.6584612586
 51
288.5625437778
  0
ARC
  5
28E
330
1F
100
AcDbEntity
  8
1
  6
SLD-Сплошная
100
AcDbCircle
 10
768.2052776867
 20
1434.0924296043
 30
0.0
 40
26.56195549623738
100
AcDbArc
 50
12.5267196435
 51
14.7633220947
  0
ARC
  5
28F
330
1F
100
AcDbEntity
  8
1
  6
SLD-Сплошная
100
AcDbCircle
 10
797.4427471392
 20
1417.7202979866
 30
0.0
 40
23.41191191640321
100
AcDbArc
 50
98.7274979605
 51
101.6315804797
  0
SPLINE
  5
290
330
1F
100
AcDbEntity
  8
1
  6
SLD-Сплошная
100
AcDbSpline
210
0.0
220
0.0
230
1.0
 70
     8
 71
     3
 72
    12
 73
     8
 74
     0
 42
0.00000001
 43
0.00000001
 40
0.0
 40
0.0
 40
0.0
 40
0.0
 40
0.2187857887072005
 40
0.4375776469534791
 40
0.6562353658863865
 40
0.8748419359491028
 40
0.9999999999999999
 40
0.9999999999999999
 40
0.9999999999999999
 40
0.9999999999999999
 10
792.2467548642227
 20
1440.941305458253
 30
0.0
 10
792.2628912211244
 20
1440.899898598973
 30
0.0
 10
792.2951643825816
 20
1440.817083731707
 30
0.0
 10
792.3926027058677
 20
1440.719541885502
 30
0.0
 10
792.5132153922103
 20
1440.656997583706
 30
0.0
 10
792.6290415724131
 20
1440.63780453365
 30
0.0
 10
792.6975470614505
 20
1440.647792702018
 30
0.0
 10
792.722488586942
 20
1440.651429201216
 30
0.0
  0
ARC
  5
291
330
1F
100
AcDbEntity
  8
1
  6
SLD-Сплошная
100
AcDbCircle
 10
769.7037134216
 20
1434.6223734206
 30
0.0
 40
23.41191191640102
100
AcDbArc
 50
15.6584612586
 51
18.5625437778
  0
ARC
  5
292
330
1F
100
AcDbEntity
  8
1
  6
SLD-Сплошная
100
AcDbCircle
 10
797.658813139
 20
1416.1456660991
 30
0.0
 40
26.56195549540407
100
AcDbArc
 50
102.5267196435
 51
104.7633220948
  0
ARC
  5
293
330
1F
100
AcDbEntity
  8
1
  6
SLD-Сплошная
100
AcDbCircle
 10
814.0309447568
 20
1445.3831355509
 30
0.0
 40
23.41191191627587
100
AcDbArc
 50
188.7274979605
 51
191.6315804797
  0
SPLINE
  5
294
330
1F
100
AcDbEntity
  8
1
  6
SLD-Сплошная
100
AcDbSpline
210
0.0
220
0.0
230
1.0
 70
     8
 71
     3
 72
    12
 73
     8
 74
     0
 42
0.00000001
 43
0.00000001
 40
0.0
 40
0.0
 40
0.0
 40
0.0
 40
0.2187857887071911
 40
0.4375776469534741
 40
0.6562353658863846
 40
0.8748419359491
 40
1.0
 40
1.0
 40
1.0
 40
1.0
 10
790.8099372852744
 20
1440.187143275856
 30
0.0
 10
790.8513441445543
 20
1440.203279632757
 30
0.0
 10
790.9341590118203
 20
1440.235552794214
 30
0.0
 10
791.0317008580251
 20
1440.332991117501
 30
0.0
 10
791.0942451598206
 20
1440.453603803843
 30
0.0
 10
791.1134382098772
 20
1440.569429984046
 30
0.0
 10
791.1034500415091
 20
1440.637935473083
 30
0.0
 10
791.0998135423108
 20
1440.662876998575
 30
0.0
  0
ARC
  5
295
330
1F
100
AcDbEntity
  8
1
  6
SLD-Сплошная
100
AcDbCircle
 10
797.128869323
 20
1417.6441018332
 30
0.0
 40
23.41191191645883
100
AcDbArc
 50
105.6584612586
 51
108.5625437778
  0
CIRCLE
  5
296
330
1F
100
AcDbEntity
  8
1
  6
SLD-Сплошная
100
AcDbCircle
 10
791.9054271659
 20
1439.8458155776
 30
0.0
 40
3.500000000000102
  0
ELLIPSE
  5
297
330
1F
100
AcDbEntity
  8
1
  6
SLD-Сплошная
100
AcDbEllipse
 10
792.8186406199
 20
1439.2893721613
 30
0.0
 11
-0.352044069943986
 21
0.2145091096842862
 31
0.0
210
0.0
220
0.0
230
1.0
 40
0.9702875252
 41
5.512866274278803
 42
7.053504340080998
  0
ELLIPSE
  5
298
330
1F
100
AcDbEntity
  8
1
  6
SLD-Сплошная
100
AcDbEllipse
 10
790.992213712
 20
1440.4022589939
 30
0.0
 11
0.352044069943986
 21
-0.2145091096842862
 31
0.0
210
0.0
220
0.0
230
1.0
 40
0.9702875252
 41
5.512866274278803
 42
7.05350434008094
  0
ELLIPSE
  5
299
330
1F
100
AcDbEntity
  8
1
  6
SLD-Сплошная
100
AcDbEllipse
 10
792.4618705822
 20
1440.7590290315
 30
0.0
 11
-0.2145091096841725
 21
-0.3520440699442133
 31
0.0
210
0.0
220
0.0
230
1.0
 40
0.9702875252
 41
5.512866274278583
 42
7.053504340080364
  0
ELLIPSE
  5
29A
330
1F
100
AcDbEntity
  8
1
  6
SLD-Сплошная
100
AcDbEllipse
 10
791.3489837497
 20
1438.9326021236
 30
0.0
 11
0.2145091096841725
 21
0.3520440699442133
 31
0.0
210
0.0
220
0.0
230
1.0
 40
0.9702875252
 41
5.512866274278509
 42
7.05350434008067
  0
LINE
  5
29B
330
1F
100
AcDbEntity
  8
1
  6
SLD-Сплошная
100
AcDbLine
 10
789.6759294221
 20
1439.8380493509
 30
0.0
 11
789.8793082767
 21
1439.714125613
 31
0.0
  0
LINE
  5
29C
330
1F
100
AcDbEntity
  8
1
  6
SLD-Сплошная
100
AcDbLine
 10
791.0999335791
 20
1440.0104414021
 30
0.0
 11
789.8793082767
 21
1439.714125613
 31
0.0
  0
LINE
  5
29D
330
1F
100
AcDbEntity
  8
1
  6
SLD-Сплошная
100
AcDbLine
 10
790.8901151925
 20
1441.830724165
 30
0.0
 11
791.0934940471
 21
1441.7068004272
 31
0.0
  0
LINE
  5
29E
330
1F
100
AcDbEntity
  8
1
  6
SLD-Сплошная
100
AcDbLine
 10
791.0934940471
 20
1441.7068004272
 30
0.0
 11
791.3898098362
 21
1440.4861751248
 31
0.0
  0
LINE
  5
29F
330
1F
100
AcDbEntity
  8
1
  6
SLD-Сплошная
100
AcDbLine
 10
792.9207391394
 20
1437.8609069901
 30
0.0
 11
792.7173602848
 21
1437.984830728
 31
0.0
  0
LINE
  5
2A0
330
1F
100
AcDbEntity
  8
1
  6
SLD-Сплошная
100
AcDbLine
 10
792.7173602848
 20
1437.984830728
 30
0.0
 11
792.4210444957
 21
1439.2054560303
 31
0.0
  0
LINE
  5
2A1
330
1F
100
AcDbEntity
  8
1
  6
SLD-Сплошная
100
AcDbLine
 10
789.9205185785
 20
1438.8305036042
 30
0.0
 11
790.0444423163
 21
1439.0338824588
 31
0.0
  0
LINE
  5
2A2
330
1F
100
AcDbEntity
  8
1
  6
SLD-Сплошная
100
AcDbLine
 10
790.0444423163
 20
1439.0338824588
 30
0.0
 11
791.2650676187
 21
1439.3301982478
 31
0.0
  0
LINE
  5
2A3
330
1F
100
AcDbEntity
  8
1
  6
SLD-Сплошная
100
AcDbLine
 10
791.8976609392
 20
1442.0753133214
 30
0.0
 11
791.7737372014
 21
1441.8719344668
 31
0.0
  0
LINE
  5
2A4
330
1F
100
AcDbEntity
  8
1
  6
SLD-Сплошная
100
AcDbLine
 10
792.0700529905
 20
1440.6513091644
 30
0.0
 11
791.7737372014
 21
1441.8719344668
 31
0.0
  0
LINE
  5
2A5
330
1F
100
AcDbEntity
  8
1
  6
SLD-Сплошная
100
AcDbLine
 10
791.9131933927
 20
1437.6163178338
 30
0.0
 11
792.0371171305
 21
1437.8196966884
 31
0.0
  0
LINE
  5
2A6
330
1F
100
AcDbEntity
  8
1
  6
SLD-Сплошная
100
AcDbLine
 10
791.7408013414
 20
1439.0403219908
 30
0.0
 11
792.0371171305
 21
1437.8196966884
 31
0.0
  0
LINE
  5
2A7
330
1F
100
AcDbEntity
  8
1
  6
SLD-Сплошная
100
AcDbLine
 10
794.1349249097
 20
1439.8535818043
 30
0.0
 11
793.9315460552
 21
1439.9775055421
 31
0.0
  0
LINE
  5
2A8
330
1F
100
AcDbEntity
  8
1
  6
SLD-Сплошная
100
AcDbLine
 10
792.7109207528
 20
1439.6811897531
 30
0.0
 11
793.9315460552
 21
1439.9775055421
 31
0.0
  0
LINE
  5
2A9
330
1F
100
AcDbEntity
  8
1
  6
SLD-Сплошная
100
AcDbLine
 10
793.8903357534
 20
1440.861127551
 30
0.0
 11
793.7664120156
 21
1440.6577486964
 31
0.0
  0
LINE
  5
2AA
330
1F
100
AcDbEntity
  8
1
  6
SLD-Сплошная
100
AcDbLine
 10
793.7664120156
 20
1440.6577486964
 30
0.0
 11
792.5457867132
 21
1440.3614329074
 31
0.0
  0
LINE
  5
2AB
330
1F
100
AcDbEntity
  8
1
  6
SLD-Сплошная
100
AcDbLine
 10
789.8793082767
 20
1439.714125613
 30
0.0
 11
790.0444423163
 21
1439.0338824588
 31
0.0
  0
LINE
  5
2AC
330
1F
100
AcDbEntity
  8
1
  6
SLD-Сплошная
100
AcDbLine
 10
791.7737372014
 20
1441.8719344668
 30
0.0
 11
791.0934940471
 21
1441.7068004272
 31
0.0
  0
LINE
  5
2AD
330
1F
100
AcDbEntity
  8
1
  6
SLD-Сплошная
100
AcDbLine
 10
792.0371171305
 20
1437.8196966884
 30
0.0
 11
792.7173602848
 21
1437.984830728
 31
0.0
  0
LINE
  5
2AE
330
1F
100
AcDbEntity
  8
1
  6
SLD-Сплошная
100
AcDbLine
 10
793.9315460552
 20
1439.9775055421
 30
0.0
 11
793.7664120156
 21
1440.6577486964
 31
0.0
  0
CIRCLE
  5
2AF
330
1F
100
AcDbEntity
  8
1
  6
SLD-Сплошная
100
AcDbCircle
 10
791.9054271659
 20
1439.8458155776
 30
0.0
 40
5.000000000000082
  0
ARC
  5
2B0
330
1F
100
AcDbEntity
  8
1
  6
SLD-Сплошная
100
AcDbCircle
 10
1026.6506951466
 20
1439.5910835582
 30
0.0
 40
26.56195549524788
100
AcDbArc
 50
223.8816987744
 51
226.1183012256
  0
ARC
  5
2B1
330
1F
100
AcDbEntity
  8
1
  6
SLD-Сплошная
100
AcDbCircle
 10
993.1640129299
 20
1438.3588385514
 30
0.0
 40
23.41191191624437
100
AcDbArc
 50
310.0824770913
 51
312.9865596106
  0
SPLINE
  5
2B2
330
1F
100
AcDbEntity
  8
1
  6
SLD-Сплошная
100
AcDbSpline
210
0.0
220
0.0
230
1.0
 70
     8
 71
     3
 72
    12
 73
     8
 74
     0
 42
0.00000001
 43
0.00000001
 40
0.0
 40
0.0
 40
0.0
 40
0.0
 40
0.2187857887072029
 40
0.4375776469534793
 40
0.6562353658864007
 40
0.8748419359491081
 40
1.0
 40
1.0
 40
1.0
 40
1.0
 10
1009.683972862075
 20
1421.232705083768
 30
0.0
 10
1009.648647465206
 20
1421.25966850984
 30
0.0
 10
1009.577995691474
 20
1421.313596110001
 30
0.0
 10
1009.444032462833
 20
1421.346191998974
 30
0.0
 10
1009.308489836553
 20
1421.336842867732
 30
0.0
 10
1009.199592032259
 20
1421.29296410965
 30
0.0
 10
1009.146288321453
 20
1421.248788551364
 30
0.0
 10
1009.126881469819
 20
1421.232705083768
 30
0.0
  0
ARC
  5
2B3
330
1F
100
AcDbEntity
  8
1
  6
SLD-Сплошная
100
AcDbCircle
 10
1025.6468414019
 20
1438.3588385512
 30
0.0
 40
23.41191191604368
100
AcDbArc
 50
227.0134403894
 51
229.9175229087
  0
ARC
  5
2B4
330
1F
100
AcDbEntity
  8
1
  6
SLD-Сплошная
100
AcDbCircle
 10
992.1601591849
 20
1439.5910835587
 30
0.0
 40
26.56195549586889
100
AcDbArc
 50
313.8816987744
 51
316.1183012256
  0
ARC
  5
2B5
330
1F
100
AcDbEntity
  8
1
  6
SLD-Сплошная
100
AcDbCircle
 10
993.3924041916
 20
1406.104401341
 30
0.0
 40
23.41191191697803
100
AcDbArc
 50
40.0824770914
 51
42.9865596105
  0
SPLINE
  5
2B6
330
1F
100
AcDbEntity
  8
1
  6
SLD-Сплошная
100
AcDbSpline
210
0.0
220
0.0
230
1.0
 70
     8
 71
     3
 72
    12
 73
     8
 74
     0
 42
0.00000001
 43
0.00000001
 40
0.0
 40
0.0
 40
0.0
 40
0.0
 40
0.2187857887072033
 40
0.4375776469534777
 40
0.6562353658863811
 40
0.8748419359490965
 40
1.0
 40
1.0
 40
1.0
 40
1.0
 10
1010.518537659759
 20
1422.624361273708
 30
0.0
 10
1010.491574233687
 20
1422.589035876839
 30
0.0
 10
1010.437646633526
 20
1422.518384103107
 30
0.0
 10
1010.405050744553
 20
1422.384420874466
 30
0.0
 10
1010.414399875795
 20
1422.248878248186
 30
0.0
 10
1010.458278633876
 20
1422.139980443892
 30
0.0
 10
1010.502454192163
 20
1422.086676733086
 30
0.0
 10
1010.518537659759
 20
1422.067269881452
 30
0.0
  0
ARC
  5
2B7
330
1F
100
AcDbEntity
  8
1
  6
SLD-Сплошная
100
AcDbCircle
 10
993.392404192
 20
1438.5872298138
 30
0.0
 40
23.41191191646588
100
AcDbArc
 50
317.0134403894
 51
319.9175229087
  0
ARC
  5
2B8
330
1F
100
AcDbEntity
  8
1
  6
SLD-Сплошная
100
AcDbCircle
 10
992.1601591849
 20
1405.1005475965
 30
0.0
 40
26.56195549586905
100
AcDbArc
 50
43.8816987744
 51
46.1183012256
  0
ARC
  5
2B9
330
1F
100
AcDbEntity
  8
1
  6
SLD-Сплошная
100
AcDbCircle
 10
1025.6468414018
 20
1406.332792604
 30
0.0
 40
23.41191191596706
100
AcDbArc
 50
130.0824770913
 51
132.9865596106
  0
SPLINE
  5
2BA
330
1F
100
AcDbEntity
  8
1
  6
SLD-Сплошная
100
AcDbSpline
210
0.0
220
0.0
230
1.0
 70
     8
 71
     3
 72
    12
 73
     8
 74
     0
 42
0.00000001
 43
0.00000001
 40
0.0
 40
0.0
 40
0.0
 40
0.0
 40
0.2187857887071716
 40
0.4375776469534868
 40
0.6562353658863617
 40
0.874841935949109
 40
1.0
 40
1.0
 40
1.0
 40
1.0
 10
1009.126881469819
 20
1423.458926071392
 30
0.0
 10
1009.162206866688
 20
1423.43196264532
 30
0.0
 10
1009.23285864042
 20
1423.378035045159
 30
0.0
 10
1009.366821869061
 20
1423.345439156185
 30
0.0
 10
1009.502364495341
 20
1423.354788287428
 30
0.0
 10
1009.611262299635
 20
1423.398667045509
 30
0.0
 10
1009.664566010441
 20
1423.442842603796
 30
0.0
 10
1009.683972862075
 20
1423.458926071392
 30
0.0
  0
ARC
  5
2BB
330
1F
100
AcDbEntity
  8
1
  6
SLD-Сплошная
100
AcDbCircle
 10
993.1640129299
 20
1406.3327926038
 30
0.0
 40
23.41191191616827
100
AcDbArc
 50
47.0134403894
 51
49.9175229087
  0
ARC
  5
2BC
330
1F
100
AcDbEntity
  8
1
  6
SLD-Сплошная
100
AcDbCircle
 10
1026.6506951466
 20
1405.1005475969
 30
0.0
 40
26.56195549524772
100
AcDbArc
 50
133.8816987744
 51
136.1183012256
  0
ARC
  5
2BD
330
1F
100
AcDbEntity
  8
1
  6
SLD-Сплошная
100
AcDbCircle
 10
1025.4184501399
 20
1438.5872298138
 30
0.0
 40
23.41191191639546
100
AcDbArc
 50
220.0824770913
 51
222.9865596106
  0
SPLINE
  5
2BE
330
1F
100
AcDbEntity
  8
1
  6
SLD-Сплошная
100
AcDbSpline
210
0.0
220
0.0
230
1.0
 70
     8
 71
     3
 72
    12
 73
     8
 74
     0
 42
0.00000001
 43
0.00000001
 40
0.0
 40
0.0
 40
0.0
 40
0.0
 40
0.2187857887071835
 40
0.4375776469534734
 40
0.656235365886389
 40
0.8748419359491165
 40
1.0
 40
1.0
 40
1.0
 40
1.0
 10
1008.292316672135
 20
1422.067269881452
 30
0.0
 10
1008.319280098207
 20
1422.102595278321
 30
0.0
 10
1008.373207698368
 20
1422.173247052053
 30
0.0
 10
1008.405803587341
 20
1422.307210280694
 30
0.0
 10
1008.396454456099
 20
1422.442752906974
 30
0.0
 10
1008.352575698018
 20
1422.551650711268
 30
0.0
 10
1008.308400139731
 20
1422.604954422074
 30
0.0
 10
1008.292316672135
 20
1422.624361273708
 30
0.0
  0
ARC
  5
2BF
330
1F
100
AcDbEntity
  8
1
  6
SLD-Сплошная
100
AcDbCircle
 10
1025.4184501404
 20
1406.1044013409
 30
0.0
 40
23.41191191708553
100
AcDbArc
 50
137.0134403895
 51
139.9175229086
  0
CIRCLE
  5
2C0
330
1F
100
AcDbEntity
  8
1
  6
SLD-Сплошная
100
AcDbCircle
 10
1009.4054271659
 20
1422.3458155776
 30
0.0
 40
3.499999999999948
  0
ELLIPSE
  5
2C1
330
1F
100
AcDbEntity
  8
1
  6
SLD-Сплошная
100
AcDbEllipse
 10
1010.4748139472
 20
1422.3458155776
 30
0.0
 11
-0.4122489361055841
 21
0.0
 31
0.0
210
0.0
220
0.0
230
1.0
 40
0.9702875252
 41
5.512866274278639
 42
7.05350434008014
  0
ELLIPSE
  5
2C2
330
1F
100
AcDbEntity
  8
1
  6
SLD-Сплошная
100
AcDbEllipse
 10
1009.4054271659
 20
1421.2764287963
 30
0.0
 11
0.0
 21
0.4122489361054704
 31
0.0
210
0.0
220
0.0
230
1.0
 40
0.9702875252
 41
5.512866274278814
 42
7.053504340080169
  0
ELLIPSE
  5
2C3
330
1F
100
AcDbEntity
  8
1
  6
SLD-Сплошная
100
AcDbEllipse
 10
1009.4054271659
 20
1423.4152023589
 30
0.0
 11
0.0
 21
-0.4122489361056978
 31
0.0
210
0.0
220
0.0
230
1.0
 40
0.9702875252
 41
5.512866274278501
 42
7.05350434008089
  0
ELLIPSE
  5
2C4
330
1F
100
AcDbEntity
  8
1
  6
SLD-Сплошная
100
AcDbEllipse
 10
1008.3360403847
 20
1422.3458155776
 30
0.0
 11
0.4122489361058115
 21
0.0
 31
0.0
210
0.0
220
0.0
230
1.0
 40
0.9702875252
 41
5.512866274279155
 42
7.05350434008044
  0
LINE
  5
2C5
330
1F
100
AcDbEntity
  8
1
  6
SLD-Сплошная
100
AcDbLine
 10
1010.5721533549
 20
1424.2456762314
 30
0.0
 11
1010.5721533549
 21
1424.0075165134
 31
0.0
  0
LINE
  5
2C6
330
1F
100
AcDbEntity
  8
1
  6
SLD-Сплошная
100
AcDbLine
 10
1010.5721533549
 20
1424.0075165134
 30
0.0
 11
1009.6839728621
 21
1423.1193360205
 31
0.0
  0
LINE
  5
2C7
330
1F
100
AcDbEntity
  8
1
  6
SLD-Сплошная
100
AcDbLine
 10
1010.5721533549
 20
1420.4459549238
 30
0.0
 11
1010.5721533549
 21
1420.6841146418
 31
0.0
  0
LINE
  5
2C8
330
1F
100
AcDbEntity
  8
1
  6
SLD-Сплошная
100
AcDbLine
 10
1009.6839728621
 20
1421.5722951346
 30
0.0
 11
1010.5721533549
 21
1420.6841146418
 31
0.0
  0
LINE
  5
2C9
330
1F
100
AcDbEntity
  8
1
  6
SLD-Сплошная
100
AcDbLine
 10
1008.238700977
 20
1424.2456762314
 30
0.0
 11
1008.238700977
 21
1424.0075165134
 31
0.0
  0
LINE
  5
2CA
330
1F
100
AcDbEntity
  8
1
  6
SLD-Сплошная
100
AcDbLine
 10
1009.1268814698
 20
1423.1193360205
 30
0.0
 11
1008.238700977
 21
1424.0075165134
 31
0.0
  0
LINE
  5
2CB
330
1F
100
AcDbEntity
  8
1
  6
SLD-Сплошная
100
AcDbLine
 10
1007.5055665121
 20
1421.1790893886
 30
0.0
 11
1007.7437262302
 21
1421.1790893886
 31
0.0
  0
LINE
  5
2CC
330
1F
100
AcDbEntity
  8
1
  6
SLD-Сплошная
100
AcDbLine
 10
1008.631906723
 20
1422.0672698815
 30
0.0
 11
1007.7437262302
 21
1421.1790893886
 31
0.0
  0
LINE
  5
2CD
330
1F
100
AcDbEntity
  8
1
  6
SLD-Сплошная
100
AcDbLine
 10
1011.3052878198
 20
1421.1790893886
 30
0.0
 11
1011.0671281017
 21
1421.1790893886
 31
0.0
  0
LINE
  5
2CE
330
1F
100
AcDbEntity
  8
1
  6
SLD-Сплошная
100
AcDbLine
 10
1011.0671281017
 20
1421.1790893886
 30
0.0
 11
1010.1789476089
 21
1422.0672698815
 31
0.0
  0
LINE
  5
2CF
330
1F
100
AcDbEntity
  8
1
  6
SLD-Сплошная
100
AcDbLine
 10
1007.5055665121
 20
1423.5125417665
 30
0.0
 11
1007.7437262302
 21
1423.5125417665
 31
0.0
  0
LINE
  5
2D0
330
1F
100
AcDbEntity
  8
1
  6
SLD-Сплошная
100
AcDbLine
 10
1007.7437262302
 20
1423.5125417665
 30
0.0
 11
1008.631906723
 21
1422.6243612737
 31
0.0
  0
LINE
  5
2D1
330
1F
100
AcDbEntity
  8
1
  6
SLD-Сплошная
100
AcDbLine
 10
1008.238700977
 20
1420.4459549238
 30
0.0
 11
1008.238700977
 21
1420.6841146418
 31
0.0
  0
LINE
  5
2D2
330
1F
100
AcDbEntity
  8
1
  6
SLD-Сплошная
100
AcDbLine
 10
1008.238700977
 20
1420.6841146418
 30
0.0
 11
1009.1268814698
 21
1421.5722951346
 31
0.0
  0
LINE
  5
2D3
330
1F
100
AcDbEntity
  8
1
  6
SLD-Сплошная
100
AcDbLine
 10
1011.3052878198
 20
1423.5125417665
 30
0.0
 11
1011.0671281017
 21
1423.5125417665
 31
0.0
  0
LINE
  5
2D4
330
1F
100
AcDbEntity
  8
1
  6
SLD-Сплошная
100
AcDbLine
 10
1010.1789476089
 20
1422.6243612737
 30
0.0
 11
1011.0671281017
 21
1423.5125417665
 31
0.0
  0
LINE
  5
2D5
330
1F
100
AcDbEntity
  8
1
  6
SLD-Сплошная
100
AcDbLine
 10
1010.5721533549
 20
1420.6841146418
 30
0.0
 11
1011.0671281017
 21
1421.1790893886
 31
0.0
  0
LINE
  5
2D6
330
1F
100
AcDbEntity
  8
1
  6
SLD-Сплошная
100
AcDbLine
 10
1011.0671281017
 20
1423.5125417665
 30
0.0
 11
1010.5721533549
 21
1424.0075165134
 31
0.0
  0
LINE
  5
2D7
330
1F
100
AcDbEntity
  8
1
  6
SLD-Сплошная
100
AcDbLine
 10
1007.7437262302
 20
1421.1790893886
 30
0.0
 11
1008.238700977
 21
1420.6841146418
 31
0.0
  0
LINE
  5
2D8
330
1F
100
AcDbEntity
  8
1
  6
SLD-Сплошная
100
AcDbLine
 10
1008.238700977
 20
1424.0075165134
 30
0.0
 11
1007.7437262302
 21
1423.5125417665
 31
0.0
  0
CIRCLE
  5
2D9
330
1F
100
AcDbEntity
  8
1
  6
SLD-Сплошная
100
AcDbCircle
 10
1009.4054271659
 20
1422.3458155776
 30
0.0
 40
4.99999999999996
  0
ARC
  5
2DA
330
1F
100
AcDbEntity
  8
1
  6
SLD-Сплошная
100
AcDbCircle
 10
768.2052776871
 20
1335.5992015507
 30
0.0
 40
26.5619554958167
100
AcDbArc
 50
345.2366779053
 51
347.4732803565
  0
ARC
  5
2DB
330
1F
100
AcDbEntity
  8
1
  6
SLD-Сплошная
100
AcDbCircle
 10
786.6819850091
 20
1307.6441018336
 30
0.0
 40
23.41191191598746
100
AcDbArc
 50
71.4374562222
 51
74.3415387415
  0
SPLINE
  5
2DC
330
1F
100
AcDbEntity
  8
1
  6
SLD-Сплошная
100
AcDbSpline
210
0.0
220
0.0
230
1.0
 70
     8
 71
     3
 72
    12
 73
     8
 74
     0
 42
0.00000001
 43
0.00000001
 40
0.0
 40
0.0
 40
0.0
 40
0.0
 40
0.2187857887071948
 40
0.4375776469535043
 40
0.6562353658863973
 40
0.8748419359490957
 40
1.0
 40
1.0
 40
1.0
 40
1.0
 10
792.7110407895834
 20
1330.662876998575
 30
0.0
 10
792.7063962783312
 20
1330.61868040906
 30
0.0
 10
792.6971071269792
 20
1330.530286003933
 30
0.0
 10
792.7389778074756
 20
1330.398925870252
 30
0.0
 10
792.8174896760718
 20
1330.288042615053
 30
0.0
 10
792.9116241279189
 20
1330.217880074006
 30
0.0
 10
792.9770842723017
 20
1330.195347097438
 30
0.0
 10
793.0009170466197
 20
1330.187143275855
 30
0.0
  0
ARC
  5
2DD
330
1F
100
AcDbEntity
  8
1
  6
SLD-Сплошная
100
AcDbCircle
 10
769.7799095751
 20
1335.3831355509
 30
0.0
 40
23.41191191633887
100
AcDbArc
 50
348.3684195203
 51
351.2725020395
  0
ARC
  5
2DE
330
1F
100
AcDbEntity
  8
1
  6
SLD-Сплошная
100
AcDbCircle
 10
786.1520411929
 20
1306.145666099
 30
0.0
 40
26.56195549550615
100
AcDbArc
 50
75.2366779053
 51
77.4732803565
  0
ARC
  5
2DF
330
1F
100
AcDbEntity
  8
1
  6
SLD-Сплошная
100
AcDbCircle
 10
814.1071409101
 20
1324.6223734207
 30
0.0
 40
23.41191191620712
100
AcDbArc
 50
161.4374562222
 51
164.3415387414
  0
SPLINE
  5
2E0
330
1F
100
AcDbEntity
  8
1
  6
SLD-Сплошная
100
AcDbSpline
210
0.0
220
0.0
230
1.0
 70
     8
 71
     3
 72
    12
 73
     8
 74
     0
 42
0.00000001
 43
0.00000001
 40
0.0
 40
0.0
 40
0.0
 40
0.0
 40
0.2187857887071905
 40
0.4375776469534756
 40
0.6562353658863669
 40
0.8748419359490753
 40
1.0
 40
1.0
 40
1.0
 40
1.0
 10
791.0883657449523
 20
1330.651429201216
 30
0.0
 10
791.1325623344669
 20
1330.646784689964
 30
0.0
 10
791.2209567395945
 20
1330.637495538612
 30
0.0
 10
791.3523168732753
 20
1330.679366219108
 30
0.0
 10
791.4632001284737
 20
1330.757878087705
 30
0.0
 10
791.5333626695215
 20
1330.852012539552
 30
0.0
 10
791.5558956460893
 20
1330.917472683934
 30
0.0
 10
791.5640994676716
 20
1330.941305458253
 30
0.0
  0
ARC
  5
2E1
330
1F
100
AcDbEntity
  8
1
  6
SLD-Сплошная
100
AcDbCircle
 10
786.3681071927
 20
1307.7202979869
 30
0.0
 40
23.41191191614495
100
AcDbArc
 50
78.3684195203
 51
81.2725020396
  0
ARC
  5
2E2
330
1F
100
AcDbEntity
  8
1
  6
SLD-Сплошная
100
AcDbCircle
 10
815.6055766447
 20
1324.0924296044
 30
0.0
 40
26.56195549572145
100
AcDbArc
 50
165.2366779053
 51
167.4732803565
  0
ARC
  5
2E3
330
1F
100
AcDbEntity
  8
1
  6
SLD-Сплошная
100
AcDbCircle
 10
797.1288693229
 20
1352.0475293217
 30
0.0
 40
23.41191191612561
100
AcDbArc
 50
251.4374562222
 51
254.3415387415
  0
SPLINE
  5
2E4
330
1F
100
AcDbEntity
  8
1
  6
SLD-Сплошная
100
AcDbSpline
210
0.0
220
0.0
230
1.0
 70
     8
 71
     3
 72
    12
 73
     8
 74
     0
 42
0.00000001
 43
0.00000001
 40
0.0
 40
0.0
 40
0.0
 40
0.0
 40
0.2187857887071535
 40
0.4375776469534769
 40
0.6562353658863811
 40
0.87484193594909
 40
1.0
 40
1.0
 40
1.0
 40
1.0
 10
791.0998135423108
 20
1329.028754156585
 30
0.0
 10
791.104458053563
 20
1329.0729507461
 30
0.0
 10
791.1137472049152
 20
1329.161345151227
 30
0.0
 10
791.0718765244187
 20
1329.292705284908
 30
0.0
 10
790.9933646558223
 20
1329.403588540107
 30
0.0
 10
790.8992302039752
 20
1329.473751081154
 30
0.0
 10
790.8337700595927
 20
1329.496284057722
 30
0.0
 10
790.8099372852744
 20
1329.504487879304
 30
0.0
  0
ARC
  5
2E5
330
1F
100
AcDbEntity
  8
1
  6
SLD-Сплошная
100
AcDbCircle
 10
814.0309447567
 20
1324.3084956043
 30
0.0
 40
23.41191191624272
100
AcDbArc
 50
168.3684195203
 51
171.2725020395
  0
ARC
  5
2E6
330
1F
100
AcDbEntity
  8
1
  6
SLD-Сплошная
100
AcDbCircle
 10
797.658813139
 20
1353.5459650561
 30
0.0
 40
26.56195549544461
100
AcDbArc
 50
255.2366779053
 51
257.4732803565
  0
ARC
  5
2E7
330
1F
100
AcDbEntity
  8
1
  6
SLD-Сплошная
100
AcDbCircle
 10
769.7037134219
 20
1335.0692577345
 30
0.0
 40
23.41191191605764
100
AcDbArc
 50
341.4374562222
 51
344.3415387415
  0
SPLINE
  5
2E8
330
1F
100
AcDbEntity
  8
1
  6
SLD-Сплошная
100
AcDbSpline
210
0.0
220
0.0
230
1.0
 70
     8
 71
     3
 72
    12
 73
     8
 74
     0
 42
0.00000001
 43
0.00000001
 40
0.0
 40
0.0
 40
0.0
 40
0.0
 40
0.2187857887071932
 40
0.437577646953468
 40
0.6562353658863782
 40
0.8748419359490794
 40
1.0
 40
1.0
 40
1.0
 40
1.0
 10
792.722488586942
 20
1329.040201953944
 30
0.0
 10
792.6782919974273
 20
1329.044846465196
 30
0.0
 10
792.5898975922997
 20
1329.054135616548
 30
0.0
 10
792.4585374586188
 20
1329.012264936051
 30
0.0
 10
792.3476542034206
 20
1328.933753067455
 30
0.0
 10
792.2774916623728
 20
1328.839618615608
 30
0.0
 10
792.2549586858049
 20
1328.774158471225
 30
0.0
 10
792.2467548642227
 20
1328.750325696907
 30
0.0
  0
ARC
  5
2E9
330
1F
100
AcDbEntity
  8
1
  6
SLD-Сплошная
100
AcDbCircle
 10
797.4427471392
 20
1351.9713331683
 30
0.0
 40
23.41191191620231
100
AcDbArc
 50
258.3684195203
 51
261.2725020396
  0
CIRCLE
  5
2EA
330
1F
100
AcDbEntity
  8
1
  6
SLD-Сплошная
100
AcDbCircle
 10
791.9054271659
 20
1329.8458155776
 30
0.0
 40
3.500000000000045
  0
ELLIPSE
  5
2EB
330
1F
100
AcDbEntity
  8
1
  6
SLD-Сплошная
100
AcDbEllipse
 10
791.3489837497
 20
1330.7590290315
 30
0.0
 11
0.2145091096841724
 21
-0.352044069943986
 31
0.0
210
0.0
220
0.0
230
1.0
 40
0.9702875252
 41
5.512866274278771
 42
7.053504340080547
  0
ELLIPSE
  5
2EC
330
1F
100
AcDbEntity
  8
1
  6
SLD-Сплошная
100
AcDbEllipse
 10
792.8186406199
 20
1330.4022589938
 30
0.0
 11
-0.3520440699439859
 21
-0.2145091096840588
 31
0.0
210
0.0
220
0.0
230
1.0
 40
0.9702875252
 41
5.512866274278973
 42
7.053504340080543
  0
ELLIPSE
  5
2ED
330
1F
100
AcDbEntity
  8
1
  6
SLD-Сплошная
100
AcDbEllipse
 10
792.4618705822
 20
1328.9326021236
 30
0.0
 11
-0.2145091096841724
 21
0.352044069943986
 31
0.0
210
0.0
220
0.0
230
1.0
 40
0.9702875252
 41
5.512866274278771
 42
7.053504340080621
  0
ELLIPSE
  5
2EE
330
1F
100
AcDbEntity
  8
1
  6
SLD-Сплошная
100
AcDbEllipse
 10
790.992213712
 20
1329.2893721613
 30
0.0
 11
0.3520440699439859
 21
0.2145091096840588
 31
0.0
210
0.0
220
0.0
230
1.0
 40
0.9702875252
 41
5.512866274279104
 42
7.053504340080469
  0
LINE
  5
2EF
330
1F
100
AcDbEntity
  8
1
  6
SLD-Сплошная
100
AcDbLine
 10
793.8903357534
 20
1328.8305036042
 30
0.0
 11
793.7664120156
 21
1329.0338824588
 31
0.0
  0
LINE
  5
2F0
330
1F
100
AcDbEntity
  8
1
  6
SLD-Сплошная
100
AcDbLine
 10
792.5457867132
 20
1329.3301982478
 30
0.0
 11
793.7664120156
 21
1329.0338824588
 31
0.0
  0
LINE
  5
2F1
330
1F
100
AcDbEntity
  8
1
  6
SLD-Сплошная
100
AcDbLine
 10
792.9207391394
 20
1331.830724165
 30
0.0
 11
792.7173602848
 21
1331.7068004272
 31
0.0
  0
LINE
  5
2F2
330
1F
100
AcDbEntity
  8
1
  6
SLD-Сплошная
100
AcDbLine
 10
792.4210444957
 20
1330.4861751248
 30
0.0
 11
792.7173602848
 21
1331.7068004272
 31
0.0
  0
LINE
  5
2F3
330
1F
100
AcDbEntity
  8
1
  6
SLD-Сплошная
100
AcDbLine
 10
794.1349249097
 20
1329.8380493509
 30
0.0
 11
793.9315460552
 21
1329.714125613
 31
0.0
  0
LINE
  5
2F4
330
1F
100
AcDbEntity
  8
1
  6
SLD-Сплошная
100
AcDbLine
 10
793.9315460552
 20
1329.714125613
 30
0.0
 11
792.7109207528
 21
1330.0104414021
 31
0.0
  0
LINE
  5
2F5
330
1F
100
AcDbEntity
  8
1
  6
SLD-Сплошная
100
AcDbLine
 10
791.9131933927
 20
1332.0753133214
 30
0.0
 11
792.0371171305
 21
1331.8719344668
 31
0.0
  0
LINE
  5
2F6
330
1F
100
AcDbEntity
  8
1
  6
SLD-Сплошная
100
AcDbLine
 10
792.0371171305
 20
1331.8719344668
 30
0.0
 11
791.7408013414
 21
1330.6513091644
 31
0.0
  0
LINE
  5
2F7
330
1F
100
AcDbEntity
  8
1
  6
SLD-Сплошная
100
AcDbLine
 10
789.9205185785
 20
1330.861127551
 30
0.0
 11
790.0444423163
 21
1330.6577486964
 31
0.0
  0
LINE
  5
2F8
330
1F
100
AcDbEntity
  8
1
  6
SLD-Сплошная
100
AcDbLine
 10
791.2650676187
 20
1330.3614329074
 30
0.0
 11
790.0444423163
 21
1330.6577486964
 31
0.0
  0
LINE
  5
2F9
330
1F
100
AcDbEntity
  8
1
  6
SLD-Сплошная
100
AcDbLine
 10
791.8976609392
 20
1327.6163178338
 30
0.0
 11
791.7737372014
 21
1327.8196966884
 31
0.0
  0
LINE
  5
2FA
330
1F
100
AcDbEntity
  8
1
  6
SLD-Сплошная
100
AcDbLine
 10
791.7737372014
 20
1327.8196966884
 30
0.0
 11
792.0700529905
 21
1329.0403219908
 31
0.0
  0
LINE
  5
2FB
330
1F
100
AcDbEntity
  8
1
  6
SLD-Сплошная
100
AcDbLine
 10
789.6759294221
 20
1329.8535818043
 30
0.0
 11
789.8793082767
 21
1329.9775055421
 31
0.0
  0
LINE
  5
2FC
330
1F
100
AcDbEntity
  8
1
  6
SLD-Сплошная
100
AcDbLine
 10
789.8793082767
 20
1329.9775055421
 30
0.0
 11
791.0999335791
 21
1329.6811897531
 31
0.0
  0
LINE
  5
2FD
330
1F
100
AcDbEntity
  8
1
  6
SLD-Сплошная
100
AcDbLine
 10
790.8901151925
 20
1327.8609069901
 30
0.0
 11
791.0934940471
 21
1327.984830728
 31
0.0
  0
LINE
  5
2FE
330
1F
100
AcDbEntity
  8
1
  6
SLD-Сплошная
100
AcDbLine
 10
791.3898098362
 20
1329.2054560303
 30
0.0
 11
791.0934940471
 21
1327.984830728
 31
0.0
  0
LINE
  5
2FF
330
1F
100
AcDbEntity
  8
1
  6
SLD-Сплошная
100
AcDbLine
 10
790.0444423163
 20
1330.6577486964
 30
0.0
 11
789.8793082767
 21
1329.9775055421
 31
0.0
  0
LINE
  5
300
330
1F
100
AcDbEntity
  8
1
  6
SLD-Сплошная
100
AcDbLine
 10
793.7664120156
 20
1329.0338824588
 30
0.0
 11
793.9315460552
 21
1329.714125613
 31
0.0
  0
LINE
  5
301
330
1F
100
AcDbEntity
  8
1
  6
SLD-Сплошная
100
AcDbLine
 10
791.0934940471
 20
1327.984830728
 30
0.0
 11
791.7737372014
 21
1327.8196966884
 31
0.0
  0
LINE
  5
302
330
1F
100
AcDbEntity
  8
1
  6
SLD-Сплошная
100
AcDbLine
 10
792.7173602848
 20
1331.7068004272
 30
0.0
 11
792.0371171305
 21
1331.8719344668
 31
0.0
  0
CIRCLE
  5
303
330
1F
100
AcDbEntity
  8
1
  6
SLD-Сплошная
100
AcDbCircle
 10
791.9054271659
 20
1329.8458155776
 30
0.0
 40
4.999999999999972
  0
ARC
  5
304
330
1F
100
AcDbEntity
  8
1
  6
SLD-Сплошная
100
AcDbCircle
 10
674.6601591852
 20
1347.0910835584
 30
0.0
 40
26.56195549542591
100
AcDbArc
 50
313.8816987744
 51
316.1183012256
  0
ARC
  5
305
330
1F
100
AcDbEntity
  8
1
  6
SLD-Сплошная
100
AcDbCircle
 10
675.8924041922
 20
1313.6044013415
 30
0.0
 40
23.41191191623007
100
AcDbArc
 50
40.0824770913
 51
42.9865596106
  0
SPLINE
  5
306
330
1F
100
AcDbEntity
  8
1
  6
SLD-Сплошная
100
AcDbSpline
210
0.0
220
0.0
230
1.0
 70
     8
 71
     3
 72
    12
 73
     8
 74
     0
 42
0.00000001
 43
0.00000001
 40
0.0
 40
0.0
 40
0.0
 40
0.0
 40
0.2187857887072151
 40
0.437577646953484
 40
0.656235365886359
 40
0.8748419359491022
 40
1.0
 40
1.0
 40
1.0
 40
1.0
 10
693.0185376597594
 20
1330.124361273708
 30
0.0
 10
692.9915742336873
 20
1330.089035876839
 30
0.0
 10
692.9376466335259
 20
1330.018384103107
 30
0.0
 10
692.9050507445527
 20
1329.884420874465
 30
0.0
 10
692.9143998757949
 20
1329.748878248186
 30
0.0
 10
692.9582786338766
 20
1329.639980443892
 30
0.0
 10
693.0024541921631
 20
1329.586676733086
 30
0.0
 10
693.0185376597594
 20
1329.567269881452
 30
0.0
  0
ARC
  5
307
330
1F
100
AcDbEntity
  8
1
  6
SLD-Сплошная
100
AcDbCircle
 10
675.8924041923
 20
1346.0872298135
 30
0.0
 40
23.41191191602912
100
AcDbArc
 50
317.0134403894
 51
319.9175229087
  0
ARC
  5
308
330
1F
100
AcDbEntity
  8
1
  6
SLD-Сплошная
100
AcDbCircle
 10
674.6601591851
 20
1312.6005475967
 30
0.0
 40
26.56195549555137
100
AcDbArc
 50
43.8816987744
 51
46.1183012256
  0
ARC
  5
309
330
1F
100
AcDbEntity
  8
1
  6
SLD-Сплошная
100
AcDbCircle
 10
708.1468414021
 20
1313.8327926037
 30
0.0
 40
23.41191191637537
100
AcDbArc
 50
130.0824770913
 51
132.9865596106
  0
SPLINE
  5
30A
330
1F
100
AcDbEntity
  8
1
  6
SLD-Сплошная
100
AcDbSpline
210
0.0
220
0.0
230
1.0
 70
     8
 71
     3
 72
    12
 73
     8
 74
     0
 42
0.00000001
 43
0.00000001
 40
0.0
 40
0.0
 40
0.0
 40
0.0
 40
0.2187857887071817
 40
0.4375776469534588
 40
0.6562353658863838
 40
0.8748419359490818
 40
1.0
 40
1.0
 40
1.0
 40
1.0
 10
691.6268814698191
 20
1330.958926071392
 30
0.0
 10
691.662206866688
 20
1330.93196264532
 30
0.0
 10
691.7328586404204
 20
1330.878035045159
 30
0.0
 10
691.8668218690615
 20
1330.845439156185
 30
0.0
 10
692.0023644953413
 20
1330.854788287427
 30
0.0
 10
692.1112622996354
 20
1330.898667045509
 30
0.0
 10
692.1645660104413
 20
1330.942842603796
 30
0.0
 10
692.1839728620752
 20
1330.958926071392
 30
0.0
  0
ARC
  5
30B
330
1F
100
AcDbEntity
  8
1
  6
SLD-Сплошная
100
AcDbCircle
 10
675.6640129299
 20
1313.8327926039
 30
0.0
 40
23.41191191614381
100
AcDbArc
 50
47.0134403894
 51
49.9175229087
  0
ARC
  5
30C
330
1F
100
AcDbEntity
  8
1
  6
SLD-Сплошная
100
AcDbCircle
 10
709.150695147
 20
1312.6005475965
 30
0.0
 40
26.56195549588982
100
AcDbArc
 50
133.8816987744
 51
136.1183012256
  0
ARC
  5
30D
330
1F
100
AcDbEntity
  8
1
  6
SLD-Сплошная
100
AcDbCircle
 10
707.9184501397
 20
1346.0872298136
 30
0.0
 40
23.41191191613005
100
AcDbArc
 50
220.0824770913
 51
222.9865596106
  0
SPLINE
  5
30E
330
1F
100
AcDbEntity
  8
1
  6
SLD-Сплошная
100
AcDbSpline
210
0.0
220
0.0
230
1.0
 70
     8
 71
     3
 72
    12
 73
     8
 74
     0
 42
0.00000001
 43
0.00000001
 40
0.0
 40
0.0
 40
0.0
 40
0.0
 40
0.2187857887072047
 40
0.4375776469534796
 40
0.6562353658863966
 40
0.874841935949104
 40
1.0
 40
1.0
 40
1.0
 40
1.0
 10
690.7923166721348
 20
1329.567269881452
 30
0.0
 10
690.819280098207
 20
1329.602595278321
 30
0.0
 10
690.8732076983683
 20
1329.673247052053
 30
0.0
 10
690.9058035873414
 20
1329.807210280694
 30
0.0
 10
690.8964544560994
 20
1329.942752906974
 30
0.0
 10
690.8525756980175
 20
1330.051650711268
 30
0.0
 10
690.808400139731
 20
1330.104954422074
 30
0.0
 10
690.7923166721348
 20
1330.124361273708
 30
0.0
  0
ARC
  5
30F
330
1F
100
AcDbEntity
  8
1
  6
SLD-Сплошная
100
AcDbCircle
 10
707.9184501398
 20
1313.6044013414
 30
0.0
 40
23.41191191633115
100
AcDbArc
 50
137.0134403894
 51
139.9175229087
  0
ARC
  5
310
330
1F
100
AcDbEntity
  8
1
  6
SLD-Сплошная
100
AcDbCircle
 10
709.150695147
 20
1347.0910835586
 30
0.0
 40
26.56195549576388
100
AcDbArc
 50
223.8816987744
 51
226.1183012256
  0
ARC
  5
311
330
1F
100
AcDbEntity
  8
1
  6
SLD-Сплошная
100
AcDbCircle
 10
675.6640129296
 20
1345.8588385516
 30
0.0
 40
23.41191191658794
100
AcDbArc
 50
310.0824770913
 51
312.9865596106
  0
SPLINE
  5
312
330
1F
100
AcDbEntity
  8
1
  6
SLD-Сплошная
100
AcDbSpline
210
0.0
220
0.0
230
1.0
 70
     8
 71
     3
 72
    12
 73
     8
 74
     0
 42
0.00000001
 43
0.00000001
 40
0.0
 40
0.0
 40
0.0
 40
0.0
 40
0.2187857887072036
 40
0.4375776469534673
 40
0.6562353658863823
 40
0.8748419359490875
 40
1.0
 40
1.0
 40
1.0
 40
1.0
 10
692.1839728620752
 20
1328.732705083768
 30
0.0
 10
692.1486474652062
 20
1328.75966850984
 30
0.0
 10
692.0779956914738
 20
1328.813596110001
 30
0.0
 10
691.9440324628326
 20
1328.846191998974
 30
0.0
 10
691.8084898365528
 20
1328.836842867732
 30
0.0
 10
691.6995920322588
 20
1328.79296410965
 30
0.0
 10
691.646288321453
 20
1328.748788551364
 30
0.0
 10
691.6268814698191
 20
1328.732705083768
 30
0.0
  0
ARC
  5
313
330
1F
100
AcDbEntity
  8
1
  6
SLD-Сплошная
100
AcDbCircle
 10
708.1468414022
 20
1345.8588385515
 30
0.0
 40
23.41191191647974
100
AcDbArc
 50
227.0134403894
 51
229.9175229087
  0
CIRCLE
  5
314
330
1F
100
AcDbEntity
  8
1
  6
SLD-Сплошная
100
AcDbCircle
 10
691.9054271659
 20
1329.8458155776
 30
0.0
 40
3.500000000000189
  0
ELLIPSE
  5
315
330
1F
100
AcDbEntity
  8
1
  6
SLD-Сплошная
100
AcDbEllipse
 10
690.8360403847
 20
1329.8458155776
 30
0.0
 11
0.4122489361055841
 21
0.0
 31
0.0
210
0.0
220
0.0
230
1.0
 40
0.9702875252
 41
5.512866274278423
 42
7.053504340080355
  0
ELLIPSE
  5
316
330
1F
100
AcDbEntity
  8
1
  6
SLD-Сплошная
100
AcDbEllipse
 10
691.9054271659
 20
1330.9152023589
 30
0.0
 11
0.0
 21
-0.4122489361054704
 31
0.0
210
0.0
220
0.0
230
1.0
 40
0.9702875252
 41
5.512866274278696
 42
7.053504340080899
  0
ELLIPSE
  5
317
330
1F
100
AcDbEntity
  8
1
  6
SLD-Сплошная
100
AcDbEllipse
 10
692.9748139472
 20
1329.8458155776
 30
0.0
 11
-0.4122489361056978
 21
0.0
 31
0.0
210
0.0
220
0.0
230
1.0
 40
0.9702875252
 41
5.512866274278409
 42
7.053504340081186
  0
ELLIPSE
  5
318
330
1F
100
AcDbEntity
  8
1
  6
SLD-Сплошная
100
AcDbEllipse
 10
691.9054271659
 20
1328.7764287963
 30
0.0
 11
0.0
 21
0.4122489361056978
 31
0.0
210
0.0
220
0.0
230
1.0
 40
0.9702875252
 41
5.51286627427868
 42
7.053504340080098
  0
LINE
  5
319
330
1F
100
AcDbEntity
  8
1
  6
SLD-Сплошная
100
AcDbLine
 10
693.8052878198
 20
1328.6790893886
 30
0.0
 11
693.5671281017
 21
1328.6790893886
 31
0.0
  0
LINE
  5
31A
330
1F
100
AcDbEntity
  8
1
  6
SLD-Сплошная
100
AcDbLine
 10
693.5671281017
 20
1328.6790893886
 30
0.0
 11
692.6789476089
 21
1329.5672698815
 31
0.0
  0
LINE
  5
31B
330
1F
100
AcDbEntity
  8
1
  6
SLD-Сплошная
100
AcDbLine
 10
690.0055665121
 20
1328.6790893886
 30
0.0
 11
690.2437262302
 21
1328.6790893886
 31
0.0
  0
LINE
  5
31C
330
1F
100
AcDbEntity
  8
1
  6
SLD-Сплошная
100
AcDbLine
 10
691.131906723
 20
1329.5672698815
 30
0.0
 11
690.2437262302
 21
1328.6790893886
 31
0.0
  0
LINE
  5
31D
330
1F
100
AcDbEntity
  8
1
  6
SLD-Сплошная
100
AcDbLine
 10
693.0721533549
 20
1327.9459549238
 30
0.0
 11
693.0721533549
 21
1328.1841146418
 31
0.0
  0
LINE
  5
31E
330
1F
100
AcDbEntity
  8
1
  6
SLD-Сплошная
100
AcDbLine
 10
692.1839728621
 20
1329.0722951346
 30
0.0
 11
693.0721533549
 21
1328.1841146418
 31
0.0
  0
LINE
  5
31F
330
1F
100
AcDbEntity
  8
1
  6
SLD-Сплошная
100
AcDbLine
 10
693.0721533549
 20
1331.7456762314
 30
0.0
 11
693.0721533549
 21
1331.5075165134
 31
0.0
  0
LINE
  5
320
330
1F
100
AcDbEntity
  8
1
  6
SLD-Сплошная
100
AcDbLine
 10
693.0721533549
 20
1331.5075165134
 30
0.0
 11
692.1839728621
 21
1330.6193360205
 31
0.0
  0
LINE
  5
321
330
1F
100
AcDbEntity
  8
1
  6
SLD-Сплошная
100
AcDbLine
 10
690.738700977
 20
1331.7456762314
 30
0.0
 11
690.738700977
 21
1331.5075165134
 31
0.0
  0
LINE
  5
322
330
1F
100
AcDbEntity
  8
1
  6
SLD-Сплошная
100
AcDbLine
 10
691.6268814698
 20
1330.6193360205
 30
0.0
 11
690.738700977
 21
1331.5075165134
 31
0.0
  0
LINE
  5
323
330
1F
100
AcDbEntity
  8
1
  6
SLD-Сплошная
100
AcDbLine
 10
690.738700977
 20
1327.9459549238
 30
0.0
 11
690.738700977
 21
1328.1841146418
 31
0.0
  0
LINE
  5
324
330
1F
100
AcDbEntity
  8
1
  6
SLD-Сплошная
100
AcDbLine
 10
690.738700977
 20
1328.1841146418
 30
0.0
 11
691.6268814698
 21
1329.0722951346
 31
0.0
  0
LINE
  5
325
330
1F
100
AcDbEntity
  8
1
  6
SLD-Сплошная
100
AcDbLine
 10
690.0055665121
 20
1331.0125417665
 30
0.0
 11
690.2437262302
 21
1331.0125417665
 31
0.0
  0
LINE
  5
326
330
1F
100
AcDbEntity
  8
1
  6
SLD-Сплошная
100
AcDbLine
 10
690.2437262302
 20
1331.0125417665
 30
0.0
 11
691.131906723
 21
1330.1243612737
 31
0.0
  0
LINE
  5
327
330
1F
100
AcDbEntity
  8
1
  6
SLD-Сплошная
100
AcDbLine
 10
693.8052878198
 20
1331.0125417665
 30
0.0
 11
693.5671281017
 21
1331.0125417665
 31
0.0
  0
LINE
  5
328
330
1F
100
AcDbEntity
  8
1
  6
SLD-Сплошная
100
AcDbLine
 10
692.6789476089
 20
1330.1243612737
 30
0.0
 11
693.5671281017
 21
1331.0125417665
 31
0.0
  0
LINE
  5
329
330
1F
100
AcDbEntity
  8
1
  6
SLD-Сплошная
100
AcDbLine
 10
693.5671281017
 20
1331.0125417665
 30
0.0
 11
693.0721533549
 21
1331.5075165134
 31
0.0
  0
LINE
  5
32A
330
1F
100
AcDbEntity
  8
1
  6
SLD-Сплошная
100
AcDbLine
 10
693.0721533549
 20
1328.1841146418
 30
0.0
 11
693.5671281017
 21
1328.6790893886
 31
0.0
  0
LINE
  5
32B
330
1F
100
AcDbEntity
  8
1
  6
SLD-Сплошная
100
AcDbLine
 10
690.2437262302
 20
1328.6790893886
 30
0.0
 11
690.738700977
 21
1328.1841146418
 31
0.0
  0
LINE
  5
32C
330
1F
100
AcDbEntity
  8
1
  6
SLD-Сплошная
100
AcDbLine
 10
690.738700977
 20
1331.5075165134
 30
0.0
 11
690.2437262302
 21
1331.0125417665
 31
0.0
  0
CIRCLE
  5
32D
330
1F
100
AcDbEntity
  8
1
  6
SLD-Сплошная
100
AcDbCircle
 10
691.9054271659
 20
1329.8458155776
 30
0.0
 40
5.000000000000121
  0
ARC
  5
32E
330
1F
100
AcDbEntity
  8
1
  6
SLD-Сплошная
100
AcDbCircle
 10
974.6601591845
 20
1347.091083559
 30
0.0
 40
26.56195549638794
100
AcDbArc
 50
313.8816987744
 51
316.1183012256
  0
ARC
  5
32F
330
1F
100
AcDbEntity
  8
1
  6
SLD-Сплошная
100
AcDbCircle
 10
975.8924041924
 20
1313.6044013417
 30
0.0
 40
23.41191191589019
100
AcDbArc
 50
40.0824770913
 51
42.9865596106
  0
SPLINE
  5
330
330
1F
100
AcDbEntity
  8
1
  6
SLD-Сплошная
100
AcDbSpline
210
0.0
220
0.0
230
1.0
 70
     8
 71
     3
 72
    12
 73
     8
 74
     0
 42
0.00000001
 43
0.00000001
 40
0.0
 40
0.0
 40
0.0
 40
0.0
 40
0.2187857887071841
 40
0.4375776469534907
 40
0.6562353658863597
 40
0.8748419359491056
 40
1.0
 40
1.0
 40
1.0
 40
1.0
 10
993.0185376597593
 20
1330.124361273708
 30
0.0
 10
992.9915742336872
 20
1330.089035876839
 30
0.0
 10
992.9376466335258
 20
1330.018384103107
 30
0.0
 10
992.9050507445527
 20
1329.884420874466
 30
0.0
 10
992.9143998757947
 20
1329.748878248186
 30
0.0
 10
992.9582786338766
 20
1329.639980443892
 30
0.0
 10
993.0024541921631
 20
1329.586676733086
 30
0.0
 10
993.0185376597593
 20
1329.567269881452
 30
0.0
  0
ARC
  5
331
330
1F
100
AcDbEntity
  8
1
  6
SLD-Сплошная
100
AcDbCircle
 10
975.8924041924
 20
1346.0872298134
 30
0.0
 40
23.41191191589004
100
AcDbArc
 50
317.0134403894
 51
319.9175229087
  0
ARC
  5
332
330
1F
100
AcDbEntity
  8
1
  6
SLD-Сплошная
100
AcDbCircle
 10
974.6601591848
 20
1312.6005475964
 30
0.0
 40
26.56195549599982
100
AcDbArc
 50
43.8816987744
 51
46.1183012256
  0
ARC
  5
333
330
1F
100
AcDbEntity
  8
1
  6
SLD-Сплошная
100
AcDbCircle
 10
1008.146841402
 20
1313.8327926038
 30
0.0
 40
23.41191191624461
100
AcDbArc
 50
130.0824770913
 51
132.9865596106
  0
SPLINE
  5
334
330
1F
100
AcDbEntity
  8
1
  6
SLD-Сплошная
100
AcDbSpline
210
0.0
220
0.0
230
1.0
 70
     8
 71
     3
 72
    12
 73
     8
 74
     0
 42
0.00000001
 43
0.00000001
 40
0.0
 40
0.0
 40
0.0
 40
0.0
 40
0.2187857887071623
 40
0.4375776469534822
 40
0.6562353658863613
 40
0.8748419359490999
 40
1.0
 40
1.0
 40
1.0
 40
1.0
 10
991.6268814698191
 20
1330.958926071392
 30
0.0
 10
991.662206866688
 20
1330.93196264532
 30
0.0
 10
991.7328586404205
 20
1330.878035045159
 30
0.0
 10
991.8668218690614
 20
1330.845439156185
 30
0.0
 10
992.0023644953416
 20
1330.854788287427
 30
0.0
 10
992.1112622996353
 20
1330.898667045509
 30
0.0
 10
992.1645660104413
 20
1330.942842603796
 30
0.0
 10
992.1839728620752
 20
1330.958926071392
 30
0.0
  0
ARC
  5
335
330
1F
100
AcDbEntity
  8
1
  6
SLD-Сплошная
100
AcDbCircle
 10
975.6640129298
 20
1313.8327926038
 30
0.0
 40
23.41191191629071
100
AcDbArc
 50
47.0134403894
 51
49.9175229087
  0
ARC
  5
336
330
1F
100
AcDbEntity
  8
1
  6
SLD-Сплошная
100
AcDbCircle
 10
1009.1506951471
 20
1312.6005475964
 30
0.0
 40
26.56195549592953
100
AcDbArc
 50
133.8816987744
 51
136.1183012256
  0
ARC
  5
337
330
1F
100
AcDbEntity
  8
1
  6
SLD-Сплошная
100
AcDbCircle
 10
1007.9184501395
 20
1346.0872298135
 30
0.0
 40
23.41191191596111
100
AcDbArc
 50
220.0824770913
 51
222.9865596106
  0
SPLINE
  5
338
330
1F
100
AcDbEntity
  8
1
  6
SLD-Сплошная
100
AcDbSpline
210
0.0
220
0.0
230
1.0
 70
     8
 71
     3
 72
    12
 73
     8
 74
     0
 42
0.00000001
 43
0.00000001
 40
0.0
 40
0.0
 40
0.0
 40
0.0
 40
0.2187857887072001
 40
0.4375776469534771
 40
0.6562353658864017
 40
0.8748419359490995
 40
1.0
 40
1.0
 40
1.0
 40
1.0
 10
990.7923166721348
 20
1329.567269881452
 30
0.0
 10
990.819280098207
 20
1329.602595278321
 30
0.0
 10
990.8732076983684
 20
1329.673247052053
 30
0.0
 10
990.9058035873414
 20
1329.807210280694
 30
0.0
 10
990.8964544560994
 20
1329.942752906974
 30
0.0
 10
990.8525756980175
 20
1330.051650711268
 30
0.0
 10
990.808400139731
 20
1330.104954422074
 30
0.0
 10
990.7923166721348
 20
1330.124361273708
 30
0.0
  0
ARC
  5
339
330
1F
100
AcDbEntity
  8
1
  6
SLD-Сплошная
100
AcDbCircle
 10
1007.9184501395
 20
1313.6044013417
 30
0.0
 40
23.41191191596128
100
AcDbArc
 50
137.0134403894
 51
139.9175229087
  0
ARC
  5
33A
330
1F
100
AcDbEntity
  8
1
  6
SLD-Сплошная
100
AcDbCircle
 10
1009.1506951471
 20
1347.0910835587
 30
0.0
 40
26.5619554959882
100
AcDbArc
 50
223.8816987744
 51
226.1183012256
  0
ARC
  5
33B
330
1F
100
AcDbEntity
  8
1
  6
SLD-Сплошная
100
AcDbCircle
 10
975.6640129296
 20
1345.8588385517
 30
0.0
 40
23.41191191662672
100
AcDbArc
 50
310.0824770913
 51
312.9865596106
  0
SPLINE
  5
33C
330
1F
100
AcDbEntity
  8
1
  6
SLD-Сплошная
100
AcDbSpline
210
0.0
220
0.0
230
1.0
 70
     8
 71
     3
 72
    12
 73
     8
 74
     0
 42
0.00000001
 43
0.00000001
 40
0.0
 40
0.0
 40
0.0
 40
0.0
 40
0.218785788707222
 40
0.4375776469534855
 40
0.6562353658864003
 40
0.8748419359491052
 40
1.0
 40
1.0
 40
1.0
 40
1.0
 10
992.1839728620752
 20
1328.732705083768
 30
0.0
 10
992.1486474652062
 20
1328.75966850984
 30
0.0
 10
992.0779956914738
 20
1328.813596110001
 30
0.0
 10
991.9440324628328
 20
1328.846191998974
 30
0.0
 10
991.8084898365527
 20
1328.836842867732
 30
0.0
 10
991.6995920322588
 20
1328.79296410965
 30
0.0
 10
991.6462883214529
 20
1328.748788551364
 30
0.0
 10
991.6268814698191
 20
1328.732705083768
 30
0.0
  0
ARC
  5
33D
330
1F
100
AcDbEntity
  8
1
  6
SLD-Сплошная
100
AcDbCircle
 10
1008.1468414023
 20
1345.8588385516
 30
0.0
 40
23.41191191658054
100
AcDbArc
 50
227.0134403894
 51
229.9175229087
  0
CIRCLE
  5
33E
330
1F
100
AcDbEntity
  8
1
  6
SLD-Сплошная
100
AcDbCircle
 10
991.9054271659
 20
1329.8458155776
 30
0.0
 40
3.500000000000109
  0
ELLIPSE
  5
33F
330
1F
100
AcDbEntity
  8
1
  6
SLD-Сплошная
100
AcDbEllipse
 10
991.9054271659
 20
1328.7764287963
 30
0.0
 11
0.0
 21
0.4122489361054704
 31
0.0
210
0.0
220
0.0
230
1.0
 40
0.9702875252
 41
5.512866274278634
 42
7.053504340080551
  0
ELLIPSE
  5
340
330
1F
100
AcDbEntity
  8
1
  6
SLD-Сплошная
100
AcDbEllipse
 10
992.9748139472
 20
1329.8458155776
 30
0.0
 11
-0.4122489361055841
 21
0.0
 31
0.0
210
0.0
220
0.0
230
1.0
 40
0.9702875252
 41
5.512866274278163
 42
7.053504340081432
  0
ELLIPSE
  5
341
330
1F
100
AcDbEntity
  8
1
  6
SLD-Сплошная
100
AcDbEllipse
 10
990.8360403847
 20
1329.8458155776
 30
0.0
 11
0.4122489361055841
 21
0.0
 31
0.0
210
0.0
220
0.0
230
1.0
 40
0.9702875252
 41
5.51286627427823
 42
7.053504340080548
  0
ELLIPSE
  5
342
330
1F
100
AcDbEntity
  8
1
  6
SLD-Сплошная
100
AcDbEllipse
 10
991.9054271659
 20
1330.9152023589
 30
0.0
 11
0.0
 21
-0.4122489361054704
 31
0.0
210
0.0
220
0.0
230
1.0
 40
0.9702875252
 41
5.512866274278634
 42
7.053504340080551
  0
LINE
  5
343
330
1F
100
AcDbEntity
  8
1
  6
SLD-Сплошная
100
AcDbLine
 10
993.0721533549
 20
1327.9459549238
 30
0.0
 11
993.0721533549
 21
1328.1841146418
 31
0.0
  0
LINE
  5
344
330
1F
100
AcDbEntity
  8
1
  6
SLD-Сплошная
100
AcDbLine
 10
992.1839728621
 20
1329.0722951346
 30
0.0
 11
993.0721533549
 21
1328.1841146418
 31
0.0
  0
LINE
  5
345
330
1F
100
AcDbEntity
  8
1
  6
SLD-Сплошная
100
AcDbLine
 10
990.0055665121
 20
1328.6790893886
 30
0.0
 11
990.2437262302
 21
1328.6790893886
 31
0.0
  0
LINE
  5
346
330
1F
100
AcDbEntity
  8
1
  6
SLD-Сплошная
100
AcDbLine
 10
991.131906723
 20
1329.5672698815
 30
0.0
 11
990.2437262302
 21
1328.6790893886
 31
0.0
  0
LINE
  5
347
330
1F
100
AcDbEntity
  8
1
  6
SLD-Сплошная
100
AcDbLine
 10
990.738700977
 20
1331.7456762314
 30
0.0
 11
990.738700977
 21
1331.5075165134
 31
0.0
  0
LINE
  5
348
330
1F
100
AcDbEntity
  8
1
  6
SLD-Сплошная
100
AcDbLine
 10
991.6268814698
 20
1330.6193360205
 30
0.0
 11
990.738700977
 21
1331.5075165134
 31
0.0
  0
LINE
  5
349
330
1F
100
AcDbEntity
  8
1
  6
SLD-Сплошная
100
AcDbLine
 10
993.8052878198
 20
1331.0125417665
 30
0.0
 11
993.5671281017
 21
1331.0125417665
 31
0.0
  0
LINE
  5
34A
330
1F
100
AcDbEntity
  8
1
  6
SLD-Сплошная
100
AcDbLine
 10
992.6789476089
 20
1330.1243612737
 30
0.0
 11
993.5671281017
 21
1331.0125417665
 31
0.0
  0
LINE
  5
34B
330
1F
100
AcDbEntity
  8
1
  6
SLD-Сплошная
100
AcDbLine
 10
993.0721533549
 20
1331.7456762314
 30
0.0
 11
993.0721533549
 21
1331.5075165134
 31
0.0
  0
LINE
  5
34C
330
1F
100
AcDbEntity
  8
1
  6
SLD-Сплошная
100
AcDbLine
 10
993.0721533549
 20
1331.5075165134
 30
0.0
 11
992.1839728621
 21
1330.6193360205
 31
0.0
  0
LINE
  5
34D
330
1F
100
AcDbEntity
  8
1
  6
SLD-Сплошная
100
AcDbLine
 10
993.8052878198
 20
1328.6790893886
 30
0.0
 11
993.5671281017
 21
1328.6790893886
 31
0.0
  0
LINE
  5
34E
330
1F
100
AcDbEntity
  8
1
  6
SLD-Сплошная
100
AcDbLine
 10
993.5671281017
 20
1328.6790893886
 30
0.0
 11
992.6789476089
 21
1329.5672698815
 31
0.0
  0
LINE
  5
34F
330
1F
100
AcDbEntity
  8
1
  6
SLD-Сплошная
100
AcDbLine
 10
990.738700977
 20
1327.9459549238
 30
0.0
 11
990.738700977
 21
1328.1841146418
 31
0.0
  0
LINE
  5
350
330
1F
100
AcDbEntity
  8
1
  6
SLD-Сплошная
100
AcDbLine
 10
990.738700977
 20
1328.1841146418
 30
0.0
 11
991.6268814698
 21
1329.0722951346
 31
0.0
  0
LINE
  5
351
330
1F
100
AcDbEntity
  8
1
  6
SLD-Сплошная
100
AcDbLine
 10
990.0055665121
 20
1331.0125417665
 30
0.0
 11
990.2437262302
 21
1331.0125417665
 31
0.0
  0
LINE
  5
352
330
1F
100
AcDbEntity
  8
1
  6
SLD-Сплошная
100
AcDbLine
 10
990.2437262302
 20
1331.0125417665
 30
0.0
 11
991.131906723
 21
1330.1243612737
 31
0.0
  0
LINE
  5
353
330
1F
100
AcDbEntity
  8
1
  6
SLD-Сплошная
100
AcDbLine
 10
990.738700977
 20
1331.5075165134
 30
0.0
 11
990.2437262302
 21
1331.0125417665
 31
0.0
  0
LINE
  5
354
330
1F
100
AcDbEntity
  8
1
  6
SLD-Сплошная
100
AcDbLine
 10
990.2437262302
 20
1328.6790893886
 30
0.0
 11
990.738700977
 21
1328.1841146418
 31
0.0
  0
LINE
  5
355
330
1F
100
AcDbEntity
  8
1
  6
SLD-Сплошная
100
AcDbLine
 10
993.0721533549
 20
1328.1841146418
 30
0.0
 11
993.5671281017
 21
1328.6790893886
 31
0.0
  0
LINE
  5
356
330
1F
100
AcDbEntity
  8
1
  6
SLD-Сплошная
100
AcDbLine
 10
993.5671281017
 20
1331.0125417665
 30
0.0
 11
993.0721533549
 21
1331.5075165134
 31
0.0
  0
CIRCLE
  5
357
330
1F
100
AcDbEntity
  8
1
  6
SLD-Сплошная
100
AcDbCircle
 10
991.9054271659
 20
1329.8458155776
 30
0.0
 40
5.000000000000121
  0
ARC
  5
358
330
1F
100
AcDbEntity
  8
1
  6
SLD-Сплошная
100
AcDbCircle
 10
992.1601591841
 20
1364.5910835594
 30
0.0
 40
26.56195549690112
100
AcDbArc
 50
313.8816987745
 51
316.1183012256
  0
ARC
  5
359
330
1F
100
AcDbEntity
  8
1
  6
SLD-Сплошная
100
AcDbCircle
 10
993.3924041918
 20
1331.1044013412
 30
0.0
 40
23.41191191675719
100
AcDbArc
 50
40.0824770913
 51
42.9865596105
  0
SPLINE
  5
35A
330
1F
100
AcDbEntity
  8
1
  6
SLD-Сплошная
100
AcDbSpline
210
0.0
220
0.0
230
1.0
 70
     8
 71
     3
 72
    12
 73
     8
 74
     0
 42
0.00000001
 43
0.00000001
 40
0.0
 40
0.0
 40
0.0
 40
0.0
 40
0.2187857887072036
 40
0.4375776469534673
 40
0.6562353658863823
 40
0.8748419359490875
 40
1.0
 40
1.0
 40
1.0
 40
1.0
 10
1010.518537659759
 20
1347.624361273708
 30
0.0
 10
1010.491574233687
 20
1347.589035876839
 30
0.0
 10
1010.437646633526
 20
1347.518384103107
 30
0.0
 10
1010.405050744553
 20
1347.384420874465
 30
0.0
 10
1010.414399875795
 20
1347.248878248186
 30
0.0
 10
1010.458278633876
 20
1347.139980443892
 30
0.0
 10
1010.502454192163
 20
1347.086676733086
 30
0.0
 10
1010.518537659759
 20
1347.067269881452
 30
0.0
  0
ARC
  5
35B
330
1F
100
AcDbEntity
  8
1
  6
SLD-Сплошная
100
AcDbCircle
 10
993.3924041919
 20
1363.5872298139
 30
0.0
 40
23.41191191655825
100
AcDbArc
 50
317.0134403895
 51
319.9175229087
  0
ARC
  5
35C
330
1F
100
AcDbEntity
  8
1
  6
SLD-Сплошная
100
AcDbCircle
 10
992.1601591848
 20
1330.1005475964
 30
0.0
 40
26.56195549599483
100
AcDbArc
 50
43.8816987744
 51
46.1183012256
  0
ARC
  5
35D
330
1F
100
AcDbEntity
  8
1
  6
SLD-Сплошная
100
AcDbCircle
 10
1025.6468414016
 20
1331.3327926042
 30
0.0
 40
23.41191191563274
100
AcDbArc
 50
130.0824770913
 51
132.9865596106
  0
SPLINE
  5
35E
330
1F
100
AcDbEntity
  8
1
  6
SLD-Сплошная
100
AcDbSpline
210
0.0
220
0.0
230
1.0
 70
     8
 71
     3
 72
    12
 73
     8
 74
     0
 42
0.00000001
 43
0.00000001
 40
0.0
 40
0.0
 40
0.0
 40
0.0
 40
0.2187857887071698
 40
0.4375776469534907
 40
0.656235365886365
 40
0.8748419359491162
 40
1.0
 40
1.0
 40
1.0
 40
1.0
 10
1009.126881469819
 20
1348.458926071392
 30
0.0
 10
1009.162206866688
 20
1348.43196264532
 30
0.0
 10
1009.23285864042
 20
1348.378035045159
 30
0.0
 10
1009.366821869061
 20
1348.345439156186
 30
0.0
 10
1009.502364495341
 20
1348.354788287428
 30
0.0
 10
1009.611262299635
 20
1348.398667045509
 30
0.0
 10
1009.664566010441
 20
1348.442842603796
 30
0.0
 10
1009.683972862075
 20
1348.458926071392
 30
0.0
  0
ARC
  5
35F
330
1F
100
AcDbEntity
  8
1
  6
SLD-Сплошная
100
AcDbCircle
 10
993.1640129301
 20
1331.3327926041
 30
0.0
 40
23.41191191583433
100
AcDbArc
 50
47.0134403894
 51
49.9175229087
  0
ARC
  5
360
330
1F
100
AcDbEntity
  8
1
  6
SLD-Сплошная
100
AcDbCircle
 10
1026.6506951467
 20
1330.1005475968
 30
0.0
 40
26.56195549537382
100
AcDbArc
 50
133.8816987744
 51
136.1183012256
  0
ARC
  5
361
330
1F
100
AcDbEntity
  8
1
  6
SLD-Сплошная
100
AcDbCircle
 10
1025.4184501402
 20
1363.5872298141
 30
0.0
 40
23.41191191688442
100
AcDbArc
 50
220.0824770914
 51
222.9865596105
  0
SPLINE
  5
362
330
1F
100
AcDbEntity
  8
1
  6
SLD-Сплошная
100
AcDbSpline
210
0.0
220
0.0
230
1.0
 70
     8
 71
     3
 72
    12
 73
     8
 74
     0
 42
0.00000001
 43
0.00000001
 40
0.0
 40
0.0
 40
0.0
 40
0.0
 40
0.2187857887071817
 40
0.4375776469534589
 40
0.6562353658863839
 40
0.8748419359490818
 40
1.0
 40
1.0
 40
1.0
 40
1.0
 10
1008.292316672135
 20
1347.067269881452
 30
0.0
 10
1008.319280098207
 20
1347.102595278321
 30
0.0
 10
1008.373207698368
 20
1347.173247052053
 30
0.0
 10
1008.405803587341
 20
1347.307210280694
 30
0.0
 10
1008.396454456099
 20
1347.442752906974
 30
0.0
 10
1008.352575698018
 20
1347.551650711268
 30
0.0
 10
1008.308400139731
 20
1347.604954422074
 30
0.0
 10
1008.292316672135
 20
1347.624361273708
 30
0.0
  0
ARC
  5
363
330
1F
100
AcDbEntity
  8
1
  6
SLD-Сплошная
100
AcDbCircle
 10
1025.4184501401
 20
1331.1044013412
 30
0.0
 40
23.41191191668684
100
AcDbArc
 50
137.0134403895
 51
139.9175229087
  0
ARC
  5
364
330
1F
100
AcDbEntity
  8
1
  6
SLD-Сплошная
100
AcDbCircle
 10
1026.6506951473
 20
1364.591083559
 30
0.0
 40
26.56195549627988
100
AcDbArc
 50
223.8816987744
 51
226.1183012256
  0
ARC
  5
365
330
1F
100
AcDbEntity
  8
1
  6
SLD-Сплошная
100
AcDbCircle
 10
993.1640129298
 20
1363.3588385515
 30
0.0
 40
23.4119119164036
100
AcDbArc
 50
310.0824770913
 51
312.9865596106
  0
SPLINE
  5
366
330
1F
100
AcDbEntity
  8
1
  6
SLD-Сплошная
100
AcDbSpline
210
0.0
220
0.0
230
1.0
 70
     8
 71
     3
 72
    12
 73
     8
 74
     0
 42
0.00000001
 43
0.00000001
 40
0.0
 40
0.0
 40
0.0
 40
0.0
 40
0.2187857887072127
 40
0.4375776469534849
 40
0.6562353658864042
 40
0.8748419359491036
 40
1.0
 40
1.0
 40
1.0
 40
1.0
 10
1009.683972862075
 20
1346.232705083768
 30
0.0
 10
1009.648647465206
 20
1346.25966850984
 30
0.0
 10
1009.577995691474
 20
1346.313596110001
 30
0.0
 10
1009.444032462833
 20
1346.346191998974
 30
0.0
 10
1009.308489836553
 20
1346.336842867732
 30
0.0
 10
1009.199592032259
 20
1346.29296410965
 30
0.0
 10
1009.146288321453
 20
1346.248788551364
 30
0.0
 10
1009.126881469819
 20
1346.232705083768
 30
0.0
  0
ARC
  5
367
330
1F
100
AcDbEntity
  8
1
  6
SLD-Сплошная
100
AcDbCircle
 10
1025.646841402
 20
1363.3588385513
 30
0.0
 40
23.41191191620232
100
AcDbArc
 50
227.0134403894
 51
229.9175229087
  0
CIRCLE
  5
368
330
1F
100
AcDbEntity
  8
1
  6
SLD-Сплошная
100
AcDbCircle
 10
1009.4054271659
 20
1347.3458155776
 30
0.0
 40
3.500000000000028
  0
ELLIPSE
  5
369
330
1F
100
AcDbEntity
  8
1
  6
SLD-Сплошная
100
AcDbEllipse
 10
1009.4054271659
 20
1346.2764287963
 30
0.0
 11
0.0
 21
0.4122489361059252
 31
0.0
210
0.0
220
0.0
230
1.0
 40
0.9702875252
 41
5.512866274278263
 42
7.053504340080719
  0
ELLIPSE
  5
36A
330
1F
100
AcDbEntity
  8
1
  6
SLD-Сплошная
100
AcDbEllipse
 10
1009.4054271659
 20
1348.4152023589
 30
0.0
 11
0.0
 21
-0.4122489361056978
 31
0.0
210
0.0
220
0.0
230
1.0
 40
0.9702875252
 41
5.512866274278884
 42
7.053504340080506
  0
ELLIPSE
  5
36B
330
1F
100
AcDbEntity
  8
1
  6
SLD-Сплошная
100
AcDbEllipse
 10
1010.4748139472
 20
1347.3458155776
 30
0.0
 11
-0.4122489361055841
 21
0.0
 31
0.0
210
0.0
220
0.0
230
1.0
 40
0.9702875252
 41
5.512866274278762
 42
7.053504340080831
  0
ELLIPSE
  5
36C
330
1F
100
AcDbEntity
  8
1
  6
SLD-Сплошная
100
AcDbEllipse
 10
1008.3360403847
 20
1347.3458155776
 30
0.0
 11
0.4122489361058115
 21
0.0
 31
0.0
210
0.0
220
0.0
230
1.0
 40
0.9702875252
 41
5.51286627427903
 42
7.053504340079748
  0
LINE
  5
36D
330
1F
100
AcDbEntity
  8
1
  6
SLD-Сплошная
100
AcDbLine
 10
1007.5055665121
 20
1346.1790893886
 30
0.0
 11
1007.7437262302
 21
1346.1790893886
 31
0.0
  0
LINE
  5
36E
330
1F
100
AcDbEntity
  8
1
  6
SLD-Сплошная
100
AcDbLine
 10
1008.631906723
 20
1347.0672698815
 30
0.0
 11
1007.7437262302
 21
1346.1790893886
 31
0.0
  0
LINE
  5
36F
330
1F
100
AcDbEntity
  8
1
  6
SLD-Сплошная
100
AcDbLine
 10
1011.3052878198
 20
1346.1790893886
 30
0.0
 11
1011.0671281017
 21
1346.1790893886
 31
0.0
  0
LINE
  5
370
330
1F
100
AcDbEntity
  8
1
  6
SLD-Сплошная
100
AcDbLine
 10
1011.0671281017
 20
1346.1790893886
 30
0.0
 11
1010.1789476089
 21
1347.0672698815
 31
0.0
  0
LINE
  5
371
330
1F
100
AcDbEntity
  8
1
  6
SLD-Сплошная
100
AcDbLine
 10
1008.238700977
 20
1345.4459549238
 30
0.0
 11
1008.238700977
 21
1345.6841146418
 31
0.0
  0
LINE
  5
372
330
1F
100
AcDbEntity
  8
1
  6
SLD-Сплошная
100
AcDbLine
 10
1008.238700977
 20
1345.6841146418
 30
0.0
 11
1009.1268814698
 21
1346.5722951346
 31
0.0
  0
LINE
  5
373
330
1F
100
AcDbEntity
  8
1
  6
SLD-Сплошная
100
AcDbLine
 10
1010.5721533549
 20
1345.4459549238
 30
0.0
 11
1010.5721533549
 21
1345.6841146418
 31
0.0
  0
LINE
  5
374
330
1F
100
AcDbEntity
  8
1
  6
SLD-Сплошная
100
AcDbLine
 10
1009.6839728621
 20
1346.5722951346
 30
0.0
 11
1010.5721533549
 21
1345.6841146418
 31
0.0
  0
LINE
  5
375
330
1F
100
AcDbEntity
  8
1
  6
SLD-Сплошная
100
AcDbLine
 10
1010.5721533549
 20
1349.2456762314
 30
0.0
 11
1010.5721533549
 21
1349.0075165134
 31
0.0
  0
LINE
  5
376
330
1F
100
AcDbEntity
  8
1
  6
SLD-Сплошная
100
AcDbLine
 10
1010.5721533549
 20
1349.0075165134
 30
0.0
 11
1009.6839728621
 21
1348.1193360205
 31
0.0
  0
LINE
  5
377
330
1F
100
AcDbEntity
  8
1
  6
SLD-Сплошная
100
AcDbLine
 10
1007.5055665121
 20
1348.5125417665
 30
0.0
 11
1007.7437262302
 21
1348.5125417665
 31
0.0
  0
LINE
  5
378
330
1F
100
AcDbEntity
  8
1
  6
SLD-Сплошная
100
AcDbLine
 10
1007.7437262302
 20
1348.5125417665
 30
0.0
 11
1008.631906723
 21
1347.6243612737
 31
0.0
  0
LINE
  5
379
330
1F
100
AcDbEntity
  8
1
  6
SLD-Сплошная
100
AcDbLine
 10
1011.3052878198
 20
1348.5125417665
 30
0.0
 11
1011.0671281017
 21
1348.5125417665
 31
0.0
  0
LINE
  5
37A
330
1F
100
AcDbEntity
  8
1
  6
SLD-Сплошная
100
AcDbLine
 10
1010.1789476089
 20
1347.6243612737
 30
0.0
 11
1011.0671281017
 21
1348.5125417665
 31
0.0
  0
LINE
  5
37B
330
1F
100
AcDbEntity
  8
1
  6
SLD-Сплошная
100
AcDbLine
 10
1008.238700977
 20
1349.2456762314
 30
0.0
 11
1008.238700977
 21
1349.0075165134
 31
0.0
  0
LINE
  5
37C
330
1F
100
AcDbEntity
  8
1
  6
SLD-Сплошная
100
AcDbLine
 10
1009.1268814698
 20
1348.1193360205
 30
0.0
 11
1008.238700977
 21
1349.0075165134
 31
0.0
  0
LINE
  5
37D
330
1F
100
AcDbEntity
  8
1
  6
SLD-Сплошная
100
AcDbLine
 10
1010.5721533549
 20
1345.6841146418
 30
0.0
 11
1011.0671281017
 21
1346.1790893886
 31
0.0
  0
LINE
  5
37E
330
1F
100
AcDbEntity
  8
1
  6
SLD-Сплошная
100
AcDbLine
 10
1007.7437262302
 20
1346.1790893886
 30
0.0
 11
1008.238700977
 21
1345.6841146418
 31
0.0
  0
LINE
  5
37F
330
1F
100
AcDbEntity
  8
1
  6
SLD-Сплошная
100
AcDbLine
 10
1011.0671281017
 20
1348.5125417665
 30
0.0
 11
1010.5721533549
 21
1349.0075165134
 31
0.0
  0
LINE
  5
380
330
1F
100
AcDbEntity
  8
1
  6
SLD-Сплошная
100
AcDbLine
 10
1008.238700977
 20
1349.0075165134
 30
0.0
 11
1007.7437262302
 21
1348.5125417665
 31
0.0
  0
CIRCLE
  5
381
330
1F
100
AcDbEntity
  8
1
  6
SLD-Сплошная
100
AcDbCircle
 10
1009.4054271659
 20
1347.3458155776
 30
0.0
 40
5.000000000000041
  0
ARC
  5
382
330
1F
100
AcDbEntity
  8
1
  6
SLD-Сплошная
100
AcDbCircle
 10
874.6601591851
 20
1347.0910835584
 30
0.0
 40
26.56195549549161
100
AcDbArc
 50
313.8816987744
 51
316.1183012256
  0
ARC
  5
383
330
1F
100
AcDbEntity
  8
1
  6
SLD-Сплошная
100
AcDbCircle
 10
875.8924041925
 20
1313.6044013418
 30
0.0
 40
23.41191191583079
100
AcDbArc
 50
40.0824770913
 51
42.9865596106
  0
SPLINE
  5
384
330
1F
100
AcDbEntity
  8
1
  6
SLD-Сплошная
100
AcDbSpline
210
0.0
220
0.0
230
1.0
 70
     8
 71
     3
 72
    12
 73
     8
 74
     0
 42
0.00000001
 43
0.00000001
 40
0.0
 40
0.0
 40
0.0
 40
0.0
 40
0.2187857887072151
 40
0.437577646953484
 40
0.656235365886359
 40
0.8748419359491022
 40
1.0
 40
1.0
 40
1.0
 40
1.0
 10
893.0185376597593
 20
1330.124361273708
 30
0.0
 10
892.9915742336874
 20
1330.089035876839
 30
0.0
 10
892.9376466335258
 20
1330.018384103107
 30
0.0
 10
892.9050507445528
 20
1329.884420874466
 30
0.0
 10
892.9143998757949
 20
1329.748878248186
 30
0.0
 10
892.9582786338766
 20
1329.639980443892
 30
0.0
 10
893.0024541921631
 20
1329.586676733086
 30
0.0
 10
893.0185376597593
 20
1329.567269881452
 30
0.0
  0
ARC
  5
385
330
1F
100
AcDbEntity
  8
1
  6
SLD-Сплошная
100
AcDbCircle
 10
875.8924041924
 20
1346.0872298134
 30
0.0
 40
23.41191191591645
100
AcDbArc
 50
317.0134403894
 51
319.9175229087
  0
ARC
  5
386
330
1F
100
AcDbEntity
  8
1
  6
SLD-Сплошная
100
AcDbCircle
 10
874.6601591852
 20
1312.6005475969
 30
0.0
 40
26.56195549536309
100
AcDbArc
 50
43.8816987744
 51
46.1183012256
  0
ARC
  5
387
330
1F
100
AcDbEntity
  8
1
  6
SLD-Сплошная
100
AcDbCircle
 10
908.1468414023
 20
1313.8327926034
 30
0.0
 40
23.41191191672406
100
AcDbArc
 50
130.0824770914
 51
132.9865596105
  0
SPLINE
  5
388
330
1F
100
AcDbEntity
  8
1
  6
SLD-Сплошная
100
AcDbSpline
210
0.0
220
0.0
230
1.0
 70
     8
 71
     3
 72
    12
 73
     8
 74
     0
 42
0.00000001
 43
0.00000001
 40
0.0
 40
0.0
 40
0.0
 40
0.0
 40
0.2187857887071817
 40
0.4375776469534588
 40
0.6562353658863838
 40
0.8748419359490818
 40
1.0
 40
1.0
 40
1.0
 40
1.0
 10
891.6268814698192
 20
1330.958926071392
 30
0.0
 10
891.6622068666879
 20
1330.93196264532
 30
0.0
 10
891.7328586404204
 20
1330.878035045159
 30
0.0
 10
891.8668218690615
 20
1330.845439156185
 30
0.0
 10
892.0023644953415
 20
1330.854788287427
 30
0.0
 10
892.1112622996354
 20
1330.898667045509
 30
0.0
 10
892.1645660104414
 20
1330.942842603796
 30
0.0
 10
892.183972862075
 20
1330.958926071392
 30
0.0
  0
ARC
  5
389
330
1F
100
AcDbEntity
  8
1
  6
SLD-Сплошная
100
AcDbCircle
 10
875.6640129296
 20
1313.8327926034
 30
0.0
 40
23.41191191672398
100
AcDbArc
 50
47.0134403895
 51
49.9175229086
  0
ARC
  5
38A
330
1F
100
AcDbEntity
  8
1
  6
SLD-Сплошная
100
AcDbCircle
 10
909.1506951467
 20
1312.6005475969
 30
0.0
 40
26.56195549536294
100
AcDbArc
 50
133.8816987744
 51
136.1183012256
  0
ARC
  5
38B
330
1F
100
AcDbEntity
  8
1
  6
SLD-Сплошная
100
AcDbCircle
 10
907.9184501396
 20
1346.0872298135
 30
0.0
 40
23.41191191607367
100
AcDbArc
 50
220.0824770913
 51
222.9865596106
  0
SPLINE
  5
38C
330
1F
100
AcDbEntity
  8
1
  6
SLD-Сплошная
100
AcDbSpline
210
0.0
220
0.0
230
1.0
 70
     8
 71
     3
 72
    12
 73
     8
 74
     0
 42
0.00000001
 43
0.00000001
 40
0.0
 40
0.0
 40
0.0
 40
0.0
 40
0.2187857887072047
 40
0.4375776469534796
 40
0.6562353658863966
 40
0.874841935949104
 40
1.0
 40
1.0
 40
1.0
 40
1.0
 10
890.7923166721348
 20
1329.567269881452
 30
0.0
 10
890.8192800982068
 20
1329.602595278321
 30
0.0
 10
890.8732076983683
 20
1329.673247052053
 30
0.0
 10
890.9058035873416
 20
1329.807210280694
 30
0.0
 10
890.8964544560994
 20
1329.942752906974
 30
0.0
 10
890.8525756980175
 20
1330.051650711268
 30
0.0
 10
890.808400139731
 20
1330.104954422074
 30
0.0
 10
890.7923166721348
 20
1330.124361273708
 30
0.0
  0
ARC
  5
38D
330
1F
100
AcDbEntity
  8
1
  6
SLD-Сплошная
100
AcDbCircle
 10
907.9184501395
 20
1313.6044013417
 30
0.0
 40
23.41191191587277
100
AcDbArc
 50
137.0134403894
 51
139.9175229087
  0
ARC
  5
38E
330
1F
100
AcDbEntity
  8
1
  6
SLD-Сплошная
100
AcDbCircle
 10
909.1506951469
 20
1347.0910835586
 30
0.0
 40
26.56195549574523
100
AcDbArc
 50
223.8816987744
 51
226.1183012256
  0
ARC
  5
38F
330
1F
100
AcDbEntity
  8
1
  6
SLD-Сплошная
100
AcDbCircle
 10
875.6640129298
 20
1345.8588385514
 30
0.0
 40
23.41191191633968
100
AcDbArc
 50
310.0824770913
 51
312.9865596106
  0
SPLINE
  5
390
330
1F
100
AcDbEntity
  8
1
  6
SLD-Сплошная
100
AcDbSpline
210
0.0
220
0.0
230
1.0
 70
     8
 71
     3
 72
    12
 73
     8
 74
     0
 42
0.00000001
 43
0.00000001
 40
0.0
 40
0.0
 40
0.0
 40
0.0
 40
0.2187857887072036
 40
0.4375776469534673
 40
0.6562353658863823
 40
0.8748419359490875
 40
1.0
 40
1.0
 40
1.0
 40
1.0
 10
892.183972862075
 20
1328.732705083768
 30
0.0
 10
892.1486474652062
 20
1328.75966850984
 30
0.0
 10
892.0779956914737
 20
1328.813596110001
 30
0.0
 10
891.9440324628329
 20
1328.846191998974
 30
0.0
 10
891.8084898365527
 20
1328.836842867732
 30
0.0
 10
891.6995920322588
 20
1328.79296410965
 30
0.0
 10
891.6462883214529
 20
1328.748788551364
 30
0.0
 10
891.6268814698191
 20
1328.732705083768
 30
0.0
  0
ARC
  5
391
330
1F
100
AcDbEntity
  8
1
  6
SLD-Сплошная
100
AcDbCircle
 10
908.1468414021
 20
1345.8588385515
 30
0.0
 40
23.4119119163903
100
AcDbArc
 50
227.0134403894
 51
229.9175229087
  0
CIRCLE
  5
392
330
1F
100
AcDbEntity
  8
1
  6
SLD-Сплошная
100
AcDbCircle
 10
891.9054271659
 20
1329.8458155776
 30
0.0
 40
3.500000000000109
  0
ELLIPSE
  5
393
330
1F
100
AcDbEntity
  8
1
  6
SLD-Сплошная
100
AcDbEllipse
 10
890.8360403847
 20
1329.8458155776
 30
0.0
 11
0.4122489361056978
 21
0.0
 31
0.0
210
0.0
220
0.0
230
1.0
 40
0.9702875252
 41
5.512866274278093
 42
7.053504340080686
  0
ELLIPSE
  5
394
330
1F
100
AcDbEntity
  8
1
  6
SLD-Сплошная
100
AcDbEllipse
 10
891.9054271659
 20
1330.9152023589
 30
0.0
 11
0.0
 21
-0.4122489361056978
 31
0.0
210
0.0
220
0.0
230
1.0
 40
0.9702875252
 41
5.512866274279089
 42
7.053504340080098
  0
ELLIPSE
  5
395
330
1F
100
AcDbEntity
  8
1
  6
SLD-Сплошная
100
AcDbEllipse
 10
891.9054271659
 20
1328.7764287963
 30
0.0
 11
0.0
 21
0.4122489361054704
 31
0.0
210
0.0
220
0.0
230
1.0
 40
0.9702875252
 41
5.51286627427898
 42
7.053504340080206
  0
ELLIPSE
  5
396
330
1F
100
AcDbEntity
  8
1
  6
SLD-Сплошная
100
AcDbEllipse
 10
892.9748139472
 20
1329.8458155776
 30
0.0
 11
-0.4122489361056978
 21
0.0
 31
0.0
210
0.0
220
0.0
230
1.0
 40
0.9702875252
 41
5.512866274278409
 42
7.053504340081186
  0
LINE
  5
397
330
1F
100
AcDbEntity
  8
1
  6
SLD-Сплошная
100
AcDbLine
 10
893.0721533549
 20
1327.9459549238
 30
0.0
 11
893.0721533549
 21
1328.1841146418
 31
0.0
  0
LINE
  5
398
330
1F
100
AcDbEntity
  8
1
  6
SLD-Сплошная
100
AcDbLine
 10
892.1839728621
 20
1329.0722951346
 30
0.0
 11
893.0721533549
 21
1328.1841146418
 31
0.0
  0
LINE
  5
399
330
1F
100
AcDbEntity
  8
1
  6
SLD-Сплошная
100
AcDbLine
 10
890.738700977
 20
1327.9459549238
 30
0.0
 11
890.738700977
 21
1328.1841146418
 31
0.0
  0
LINE
  5
39A
330
1F
100
AcDbEntity
  8
1
  6
SLD-Сплошная
100
AcDbLine
 10
890.738700977
 20
1328.1841146418
 30
0.0
 11
891.6268814698
 21
1329.0722951346
 31
0.0
  0
LINE
  5
39B
330
1F
100
AcDbEntity
  8
1
  6
SLD-Сплошная
100
AcDbLine
 10
893.0721533549
 20
1331.7456762314
 30
0.0
 11
893.0721533549
 21
1331.5075165134
 31
0.0
  0
LINE
  5
39C
330
1F
100
AcDbEntity
  8
1
  6
SLD-Сплошная
100
AcDbLine
 10
893.0721533549
 20
1331.5075165134
 30
0.0
 11
892.1839728621
 21
1330.6193360205
 31
0.0
  0
LINE
  5
39D
330
1F
100
AcDbEntity
  8
1
  6
SLD-Сплошная
100
AcDbLine
 10
890.738700977
 20
1331.7456762314
 30
0.0
 11
890.738700977
 21
1331.5075165134
 31
0.0
  0
LINE
  5
39E
330
1F
100
AcDbEntity
  8
1
  6
SLD-Сплошная
100
AcDbLine
 10
891.6268814698
 20
1330.6193360205
 30
0.0
 11
890.738700977
 21
1331.5075165134
 31
0.0
  0
LINE
  5
39F
330
1F
100
AcDbEntity
  8
1
  6
SLD-Сплошная
100
AcDbLine
 10
893.8052878198
 20
1331.0125417665
 30
0.0
 11
893.5671281017
 21
1331.0125417665
 31
0.0
  0
LINE
  5
3A0
330
1F
100
AcDbEntity
  8
1
  6
SLD-Сплошная
100
AcDbLine
 10
892.6789476089
 20
1330.1243612737
 30
0.0
 11
893.5671281017
 21
1331.0125417665
 31
0.0
  0
LINE
  5
3A1
330
1F
100
AcDbEntity
  8
1
  6
SLD-Сплошная
100
AcDbLine
 10
890.0055665121
 20
1331.0125417665
 30
0.0
 11
890.2437262302
 21
1331.0125417665
 31
0.0
  0
LINE
  5
3A2
330
1F
100
AcDbEntity
  8
1
  6
SLD-Сплошная
100
AcDbLine
 10
890.2437262302
 20
1331.0125417665
 30
0.0
 11
891.131906723
 21
1330.1243612737
 31
0.0
  0
LINE
  5
3A3
330
1F
100
AcDbEntity
  8
1
  6
SLD-Сплошная
100
AcDbLine
 10
893.8052878198
 20
1328.6790893886
 30
0.0
 11
893.5671281017
 21
1328.6790893886
 31
0.0
  0
LINE
  5
3A4
330
1F
100
AcDbEntity
  8
1
  6
SLD-Сплошная
100
AcDbLine
 10
893.5671281017
 20
1328.6790893886
 30
0.0
 11
892.6789476089
 21
1329.5672698815
 31
0.0
  0
LINE
  5
3A5
330
1F
100
AcDbEntity
  8
1
  6
SLD-Сплошная
100
AcDbLine
 10
890.0055665121
 20
1328.6790893886
 30
0.0
 11
890.2437262302
 21
1328.6790893886
 31
0.0
  0
LINE
  5
3A6
330
1F
100
AcDbEntity
  8
1
  6
SLD-Сплошная
100
AcDbLine
 10
891.131906723
 20
1329.5672698815
 30
0.0
 11
890.2437262302
 21
1328.6790893886
 31
0.0
  0
LINE
  5
3A7
330
1F
100
AcDbEntity
  8
1
  6
SLD-Сплошная
100
AcDbLine
 10
893.5671281017
 20
1331.0125417665
 30
0.0
 11
893.0721533549
 21
1331.5075165134
 31
0.0
  0
LINE
  5
3A8
330
1F
100
AcDbEntity
  8
1
  6
SLD-Сплошная
100
AcDbLine
 10
890.2437262302
 20
1328.6790893886
 30
0.0
 11
890.738700977
 21
1328.1841146418
 31
0.0
  0
LINE
  5
3A9
330
1F
100
AcDbEntity
  8
1
  6
SLD-Сплошная
100
AcDbLine
 10
893.0721533549
 20
1328.1841146418
 30
0.0
 11
893.5671281017
 21
1328.6790893886
 31
0.0
  0
LINE
  5
3AA
330
1F
100
AcDbEntity
  8
1
  6
SLD-Сплошная
100
AcDbLine
 10
890.738700977
 20
1331.5075165134
 30
0.0
 11
890.2437262302
 21
1331.0125417665
 31
0.0
  0
CIRCLE
  5
3AB
330
1F
100
AcDbEntity
  8
1
  6
SLD-Сплошная
100
AcDbCircle
 10
891.9054271659
 20
1329.8458155776
 30
0.0
 40
4.99999999999996
  0
ARC
  5
3AC
330
1F
100
AcDbEntity
  8
1
  6
SLD-Сплошная
100
AcDbCircle
 10
909.1506951474
 20
1457.091083559
 30
0.0
 40
26.56195549639509
100
AcDbArc
 50
223.8816987744
 51
226.1183012256
  0
ARC
  5
3AD
330
1F
100
AcDbEntity
  8
1
  6
SLD-Сплошная
100
AcDbCircle
 10
875.6640129295
 20
1455.8588385518
 30
0.0
 40
23.41191191678541
100
AcDbArc
 50
310.0824770914
 51
312.9865596105
  0
SPLINE
  5
3AE
330
1F
100
AcDbEntity
  8
1
  6
SLD-Сплошная
100
AcDbSpline
210
0.0
220
0.0
230
1.0
 70
     8
 71
     3
 72
    12
 73
     8
 74
     0
 42
0.00000001
 43
0.00000001
 40
0.0
 40
0.0
 40
0.0
 40
0.0
 40
0.2187857887072033
 40
0.4375776469534801
 40
0.6562353658863794
 40
0.874841935949108
 40
1.0
 40
1.0
 40
1.0
 40
1.0
 10
892.183972862075
 20
1438.732705083768
 30
0.0
 10
892.1486474652062
 20
1438.75966850984
 30
0.0
 10
892.0779956914737
 20
1438.813596110001
 30
0.0
 10
891.9440324628328
 20
1438.846191998974
 30
0.0
 10
891.8084898365528
 20
1438.836842867732
 30
0.0
 10
891.6995920322588
 20
1438.79296410965
 30
0.0
 10
891.6462883214529
 20
1438.748788551364
 30
0.0
 10
891.6268814698192
 20
1438.732705083768
 30
0.0
  0
ARC
  5
3AF
330
1F
100
AcDbEntity
  8
1
  6
SLD-Сплошная
100
AcDbCircle
 10
908.1468414024
 20
1455.8588385518
 30
0.0
 40
23.41191191678533
100
AcDbArc
 50
227.0134403895
 51
229.9175229086
  0
ARC
  5
3B0
330
1F
100
AcDbEntity
  8
1
  6
SLD-Сплошная
100
AcDbCircle
 10
874.6601591845
 20
1457.091083559
 30
0.0
 40
26.56195549639525
100
AcDbArc
 50
313.8816987744
 51
316.1183012256
  0
ARC
  5
3B1
330
1F
100
AcDbEntity
  8
1
  6
SLD-Сплошная
100
AcDbCircle
 10
875.8924041922
 20
1423.6044013416
 30
0.0
 40
23.41191191612202
100
AcDbArc
 50
40.0824770913
 51
42.9865596106
  0
SPLINE
  5
3B2
330
1F
100
AcDbEntity
  8
1
  6
SLD-Сплошная
100
AcDbSpline
210
0.0
220
0.0
230
1.0
 70
     8
 71
     3
 72
    12
 73
     8
 74
     0
 42
0.00000001
 43
0.00000001
 40
0.0
 40
0.0
 40
0.0
 40
0.0
 40
0.2187857887071986
 40
0.4375776469534816
 40
0.6562353658863895
 40
0.8748419359490992
 40
1.0
 40
1.0
 40
1.0
 40
1.0
 10
893.0185376597593
 20
1440.124361273708
 30
0.0
 10
892.9915742336874
 20
1440.089035876839
 30
0.0
 10
892.9376466335258
 20
1440.018384103106
 30
0.0
 10
892.9050507445526
 20
1439.884420874465
 30
0.0
 10
892.9143998757949
 20
1439.748878248186
 30
0.0
 10
892.9582786338767
 20
1439.639980443892
 30
0.0
 10
893.0024541921631
 20
1439.586676733086
 30
0.0
 10
893.0185376597593
 20
1439.567269881452
 30
0.0
  0
ARC
  5
3B3
330
1F
100
AcDbEntity
  8
1
  6
SLD-Сплошная
100
AcDbCircle
 10
875.8924041922
 20
1456.0872298136
 30
0.0
 40
23.41191191612427
100
AcDbArc
 50
317.0134403894
 51
319.9175229087
  0
ARC
  5
3B4
330
1F
100
AcDbEntity
  8
1
  6
SLD-Сплошная
100
AcDbCircle
 10
874.6601591851
 20
1422.6005475968
 30
0.0
 40
26.56195549548904
100
AcDbArc
 50
43.8816987744
 51
46.1183012256
  0
ARC
  5
3B5
330
1F
100
AcDbEntity
  8
1
  6
SLD-Сплошная
100
AcDbCircle
 10
908.1468414018
 20
1423.832792604
 30
0.0
 40
23.41191191597995
100
AcDbArc
 50
130.0824770913
 51
132.9865596106
  0
SPLINE
  5
3B6
330
1F
100
AcDbEntity
  8
1
  6
SLD-Сплошная
100
AcDbSpline
210
0.0
220
0.0
230
1.0
 70
     8
 71
     3
 72
    12
 73
     8
 74
     0
 42
0.00000001
 43
0.00000001
 40
0.0
 40
0.0
 40
0.0
 40
0.0
 40
0.218785788707212
 40
0.4375776469534823
 40
0.6562353658864029
 40
0.874841935949109
 40
1.0
 40
1.0
 40
1.0
 40
1.0
 10
891.6268814698191
 20
1440.958926071392
 30
0.0
 10
891.6622068666879
 20
1440.93196264532
 30
0.0
 10
891.7328586404204
 20
1440.878035045159
 30
0.0
 10
891.8668218690615
 20
1440.845439156186
 30
0.0
 10
892.0023644953415
 20
1440.854788287428
 30
0.0
 10
892.1112622996354
 20
1440.898667045509
 30
0.0
 10
892.1645660104414
 20
1440.942842603796
 30
0.0
 10
892.183972862075
 20
1440.958926071392
 30
0.0
  0
ARC
  5
3B7
330
1F
100
AcDbEntity
  8
1
  6
SLD-Сплошная
100
AcDbCircle
 10
875.6640129301
 20
1423.832792604
 30
0.0
 40
23.41191191592512
100
AcDbArc
 50
47.0134403894
 51
49.9175229087
  0
ARC
  5
3B8
330
1F
100
AcDbEntity
  8
1
  6
SLD-Сплошная
100
AcDbCircle
 10
909.1506951469
 20
1422.6005475966
 30
0.0
 40
26.56195549574242
100
AcDbArc
 50
133.8816987744
 51
136.1183012256
  0
ARC
  5
3B9
330
1F
100
AcDbEntity
  8
1
  6
SLD-Сплошная
100
AcDbCircle
 10
907.9184501397
 20
1456.0872298136
 30
0.0
 40
23.41191191616595
100
AcDbArc
 50
220.0824770913
 51
222.9865596106
  0
SPLINE
  5
3BA
330
1F
100
AcDbEntity
  8
1
  6
SLD-Сплошная
100
AcDbSpline
210
0.0
220
0.0
230
1.0
 70
     8
 71
     3
 72
    12
 73
     8
 74
     0
 42
0.00000001
 43
0.00000001
 40
0.0
 40
0.0
 40
0.0
 40
0.0
 40
0.2187857887071924
 40
0.4375776469534745
 40
0.6562353658863835
 40
0.8748419359490942
 40
1.0
 40
1.0
 40
1.0
 40
1.0
 10
890.7923166721348
 20
1439.567269881452
 30
0.0
 10
890.8192800982068
 20
1439.602595278321
 30
0.0
 10
890.8732076983683
 20
1439.673247052053
 30
0.0
 10
890.9058035873416
 20
1439.807210280694
 30
0.0
 10
890.8964544560994
 20
1439.942752906974
 30
0.0
 10
890.8525756980175
 20
1440.051650711268
 30
0.0
 10
890.808400139731
 20
1440.104954422074
 30
0.0
 10
890.7923166721348
 20
1440.124361273708
 30
0.0
  0
ARC
  5
3BB
330
1F
100
AcDbEntity
  8
1
  6
SLD-Сплошная
100
AcDbCircle
 10
907.9184501397
 20
1423.6044013416
 30
0.0
 40
23.41191191616386
100
AcDbArc
 50
137.0134403894
 51
139.9175229087
  0
CIRCLE
  5
3BC
330
1F
100
AcDbEntity
  8
1
  6
SLD-Сплошная
100
AcDbCircle
 10
891.9054271659
 20
1439.8458155776
 30
0.0
 40
3.500000000000109
  0
ELLIPSE
  5
3BD
330
1F
100
AcDbEntity
  8
1
  6
SLD-Сплошная
100
AcDbEllipse
 10
891.9054271659
 20
1438.7764287963
 30
0.0
 11
0.0
 21
0.4122489361059252
 31
0.0
210
0.0
220
0.0
230
1.0
 40
0.9702875252
 41
5.512866274278813
 42
7.053504340080373
  0
ELLIPSE
  5
3BE
330
1F
100
AcDbEntity
  8
1
  6
SLD-Сплошная
100
AcDbEllipse
 10
890.8360403847
 20
1439.8458155776
 30
0.0
 11
0.4122489361056978
 21
0.0
 31
0.0
210
0.0
220
0.0
230
1.0
 40
0.9702875252
 41
5.512866274278501
 42
7.053504340080278
  0
ELLIPSE
  5
3BF
330
1F
100
AcDbEntity
  8
1
  6
SLD-Сплошная
100
AcDbEllipse
 10
892.9748139472
 20
1439.8458155776
 30
0.0
 11
-0.4122489361056978
 21
0.0
 31
0.0
210
0.0
220
0.0
230
1.0
 40
0.9702875252
 41
5.512866274278816
 42
7.053504340080777
  0
ELLIPSE
  5
3C0
330
1F
100
AcDbEntity
  8
1
  6
SLD-Сплошная
100
AcDbEllipse
 10
891.9054271659
 20
1440.9152023589
 30
0.0
 11
0.0
 21
-0.4122489361056978
 31
0.0
210
0.0
220
0.0
230
1.0
 40
0.9702875252
 41
5.512866274279089
 42
7.053504340080098
  0
LINE
  5
3C1
330
1F
100
AcDbEntity
  8
1
  6
SLD-Сплошная
100
AcDbLine
 10
893.8052878198
 20
1438.6790893886
 30
0.0
 11
893.5671281017
 21
1438.6790893886
 31
0.0
  0
LINE
  5
3C2
330
1F
100
AcDbEntity
  8
1
  6
SLD-Сплошная
100
AcDbLine
 10
893.5671281017
 20
1438.6790893886
 30
0.0
 11
892.6789476089
 21
1439.5672698815
 31
0.0
  0
LINE
  5
3C3
330
1F
100
AcDbEntity
  8
1
  6
SLD-Сплошная
100
AcDbLine
 10
893.0721533549
 20
1441.7456762314
 30
0.0
 11
893.0721533549
 21
1441.5075165134
 31
0.0
  0
LINE
  5
3C4
330
1F
100
AcDbEntity
  8
1
  6
SLD-Сплошная
100
AcDbLine
 10
893.0721533549
 20
1441.5075165134
 30
0.0
 11
892.1839728621
 21
1440.6193360205
 31
0.0
  0
LINE
  5
3C5
330
1F
100
AcDbEntity
  8
1
  6
SLD-Сплошная
100
AcDbLine
 10
890.0055665121
 20
1438.6790893886
 30
0.0
 11
890.2437262302
 21
1438.6790893886
 31
0.0
  0
LINE
  5
3C6
330
1F
100
AcDbEntity
  8
1
  6
SLD-Сплошная
100
AcDbLine
 10
891.131906723
 20
1439.5672698815
 30
0.0
 11
890.2437262302
 21
1438.6790893886
 31
0.0
  0
LINE
  5
3C7
330
1F
100
AcDbEntity
  8
1
  6
SLD-Сплошная
100
AcDbLine
 10
893.8052878198
 20
1441.0125417665
 30
0.0
 11
893.5671281017
 21
1441.0125417665
 31
0.0
  0
LINE
  5
3C8
330
1F
100
AcDbEntity
  8
1
  6
SLD-Сплошная
100
AcDbLine
 10
892.6789476089
 20
1440.1243612737
 30
0.0
 11
893.5671281017
 21
1441.0125417665
 31
0.0
  0
LINE
  5
3C9
330
1F
100
AcDbEntity
  8
1
  6
SLD-Сплошная
100
AcDbLine
 10
893.0721533549
 20
1437.9459549238
 30
0.0
 11
893.0721533549
 21
1438.1841146418
 31
0.0
  0
LINE
  5
3CA
330
1F
100
AcDbEntity
  8
1
  6
SLD-Сплошная
100
AcDbLine
 10
892.1839728621
 20
1439.0722951346
 30
0.0
 11
893.0721533549
 21
1438.1841146418
 31
0.0
  0
LINE
  5
3CB
330
1F
100
AcDbEntity
  8
1
  6
SLD-Сплошная
100
AcDbLine
 10
890.738700977
 20
1437.9459549238
 30
0.0
 11
890.738700977
 21
1438.1841146418
 31
0.0
  0
LINE
  5
3CC
330
1F
100
AcDbEntity
  8
1
  6
SLD-Сплошная
100
AcDbLine
 10
890.738700977
 20
1438.1841146418
 30
0.0
 11
891.6268814698
 21
1439.0722951346
 31
0.0
  0
LINE
  5
3CD
330
1F
100
AcDbEntity
  8
1
  6
SLD-Сплошная
100
AcDbLine
 10
890.738700977
 20
1441.7456762314
 30
0.0
 11
890.738700977
 21
1441.5075165134
 31
0.0
  0
LINE
  5
3CE
330
1F
100
AcDbEntity
  8
1
  6
SLD-Сплошная
100
AcDbLine
 10
891.6268814698
 20
1440.6193360205
 30
0.0
 11
890.738700977
 21
1441.5075165134
 31
0.0
  0
LINE
  5
3CF
330
1F
100
AcDbEntity
  8
1
  6
SLD-Сплошная
100
AcDbLine
 10
890.0055665121
 20
1441.0125417665
 30
0.0
 11
890.2437262302
 21
1441.0125417665
 31
0.0
  0
LINE
  5
3D0
330
1F
100
AcDbEntity
  8
1
  6
SLD-Сплошная
100
AcDbLine
 10
890.2437262302
 20
1441.0125417665
 30
0.0
 11
891.131906723
 21
1440.1243612737
 31
0.0
  0
LINE
  5
3D1
330
1F
100
AcDbEntity
  8
1
  6
SLD-Сплошная
100
AcDbLine
 10
893.0721533549
 20
1438.1841146418
 30
0.0
 11
893.5671281017
 21
1438.6790893886
 31
0.0
  0
LINE
  5
3D2
330
1F
100
AcDbEntity
  8
1
  6
SLD-Сплошная
100
AcDbLine
 10
890.738700977
 20
1441.5075165134
 30
0.0
 11
890.2437262302
 21
1441.0125417665
 31
0.0
  0
LINE
  5
3D3
330
1F
100
AcDbEntity
  8
1
  6
SLD-Сплошная
100
AcDbLine
 10
893.5671281017
 20
1441.0125417665
 30
0.0
 11
893.0721533549
 21
1441.5075165134
 31
0.0
  0
LINE
  5
3D4
330
1F
100
AcDbEntity
  8
1
  6
SLD-Сплошная
100
AcDbLine
 10
890.2437262302
 20
1438.6790893886
 30
0.0
 11
890.738700977
 21
1438.1841146418
 31
0.0
  0
CIRCLE
  5
3D5
330
1F
100
AcDbEntity
  8
1
  6
SLD-Сплошная
100
AcDbCircle
 10
891.9054271659
 20
1439.8458155776
 30
0.0
 40
5.000000000000121
  0
ARC
  5
3D6
330
1F
100
AcDbEntity
  8
1
  6
SLD-Сплошная
100
AcDbCircle
 10
1009.1506951482
 20
1457.0910835598
 30
0.0
 40
26.56195549748926
100
AcDbArc
 50
223.8816987745
 51
226.1183012255
  0
ARC
  5
3D7
330
1F
100
AcDbEntity
  8
1
  6
SLD-Сплошная
100
AcDbCircle
 10
975.6640129297
 20
1455.8588385516
 30
0.0
 40
23.4119119165502
100
AcDbArc
 50
310.0824770914
 51
312.9865596106
  0
SPLINE
  5
3D8
330
1F
100
AcDbEntity
  8
1
  6
SLD-Сплошная
100
AcDbSpline
210
0.0
220
0.0
230
1.0
 70
     8
 71
     3
 72
    12
 73
     8
 74
     0
 42
0.00000001
 43
0.00000001
 40
0.0
 40
0.0
 40
0.0
 40
0.0
 40
0.2187857887072029
 40
0.4375776469534793
 40
0.6562353658864007
 40
0.8748419359491081
 40
1.0
 40
1.0
 40
1.0
 40
1.0
 10
992.1839728620752
 20
1438.732705083768
 30
0.0
 10
992.1486474652063
 20
1438.75966850984
 30
0.0
 10
992.0779956914738
 20
1438.813596110001
 30
0.0
 10
991.9440324628326
 20
1438.846191998974
 30
0.0
 10
991.8084898365528
 20
1438.836842867732
 30
0.0
 10
991.6995920322588
 20
1438.79296410965
 30
0.0
 10
991.6462883214529
 20
1438.748788551364
 30
0.0
 10
991.6268814698191
 20
1438.732705083768
 30
0.0
  0
ARC
  5
3D9
330
1F
100
AcDbEntity
  8
1
  6
SLD-Сплошная
100
AcDbCircle
 10
1008.1468414022
 20
1455.8588385516
 30
0.0
 40
23.41191191650378
100
AcDbArc
 50
227.0134403894
 51
229.9175229087
  0
ARC
  5
3DA
330
1F
100
AcDbEntity
  8
1
  6
SLD-Сплошная
100
AcDbCircle
 10
974.6601591836
 20
1457.09108356
 30
0.0
 40
26.5619554977014
100
AcDbArc
 50
313.8816987745
 51
316.1183012255
  0
ARC
  5
3DB
330
1F
100
AcDbEntity
  8
1
  6
SLD-Сплошная
100
AcDbCircle
 10
975.8924041924
 20
1423.6044013417
 30
0.0
 40
23.41191191598241
100
AcDbArc
 50
40.0824770913
 51
42.9865596106
  0
SPLINE
  5
3DC
330
1F
100
AcDbEntity
  8
1
  6
SLD-Сплошная
100
AcDbSpline
210
0.0
220
0.0
230
1.0
 70
     8
 71
     3
 72
    12
 73
     8
 74
     0
 42
0.00000001
 43
0.00000001
 40
0.0
 40
0.0
 40
0.0
 40
0.0
 40
0.2187857887072079
 40
0.4375776469534822
 40
0.6562353658863856
 40
0.8748419359491009
 40
1.0
 40
1.0
 40
1.0
 40
1.0
 10
993.0185376597593
 20
1440.124361273708
 30
0.0
 10
992.9915742336873
 20
1440.089035876839
 30
0.0
 10
992.9376466335258
 20
1440.018384103107
 30
0.0
 10
992.9050507445527
 20
1439.884420874466
 30
0.0
 10
992.9143998757947
 20
1439.748878248186
 30
0.0
 10
992.9582786338766
 20
1439.639980443892
 30
0.0
 10
993.002454192163
 20
1439.586676733086
 30
0.0
 10
993.0185376597593
 20
1439.567269881452
 30
0.0
  0
ARC
  5
3DD
330
1F
100
AcDbEntity
  8
1
  6
SLD-Сплошная
100
AcDbCircle
 10
975.8924041924
 20
1456.0872298135
 30
0.0
 40
23.41191191598265
100
AcDbArc
 50
317.0134403894
 51
319.9175229087
  0
ARC
  5
3DE
330
1F
100
AcDbEntity
  8
1
  6
SLD-Сплошная
100
AcDbCircle
 10
974.660159184
 20
1422.6005475957
 30
0.0
 40
26.56195549702908
100
AcDbArc
 50
43.8816987745
 51
46.1183012256
  0
ARC
  5
3DF
330
1F
100
AcDbEntity
  8
1
  6
SLD-Сплошная
100
AcDbCircle
 10
1008.146841402
 20
1423.8327926038
 30
0.0
 40
23.41191191616834
100
AcDbArc
 50
130.0824770913
 51
132.9865596106
  0
SPLINE
  5
3E0
330
1F
100
AcDbEntity
  8
1
  6
SLD-Сплошная
100
AcDbSpline
210
0.0
220
0.0
230
1.0
 70
     8
 71
     3
 72
    12
 73
     8
 74
     0
 42
0.00000001
 43
0.00000001
 40
0.0
 40
0.0
 40
0.0
 40
0.0
 40
0.2187857887071742
 40
0.4375776469534876
 40
0.6562353658863623
 40
0.8748419359491093
 40
1.0
 40
1.0
 40
1.0
 40
1.0
 10
991.6268814698191
 20
1440.958926071392
 30
0.0
 10
991.662206866688
 20
1440.93196264532
 30
0.0
 10
991.7328586404205
 20
1440.878035045159
 30
0.0
 10
991.8668218690615
 20
1440.845439156186
 30
0.0
 10
992.0023644953415
 20
1440.854788287428
 30
0.0
 10
992.1112622996354
 20
1440.898667045509
 30
0.0
 10
992.1645660104414
 20
1440.942842603796
 30
0.0
 10
992.1839728620752
 20
1440.958926071392
 30
0.0
  0
ARC
  5
3E1
330
1F
100
AcDbEntity
  8
1
  6
SLD-Сплошная
100
AcDbCircle
 10
975.6640129299
 20
1423.8327926038
 30
0.0
 40
23.41191191621443
100
AcDbArc
 50
47.0134403894
 51
49.9175229087
  0
ARC
  5
3E2
330
1F
100
AcDbEntity
  8
1
  6
SLD-Сплошная
100
AcDbCircle
 10
1009.1506951478
 20
1422.6005475957
 30
0.0
 40
26.56195549695903
100
AcDbArc
 50
133.8816987744
 51
136.1183012256
  0
ARC
  5
3E3
330
1F
100
AcDbEntity
  8
1
  6
SLD-Сплошная
100
AcDbCircle
 10
1007.9184501395
 20
1456.0872298135
 30
0.0
 40
23.41191191596515
100
AcDbArc
 50
220.0824770913
 51
222.9865596106
  0
SPLINE
  5
3E4
330
1F
100
AcDbEntity
  8
1
  6
SLD-Сплошная
100
AcDbSpline
210
0.0
220
0.0
230
1.0
 70
     8
 71
     3
 72
    12
 73
     8
 74
     0
 42
0.00000001
 43
0.00000001
 40
0.0
 40
0.0
 40
0.0
 40
0.0
 40
0.2187857887071884
 40
0.4375776469534731
 40
0.6562353658863888
 40
0.8748419359491165
 40
1.0
 40
1.0
 40
1.0
 40
1.0
 10
990.7923166721348
 20
1439.567269881452
 30
0.0
 10
990.819280098207
 20
1439.602595278321
 30
0.0
 10
990.8732076983684
 20
1439.673247052053
 30
0.0
 10
990.9058035873414
 20
1439.807210280694
 30
0.0
 10
990.8964544560994
 20
1439.942752906974
 30
0.0
 10
990.8525756980175
 20
1440.051650711268
 30
0.0
 10
990.808400139731
 20
1440.104954422074
 30
0.0
 10
990.7923166721348
 20
1440.124361273708
 30
0.0
  0
ARC
  5
3E5
330
1F
100
AcDbEntity
  8
1
  6
SLD-Сплошная
100
AcDbCircle
 10
1007.9184501396
 20
1423.6044013416
 30
0.0
 40
23.41191191605355
100
AcDbArc
 50
137.0134403894
 51
139.9175229087
  0
CIRCLE
  5
3E6
330
1F
100
AcDbEntity
  8
1
  6
SLD-Сплошная
100
AcDbCircle
 10
991.9054271659
 20
1439.8458155776
 30
0.0
 40
3.499999999999948
  0
ELLIPSE
  5
3E7
330
1F
100
AcDbEntity
  8
1
  6
SLD-Сплошная
100
AcDbEllipse
 10
991.9054271659
 20
1438.7764287963
 30
0.0
 11
0.0
 21
0.4122489361056978
 31
0.0
210
0.0
220
0.0
230
1.0
 40
0.9702875252
 41
5.512866274278359
 42
7.053504340080828
  0
ELLIPSE
  5
3E8
330
1F
100
AcDbEntity
  8
1
  6
SLD-Сплошная
100
AcDbEllipse
 10
992.9748139472
 20
1439.8458155776
 30
0.0
 11
-0.4122489361055841
 21
0.0
 31
0.0
210
0.0
220
0.0
230
1.0
 40
0.9702875252
 41
5.512866274278163
 42
7.053504340081024
  0
ELLIPSE
  5
3E9
330
1F
100
AcDbEntity
  8
1
  6
SLD-Сплошная
100
AcDbEllipse
 10
990.8360403847
 20
1439.8458155776
 30
0.0
 11
0.4122489361055841
 21
0.0
 31
0.0
210
0.0
220
0.0
230
1.0
 40
0.9702875252
 41
5.512866274278355
 42
7.053504340080831
  0
ELLIPSE
  5
3EA
330
1F
100
AcDbEntity
  8
1
  6
SLD-Сплошная
100
AcDbEllipse
 10
991.9054271659
 20
1440.9152023589
 30
0.0
 11
0.0
 21
-0.4122489361056978
 31
0.0
210
0.0
220
0.0
230
1.0
 40
0.9702875252
 41
5.512866274278359
 42
7.053504340080828
  0
LINE
  5
3EB
330
1F
100
AcDbEntity
  8
1
  6
SLD-Сплошная
100
AcDbLine
 10
990.0055665121
 20
1441.0125417665
 30
0.0
 11
990.2437262302
 21
1441.0125417665
 31
0.0
  0
LINE
  5
3EC
330
1F
100
AcDbEntity
  8
1
  6
SLD-Сплошная
100
AcDbLine
 10
990.2437262302
 20
1441.0125417665
 30
0.0
 11
991.131906723
 21
1440.1243612737
 31
0.0
  0
LINE
  5
3ED
330
1F
100
AcDbEntity
  8
1
  6
SLD-Сплошная
100
AcDbLine
 10
990.738700977
 20
1441.7456762314
 30
0.0
 11
990.738700977
 21
1441.5075165134
 31
0.0
  0
LINE
  5
3EE
330
1F
100
AcDbEntity
  8
1
  6
SLD-Сплошная
100
AcDbLine
 10
991.6268814698
 20
1440.6193360205
 30
0.0
 11
990.738700977
 21
1441.5075165134
 31
0.0
  0
LINE
  5
3EF
330
1F
100
AcDbEntity
  8
1
  6
SLD-Сплошная
100
AcDbLine
 10
990.738700977
 20
1437.9459549238
 30
0.0
 11
990.738700977
 21
1438.1841146418
 31
0.0
  0
LINE
  5
3F0
330
1F
100
AcDbEntity
  8
1
  6
SLD-Сплошная
100
AcDbLine
 10
990.738700977
 20
1438.1841146418
 30
0.0
 11
991.6268814698
 21
1439.0722951346
 31
0.0
  0
LINE
  5
3F1
330
1F
100
AcDbEntity
  8
1
  6
SLD-Сплошная
100
AcDbLine
 10
993.0721533549
 20
1437.9459549238
 30
0.0
 11
993.0721533549
 21
1438.1841146418
 31
0.0
  0
LINE
  5
3F2
330
1F
100
AcDbEntity
  8
1
  6
SLD-Сплошная
100
AcDbLine
 10
992.1839728621
 20
1439.0722951346
 30
0.0
 11
993.0721533549
 21
1438.1841146418
 31
0.0
  0
LINE
  5
3F3
330
1F
100
AcDbEntity
  8
1
  6
SLD-Сплошная
100
AcDbLine
 10
990.0055665121
 20
1438.6790893886
 30
0.0
 11
990.2437262302
 21
1438.6790893886
 31
0.0
  0
LINE
  5
3F4
330
1F
100
AcDbEntity
  8
1
  6
SLD-Сплошная
100
AcDbLine
 10
991.131906723
 20
1439.5672698815
 30
0.0
 11
990.2437262302
 21
1438.6790893886
 31
0.0
  0
LINE
  5
3F5
330
1F
100
AcDbEntity
  8
1
  6
SLD-Сплошная
100
AcDbLine
 10
993.0721533549
 20
1441.7456762314
 30
0.0
 11
993.0721533549
 21
1441.5075165134
 31
0.0
  0
LINE
  5
3F6
330
1F
100
AcDbEntity
  8
1
  6
SLD-Сплошная
100
AcDbLine
 10
993.0721533549
 20
1441.5075165134
 30
0.0
 11
992.1839728621
 21
1440.6193360205
 31
0.0
  0
LINE
  5
3F7
330
1F
100
AcDbEntity
  8
1
  6
SLD-Сплошная
100
AcDbLine
 10
993.8052878198
 20
1441.0125417665
 30
0.0
 11
993.5671281017
 21
1441.0125417665
 31
0.0
  0
LINE
  5
3F8
330
1F
100
AcDbEntity
  8
1
  6
SLD-Сплошная
100
AcDbLine
 10
992.6789476089
 20
1440.1243612737
 30
0.0
 11
993.5671281017
 21
1441.0125417665
 31
0.0
  0
LINE
  5
3F9
330
1F
100
AcDbEntity
  8
1
  6
SLD-Сплошная
100
AcDbLine
 10
993.8052878198
 20
1438.6790893886
 30
0.0
 11
993.5671281017
 21
1438.6790893886
 31
0.0
  0
LINE
  5
3FA
330
1F
100
AcDbEntity
  8
1
  6
SLD-Сплошная
100
AcDbLine
 10
993.5671281017
 20
1438.6790893886
 30
0.0
 11
992.6789476089
 21
1439.5672698815
 31
0.0
  0
LINE
  5
3FB
330
1F
100
AcDbEntity
  8
1
  6
SLD-Сплошная
100
AcDbLine
 10
993.0721533549
 20
1438.1841146418
 30
0.0
 11
993.5671281017
 21
1438.6790893886
 31
0.0
  0
LINE
  5
3FC
330
1F
100
AcDbEntity
  8
1
  6
SLD-Сплошная
100
AcDbLine
 10
990.738700977
 20
1441.5075165134
 30
0.0
 11
990.2437262302
 21
1441.0125417665
 31
0.0
  0
LINE
  5
3FD
330
1F
100
AcDbEntity
  8
1
  6
SLD-Сплошная
100
AcDbLine
 10
990.2437262302
 20
1438.6790893886
 30
0.0
 11
990.738700977
 21
1438.1841146418
 31
0.0
  0
LINE
  5
3FE
330
1F
100
AcDbEntity
  8
1
  6
SLD-Сплошная
100
AcDbLine
 10
993.5671281017
 20
1441.0125417665
 30
0.0
 11
993.0721533549
 21
1441.5075165134
 31
0.0
  0
CIRCLE
  5
3FF
330
1F
100
AcDbEntity
  8
1
  6
SLD-Сплошная
100
AcDbCircle
 10
991.9054271659
 20
1439.8458155776
 30
0.0
 40
4.99999999999996
  0
ARC
  5
400
330
1F
100
AcDbEntity
  8
1
  6
SLD-Сплошная
100
AcDbCircle
 10
574.6601591852
 20
1347.0910835584
 30
0.0
 40
26.56195549543732
100
AcDbArc
 50
313.8816987744
 51
316.1183012256
  0
ARC
  5
401
330
1F
100
AcDbEntity
  8
1
  6
SLD-Сплошная
100
AcDbCircle
 10
575.8924041921
 20
1313.6044013414
 30
0.0
 40
23.41191191635741
100
AcDbArc
 50
40.0824770913
 51
42.9865596106
  0
SPLINE
  5
402
330
1F
100
AcDbEntity
  8
1
  6
SLD-Сплошная
100
AcDbSpline
210
0.0
220
0.0
230
1.0
 70
     8
 71
     3
 72
    12
 73
     8
 74
     0
 42
0.00000001
 43
0.00000001
 40
0.0
 40
0.0
 40
0.0
 40
0.0
 40
0.2187857887071841
 40
0.4375776469534907
 40
0.6562353658863597
 40
0.8748419359491056
 40
1.0
 40
1.0
 40
1.0
 40
1.0
 10
593.0185376597593
 20
1330.124361273708
 30
0.0
 10
592.9915742336872
 20
1330.089035876839
 30
0.0
 10
592.9376466335257
 20
1330.018384103107
 30
0.0
 10
592.9050507445527
 20
1329.884420874465
 30
0.0
 10
592.9143998757949
 20
1329.748878248186
 30
0.0
 10
592.9582786338765
 20
1329.639980443891
 30
0.0
 10
593.002454192163
 20
1329.586676733086
 30
0.0
 10
593.0185376597593
 20
1329.567269881452
 30
0.0
  0
ARC
  5
403
330
1F
100
AcDbEntity
  8
1
  6
SLD-Сплошная
100
AcDbCircle
 10
575.892404192
 20
1346.0872298138
 30
0.0
 40
23.41191191645603
100
AcDbArc
 50
317.0134403894
 51
319.9175229087
  0
ARC
  5
404
330
1F
100
AcDbEntity
  8
1
  6
SLD-Сплошная
100
AcDbCircle
 10
574.6601591854
 20
1312.6005475971
 30
0.0
 40
26.56195549505845
100
AcDbArc
 50
43.8816987744
 51
46.1183012256
  0
ARC
  5
405
330
1F
100
AcDbEntity
  8
1
  6
SLD-Сплошная
100
AcDbCircle
 10
608.1468414023
 20
1313.8327926035
 30
0.0
 40
23.41191191666318
100
AcDbArc
 50
130.0824770913
 51
132.9865596105
  0
SPLINE
  5
406
330
1F
100
AcDbEntity
  8
1
  6
SLD-Сплошная
100
AcDbSpline
210
0.0
220
0.0
230
1.0
 70
     8
 71
     3
 72
    12
 73
     8
 74
     0
 42
0.00000001
 43
0.00000001
 40
0.0
 40
0.0
 40
0.0
 40
0.0
 40
0.2187857887071623
 40
0.4375776469534822
 40
0.6562353658863613
 40
0.8748419359490999
 40
1.0
 40
1.0
 40
1.0
 40
1.0
 10
591.6268814698191
 20
1330.958926071392
 30
0.0
 10
591.6622068666879
 20
1330.93196264532
 30
0.0
 10
591.7328586404203
 20
1330.878035045159
 30
0.0
 10
591.8668218690615
 20
1330.845439156185
 30
0.0
 10
592.0023644953413
 20
1330.854788287427
 30
0.0
 10
592.1112622996354
 20
1330.898667045509
 30
0.0
 10
592.1645660104413
 20
1330.942842603796
 30
0.0
 10
592.183972862075
 20
1330.958926071392
 30
0.0
  0
ARC
  5
407
330
1F
100
AcDbEntity
  8
1
  6
SLD-Сплошная
100
AcDbCircle
 10
575.6640129296
 20
1313.8327926035
 30
0.0
 40
23.41191191666229
100
AcDbArc
 50
47.0134403895
 51
49.9175229087
  0
ARC
  5
408
330
1F
100
AcDbEntity
  8
1
  6
SLD-Сплошная
100
AcDbCircle
 10
609.1506951463
 20
1312.6005475973
 30
0.0
 40
26.56195549479598
100
AcDbArc
 50
133.8816987744
 51
136.1183012256
  0
ARC
  5
409
330
1F
100
AcDbEntity
  8
1
  6
SLD-Сплошная
100
AcDbCircle
 10
607.91845014
 20
1346.0872298139
 30
0.0
 40
23.41191191656221
100
AcDbArc
 50
220.0824770913
 51
222.9865596106
  0
SPLINE
  5
40A
330
1F
100
AcDbEntity
  8
1
  6
SLD-Сплошная
100
AcDbSpline
210
0.0
220
0.0
230
1.0
 70
     8
 71
     3
 72
    12
 73
     8
 74
     0
 42
0.00000001
 43
0.00000001
 40
0.0
 40
0.0
 40
0.0
 40
0.0
 40
0.2187857887072001
 40
0.4375776469534771
 40
0.6562353658864017
 40
0.8748419359490995
 40
1.0
 40
1.0
 40
1.0
 40
1.0
 10
590.7923166721347
 20
1329.567269881452
 30
0.0
 10
590.8192800982068
 20
1329.602595278321
 30
0.0
 10
590.8732076983683
 20
1329.673247052053
 30
0.0
 10
590.9058035873414
 20
1329.807210280694
 30
0.0
 10
590.8964544560993
 20
1329.942752906974
 30
0.0
 10
590.8525756980176
 20
1330.051650711268
 30
0.0
 10
590.8084001397311
 20
1330.104954422074
 30
0.0
 10
590.7923166721348
 20
1330.124361273708
 30
0.0
  0
ARC
  5
40B
330
1F
100
AcDbEntity
  8
1
  6
SLD-Сплошная
100
AcDbCircle
 10
607.9184501396
 20
1313.6044013416
 30
0.0
 40
23.41191191607373
100
AcDbArc
 50
137.0134403894
 51
139.9175229087
  0
ARC
  5
40C
330
1F
100
AcDbEntity
  8
1
  6
SLD-Сплошная
100
AcDbCircle
 10
609.1506951465
 20
1347.0910835582
 30
0.0
 40
26.56195549517486
100
AcDbArc
 50
223.8816987744
 51
226.1183012256
  0
ARC
  5
40D
330
1F
100
AcDbEntity
  8
1
  6
SLD-Сплошная
100
AcDbCircle
 10
575.6640129294
 20
1345.8588385519
 30
0.0
 40
23.41191191690304
100
AcDbArc
 50
310.0824770914
 51
312.9865596105
  0
SPLINE
  5
40E
330
1F
100
AcDbEntity
  8
1
  6
SLD-Сплошная
100
AcDbSpline
210
0.0
220
0.0
230
1.0
 70
     8
 71
     3
 72
    12
 73
     8
 74
     0
 42
0.00000001
 43
0.00000001
 40
0.0
 40
0.0
 40
0.0
 40
0.0
 40
0.218785788707222
 40
0.4375776469534855
 40
0.6562353658864003
 40
0.8748419359491052
 40
1.0
 40
1.0
 40
1.0
 40
1.0
 10
592.183972862075
 20
1328.732705083767
 30
0.0
 10
592.1486474652061
 20
1328.759668509839
 30
0.0
 10
592.0779956914738
 20
1328.813596110001
 30
0.0
 10
591.9440324628326
 20
1328.846191998974
 30
0.0
 10
591.8084898365528
 20
1328.836842867732
 30
0.0
 10
591.6995920322588
 20
1328.79296410965
 30
0.0
 10
591.6462883214529
 20
1328.748788551364
 30
0.0
 10
591.6268814698191
 20
1328.732705083767
 30
0.0
  0
ARC
  5
40F
330
1F
100
AcDbEntity
  8
1
  6
SLD-Сплошная
100
AcDbCircle
 10
608.1468414024
 20
1345.8588385518
 30
0.0
 40
23.41191191682557
100
AcDbArc
 50
227.0134403895
 51
229.9175229086
  0
CIRCLE
  5
410
330
1F
100
AcDbEntity
  8
1
  6
SLD-Сплошная
100
AcDbCircle
 10
591.9054271659
 20
1329.8458155776
 30
0.0
 40
3.500000000000109
  0
ELLIPSE
  5
411
330
1F
100
AcDbEntity
  8
1
  6
SLD-Сплошная
100
AcDbEllipse
 10
592.9748139472
 20
1329.8458155776
 30
0.0
 11
-0.4122489361056978
 21
0.0
 31
0.0
210
0.0
220
0.0
230
1.0
 40
0.9702875252
 41
5.512866274279008
 42
7.053504340080994
  0
ELLIPSE
  5
412
330
1F
100
AcDbEntity
  8
1
  6
SLD-Сплошная
100
AcDbEllipse
 10
591.9054271659
 20
1330.9152023589
 30
0.0
 11
0.0
 21
-0.4122489361054704
 31
0.0
210
0.0
220
0.0
230
1.0
 40
0.9702875252
 41
5.51286627427916
 42
7.053504340079822
  0
ELLIPSE
  5
413
330
1F
100
AcDbEntity
  8
1
  6
SLD-Сплошная
100
AcDbEllipse
 10
590.8360403847
 20
1329.8458155776
 30
0.0
 11
0.4122489361056978
 21
0.0
 31
0.0
210
0.0
220
0.0
230
1.0
 40
0.9702875252
 41
5.51286627427876
 42
7.05350434007961
  0
ELLIPSE
  5
414
330
1F
100
AcDbEntity
  8
1
  6
SLD-Сплошная
100
AcDbEllipse
 10
591.9054271659
 20
1328.7764287963
 30
0.0
 11
0.0
 21
0.4122489361056978
 31
0.0
210
0.0
220
0.0
230
1.0
 40
0.9702875252
 41
5.512866274278947
 42
7.053504340080444
  0
LINE
  5
415
330
1F
100
AcDbEntity
  8
1
  6
SLD-Сплошная
100
AcDbLine
 10
593.0721533549
 20
1327.9459549238
 30
0.0
 11
593.0721533549
 21
1328.1841146418
 31
0.0
  0
LINE
  5
416
330
1F
100
AcDbEntity
  8
1
  6
SLD-Сплошная
100
AcDbLine
 10
592.1839728621
 20
1329.0722951346
 30
0.0
 11
593.0721533549
 21
1328.1841146418
 31
0.0
  0
LINE
  5
417
330
1F
100
AcDbEntity
  8
1
  6
SLD-Сплошная
100
AcDbLine
 10
590.0055665121
 20
1328.6790893886
 30
0.0
 11
590.2437262302
 21
1328.6790893886
 31
0.0
  0
LINE
  5
418
330
1F
100
AcDbEntity
  8
1
  6
SLD-Сплошная
100
AcDbLine
 10
591.131906723
 20
1329.5672698815
 30
0.0
 11
590.2437262302
 21
1328.6790893886
 31
0.0
  0
LINE
  5
419
330
1F
100
AcDbEntity
  8
1
  6
SLD-Сплошная
100
AcDbLine
 10
593.8052878198
 20
1331.0125417665
 30
0.0
 11
593.5671281017
 21
1331.0125417665
 31
0.0
  0
LINE
  5
41A
330
1F
100
AcDbEntity
  8
1
  6
SLD-Сплошная
100
AcDbLine
 10
592.6789476089
 20
1330.1243612737
 30
0.0
 11
593.5671281017
 21
1331.0125417665
 31
0.0
  0
LINE
  5
41B
330
1F
100
AcDbEntity
  8
1
  6
SLD-Сплошная
100
AcDbLine
 10
590.738700977
 20
1331.7456762314
 30
0.0
 11
590.738700977
 21
1331.5075165134
 31
0.0
  0
LINE
  5
41C
330
1F
100
AcDbEntity
  8
1
  6
SLD-Сплошная
100
AcDbLine
 10
591.6268814698
 20
1330.6193360205
 30
0.0
 11
590.738700977
 21
1331.5075165134
 31
0.0
  0
LINE
  5
41D
330
1F
100
AcDbEntity
  8
1
  6
SLD-Сплошная
100
AcDbLine
 10
590.738700977
 20
1327.9459549238
 30
0.0
 11
590.738700977
 21
1328.1841146418
 31
0.0
  0
LINE
  5
41E
330
1F
100
AcDbEntity
  8
1
  6
SLD-Сплошная
100
AcDbLine
 10
590.738700977
 20
1328.1841146418
 30
0.0
 11
591.6268814698
 21
1329.0722951346
 31
0.0
  0
LINE
  5
41F
330
1F
100
AcDbEntity
  8
1
  6
SLD-Сплошная
100
AcDbLine
 10
593.8052878198
 20
1328.6790893886
 30
0.0
 11
593.5671281017
 21
1328.6790893886
 31
0.0
  0
LINE
  5
420
330
1F
100
AcDbEntity
  8
1
  6
SLD-Сплошная
100
AcDbLine
 10
593.5671281017
 20
1328.6790893886
 30
0.0
 11
592.6789476089
 21
1329.5672698815
 31
0.0
  0
LINE
  5
421
330
1F
100
AcDbEntity
  8
1
  6
SLD-Сплошная
100
AcDbLine
 10
590.0055665121
 20
1331.0125417665
 30
0.0
 11
590.2437262302
 21
1331.0125417665
 31
0.0
  0
LINE
  5
422
330
1F
100
AcDbEntity
  8
1
  6
SLD-Сплошная
100
AcDbLine
 10
590.2437262302
 20
1331.0125417665
 30
0.0
 11
591.131906723
 21
1330.1243612737
 31
0.0
  0
LINE
  5
423
330
1F
100
AcDbEntity
  8
1
  6
SLD-Сплошная
100
AcDbLine
 10
593.0721533549
 20
1331.7456762314
 30
0.0
 11
593.0721533549
 21
1331.5075165134
 31
0.0
  0
LINE
  5
424
330
1F
100
AcDbEntity
  8
1
  6
SLD-Сплошная
100
AcDbLine
 10
593.0721533549
 20
1331.5075165134
 30
0.0
 11
592.1839728621
 21
1330.6193360205
 31
0.0
  0
LINE
  5
425
330
1F
100
AcDbEntity
  8
1
  6
SLD-Сплошная
100
AcDbLine
 10
593.0721533549
 20
1328.1841146418
 30
0.0
 11
593.5671281017
 21
1328.6790893886
 31
0.0
  0
LINE
  5
426
330
1F
100
AcDbEntity
  8
1
  6
SLD-Сплошная
100
AcDbLine
 10
593.5671281017
 20
1331.0125417665
 30
0.0
 11
593.0721533549
 21
1331.5075165134
 31
0.0
  0
LINE
  5
427
330
1F
100
AcDbEntity
  8
1
  6
SLD-Сплошная
100
AcDbLine
 10
590.2437262302
 20
1328.6790893886
 30
0.0
 11
590.738700977
 21
1328.1841146418
 31
0.0
  0
LINE
  5
428
330
1F
100
AcDbEntity
  8
1
  6
SLD-Сплошная
100
AcDbLine
 10
590.738700977
 20
1331.5075165134
 30
0.0
 11
590.2437262302
 21
1331.0125417665
 31
0.0
  0
CIRCLE
  5
429
330
1F
100
AcDbEntity
  8
1
  6
SLD-Сплошная
100
AcDbCircle
 10
591.9054271659
 20
1329.8458155776
 30
0.0
 40
5.000000000000121
  0
ARC
  5
42A
330
1F
100
AcDbEntity
  8
1
  6
SLD-Сплошная
100
AcDbCircle
 10
709.1506951479
 20
1457.0910835595
 30
0.0
 40
26.56195549707775
100
AcDbArc
 50
223.8816987745
 51
226.1183012255
  0
ARC
  5
42B
330
1F
100
AcDbEntity
  8
1
  6
SLD-Сплошная
100
AcDbCircle
 10
675.6640129298
 20
1455.8588385515
 30
0.0
 40
23.4119119164033
100
AcDbArc
 50
310.0824770913
 51
312.9865596106
  0
SPLINE
  5
42C
330
1F
100
AcDbEntity
  8
1
  6
SLD-Сплошная
100
AcDbSpline
210
0.0
220
0.0
230
1.0
 70
     8
 71
     3
 72
    12
 73
     8
 74
     0
 42
0.00000001
 43
0.00000001
 40
0.0
 40
0.0
 40
0.0
 40
0.0
 40
0.2187857887072033
 40
0.4375776469534801
 40
0.6562353658863794
 40
0.874841935949108
 40
1.0
 40
1.0
 40
1.0
 40
1.0
 10
692.1839728620752
 20
1438.732705083768
 30
0.0
 10
692.1486474652062
 20
1438.75966850984
 30
0.0
 10
692.0779956914738
 20
1438.813596110001
 30
0.0
 10
691.9440324628328
 20
1438.846191998974
 30
0.0
 10
691.8084898365528
 20
1438.836842867732
 30
0.0
 10
691.6995920322588
 20
1438.79296410965
 30
0.0
 10
691.646288321453
 20
1438.748788551364
 30
0.0
 10
691.6268814698191
 20
1438.732705083768
 30
0.0
  0
ARC
  5
42D
330
1F
100
AcDbEntity
  8
1
  6
SLD-Сплошная
100
AcDbCircle
 10
708.146841402
 20
1455.8588385514
 30
0.0
 40
23.41191191622633
100
AcDbArc
 50
227.0134403894
 51
229.9175229087
  0
ARC
  5
42E
330
1F
100
AcDbEntity
  8
1
  6
SLD-Сплошная
100
AcDbCircle
 10
674.660159184
 20
1457.0910835595
 30
0.0
 40
26.5619554971111
100
AcDbArc
 50
313.8816987745
 51
316.1183012256
  0
ARC
  5
42F
330
1F
100
AcDbEntity
  8
1
  6
SLD-Сплошная
100
AcDbCircle
 10
675.8924041922
 20
1423.6044013416
 30
0.0
 40
23.4119119161214
100
AcDbArc
 50
40.0824770913
 51
42.9865596106
  0
SPLINE
  5
430
330
1F
100
AcDbEntity
  8
1
  6
SLD-Сплошная
100
AcDbSpline
210
0.0
220
0.0
230
1.0
 70
     8
 71
     3
 72
    12
 73
     8
 74
     0
 42
0.00000001
 43
0.00000001
 40
0.0
 40
0.0
 40
0.0
 40
0.0
 40
0.2187857887071986
 40
0.4375776469534816
 40
0.6562353658863895
 40
0.8748419359490992
 40
1.0
 40
1.0
 40
1.0
 40
1.0
 10
693.0185376597594
 20
1440.124361273708
 30
0.0
 10
692.9915742336873
 20
1440.089035876839
 30
0.0
 10
692.9376466335258
 20
1440.018384103107
 30
0.0
 10
692.9050507445527
 20
1439.884420874466
 30
0.0
 10
692.9143998757949
 20
1439.748878248186
 30
0.0
 10
692.9582786338766
 20
1439.639980443892
 30
0.0
 10
693.0024541921631
 20
1439.586676733086
 30
0.0
 10
693.0185376597594
 20
1439.567269881452
 30
0.0
  0
ARC
  5
431
330
1F
100
AcDbEntity
  8
1
  6
SLD-Сплошная
100
AcDbCircle
 10
675.8924041922
 20
1456.0872298136
 30
0.0
 40
23.41191191612171
100
AcDbArc
 50
317.0134403894
 51
319.9175229087
  0
ARC
  5
432
330
1F
100
AcDbEntity
  8
1
  6
SLD-Сплошная
100
AcDbCircle
 10
674.6601591847
 20
1422.6005475964
 30
0.0
 40
26.56195549605354
100
AcDbArc
 50
43.8816987744
 51
46.1183012256
  0
ARC
  5
433
330
1F
100
AcDbEntity
  8
1
  6
SLD-Сплошная
100
AcDbCircle
 10
708.1468414017
 20
1423.8327926042
 30
0.0
 40
23.41191191573336
100
AcDbArc
 50
130.0824770913
 51
132.9865596106
  0
SPLINE
  5
434
330
1F
100
AcDbEntity
  8
1
  6
SLD-Сплошная
100
AcDbSpline
210
0.0
220
0.0
230
1.0
 70
     8
 71
     3
 72
    12
 73
     8
 74
     0
 42
0.00000001
 43
0.00000001
 40
0.0
 40
0.0
 40
0.0
 40
0.0
 40
0.218785788707212
 40
0.4375776469534823
 40
0.6562353658864029
 40
0.874841935949109
 40
1.0
 40
1.0
 40
1.0
 40
1.0
 10
691.6268814698191
 20
1440.958926071392
 30
0.0
 10
691.662206866688
 20
1440.93196264532
 30
0.0
 10
691.7328586404204
 20
1440.878035045159
 30
0.0
 10
691.8668218690615
 20
1440.845439156186
 30
0.0
 10
692.0023644953415
 20
1440.854788287428
 30
0.0
 10
692.1112622996354
 20
1440.898667045509
 30
0.0
 10
692.1645660104411
 20
1440.942842603796
 30
0.0
 10
692.1839728620752
 20
1440.958926071392
 30
0.0
  0
ARC
  5
435
330
1F
100
AcDbEntity
  8
1
  6
SLD-Сплошная
100
AcDbCircle
 10
675.6640129302
 20
1423.8327926042
 30
0.0
 40
23.41191191573344
100
AcDbArc
 50
47.0134403894
 51
49.9175229087
  0
ARC
  5
436
330
1F
100
AcDbEntity
  8
1
  6
SLD-Сплошная
100
AcDbCircle
 10
709.1506951474
 20
1422.6005475961
 30
0.0
 40
26.56195549639152
100
AcDbArc
 50
133.8816987744
 51
136.1183012256
  0
ARC
  5
437
330
1F
100
AcDbEntity
  8
1
  6
SLD-Сплошная
100
AcDbCircle
 10
707.9184501397
 20
1456.0872298136
 30
0.0
 40
23.41191191622248
100
AcDbArc
 50
220.0824770913
 51
222.9865596106
  0
SPLINE
  5
438
330
1F
100
AcDbEntity
  8
1
  6
SLD-Сплошная
100
AcDbSpline
210
0.0
220
0.0
230
1.0
 70
     8
 71
     3
 72
    12
 73
     8
 74
     0
 42
0.00000001
 43
0.00000001
 40
0.0
 40
0.0
 40
0.0
 40
0.0
 40
0.2187857887071924
 40
0.4375776469534745
 40
0.6562353658863835
 40
0.8748419359490942
 40
1.0
 40
1.0
 40
1.0
 40
1.0
 10
690.7923166721348
 20
1439.567269881452
 30
0.0
 10
690.819280098207
 20
1439.602595278321
 30
0.0
 10
690.8732076983683
 20
1439.673247052053
 30
0.0
 10
690.9058035873414
 20
1439.807210280694
 30
0.0
 10
690.8964544560994
 20
1439.942752906974
 30
0.0
 10
690.8525756980175
 20
1440.051650711268
 30
0.0
 10
690.808400139731
 20
1440.104954422074
 30
0.0
 10
690.7923166721348
 20
1440.124361273708
 30
0.0
  0
ARC
  5
439
330
1F
100
AcDbEntity
  8
1
  6
SLD-Сплошная
100
AcDbCircle
 10
707.9184501397
 20
1423.6044013415
 30
0.0
 40
23.41191191622218
100
AcDbArc
 50
137.0134403894
 51
139.9175229087
  0
CIRCLE
  5
43A
330
1F
100
AcDbEntity
  8
1
  6
SLD-Сплошная
100
AcDbCircle
 10
691.9054271659
 20
1439.8458155776
 30
0.0
 40
3.499999999999948
  0
ELLIPSE
  5
43B
330
1F
100
AcDbEntity
  8
1
  6
SLD-Сплошная
100
AcDbEllipse
 10
691.9054271659
 20
1440.9152023589
 30
0.0
 11
0.0
 21
-0.4122489361056978
 31
0.0
210
0.0
220
0.0
230
1.0
 40
0.9702875252
 41
5.51286627427842
 42
7.053504340081174
  0
ELLIPSE
  5
43C
330
1F
100
AcDbEntity
  8
1
  6
SLD-Сплошная
100
AcDbEllipse
 10
691.9054271659
 20
1438.7764287963
 30
0.0
 11
0.0
 21
0.4122489361056978
 31
0.0
210
0.0
220
0.0
230
1.0
 40
0.9702875252
 41
5.512866274278296
 42
7.053504340080481
  0
ELLIPSE
  5
43D
330
1F
100
AcDbEntity
  8
1
  6
SLD-Сплошная
100
AcDbEllipse
 10
690.8360403847
 20
1439.8458155776
 30
0.0
 11
0.4122489361055841
 21
0.0
 31
0.0
210
0.0
220
0.0
230
1.0
 40
0.9702875252
 41
5.512866274278546
 42
7.053504340080639
  0
ELLIPSE
  5
43E
330
1F
100
AcDbEntity
  8
1
  6
SLD-Сплошная
100
AcDbEllipse
 10
692.9748139472
 20
1439.8458155776
 30
0.0
 11
-0.4122489361056978
 21
0.0
 31
0.0
210
0.0
220
0.0
230
1.0
 40
0.9702875252
 41
5.512866274278409
 42
7.053504340080777
  0
LINE
  5
43F
330
1F
100
AcDbEntity
  8
1
  6
SLD-Сплошная
100
AcDbLine
 10
690.738700977
 20
1437.9459549238
 30
0.0
 11
690.738700977
 21
1438.1841146418
 31
0.0
  0
LINE
  5
440
330
1F
100
AcDbEntity
  8
1
  6
SLD-Сплошная
100
AcDbLine
 10
690.738700977
 20
1438.1841146418
 30
0.0
 11
691.6268814698
 21
1439.0722951346
 31
0.0
  0
LINE
  5
441
330
1F
100
AcDbEntity
  8
1
  6
SLD-Сплошная
100
AcDbLine
 10
690.738700977
 20
1441.7456762314
 30
0.0
 11
690.738700977
 21
1441.5075165134
 31
0.0
  0
LINE
  5
442
330
1F
100
AcDbEntity
  8
1
  6
SLD-Сплошная
100
AcDbLine
 10
691.6268814698
 20
1440.6193360205
 30
0.0
 11
690.738700977
 21
1441.5075165134
 31
0.0
  0
LINE
  5
443
330
1F
100
AcDbEntity
  8
1
  6
SLD-Сплошная
100
AcDbLine
 10
693.0721533549
 20
1441.7456762314
 30
0.0
 11
693.0721533549
 21
1441.5075165134
 31
0.0
  0
LINE
  5
444
330
1F
100
AcDbEntity
  8
1
  6
SLD-Сплошная
100
AcDbLine
 10
693.0721533549
 20
1441.5075165134
 30
0.0
 11
692.1839728621
 21
1440.6193360205
 31
0.0
  0
LINE
  5
445
330
1F
100
AcDbEntity
  8
1
  6
SLD-Сплошная
100
AcDbLine
 10
693.8052878198
 20
1441.0125417665
 30
0.0
 11
693.5671281017
 21
1441.0125417665
 31
0.0
  0
LINE
  5
446
330
1F
100
AcDbEntity
  8
1
  6
SLD-Сплошная
100
AcDbLine
 10
692.6789476089
 20
1440.1243612737
 30
0.0
 11
693.5671281017
 21
1441.0125417665
 31
0.0
  0
LINE
  5
447
330
1F
100
AcDbEntity
  8
1
  6
SLD-Сплошная
100
AcDbLine
 10
693.0721533549
 20
1437.9459549238
 30
0.0
 11
693.0721533549
 21
1438.1841146418
 31
0.0
  0
LINE
  5
448
330
1F
100
AcDbEntity
  8
1
  6
SLD-Сплошная
100
AcDbLine
 10
692.1839728621
 20
1439.0722951346
 30
0.0
 11
693.0721533549
 21
1438.1841146418
 31
0.0
  0
LINE
  5
449
330
1F
100
AcDbEntity
  8
1
  6
SLD-Сплошная
100
AcDbLine
 10
690.0055665121
 20
1441.0125417665
 30
0.0
 11
690.2437262302
 21
1441.0125417665
 31
0.0
  0
LINE
  5
44A
330
1F
100
AcDbEntity
  8
1
  6
SLD-Сплошная
100
AcDbLine
 10
690.2437262302
 20
1441.0125417665
 30
0.0
 11
691.131906723
 21
1440.1243612737
 31
0.0
  0
LINE
  5
44B
330
1F
100
AcDbEntity
  8
1
  6
SLD-Сплошная
100
AcDbLine
 10
690.0055665121
 20
1438.6790893886
 30
0.0
 11
690.2437262302
 21
1438.6790893886
 31
0.0
  0
LINE
  5
44C
330
1F
100
AcDbEntity
  8
1
  6
SLD-Сплошная
100
AcDbLine
 10
691.131906723
 20
1439.5672698815
 30
0.0
 11
690.2437262302
 21
1438.6790893886
 31
0.0
  0
LINE
  5
44D
330
1F
100
AcDbEntity
  8
1
  6
SLD-Сплошная
100
AcDbLine
 10
693.8052878198
 20
1438.6790893886
 30
0.0
 11
693.5671281017
 21
1438.6790893886
 31
0.0
  0
LINE
  5
44E
330
1F
100
AcDbEntity
  8
1
  6
SLD-Сплошная
100
AcDbLine
 10
693.5671281017
 20
1438.6790893886
 30
0.0
 11
692.6789476089
 21
1439.5672698815
 31
0.0
  0
LINE
  5
44F
330
1F
100
AcDbEntity
  8
1
  6
SLD-Сплошная
100
AcDbLine
 10
693.5671281017
 20
1441.0125417665
 30
0.0
 11
693.0721533549
 21
1441.5075165134
 31
0.0
  0
LINE
  5
450
330
1F
100
AcDbEntity
  8
1
  6
SLD-Сплошная
100
AcDbLine
 10
693.0721533549
 20
1438.1841146418
 30
0.0
 11
693.5671281017
 21
1438.6790893886
 31
0.0
  0
LINE
  5
451
330
1F
100
AcDbEntity
  8
1
  6
SLD-Сплошная
100
AcDbLine
 10
690.2437262302
 20
1438.6790893886
 30
0.0
 11
690.738700977
 21
1438.1841146418
 31
0.0
  0
LINE
  5
452
330
1F
100
AcDbEntity
  8
1
  6
SLD-Сплошная
100
AcDbLine
 10
690.738700977
 20
1441.5075165134
 30
0.0
 11
690.2437262302
 21
1441.0125417665
 31
0.0
  0
CIRCLE
  5
453
330
1F
100
AcDbEntity
  8
1
  6
SLD-Сплошная
100
AcDbCircle
 10
691.9054271659
 20
1439.8458155776
 30
0.0
 40
4.99999999999996
  0
CIRCLE
  5
454
330
1F
100
AcDbEntity
  8
1
  6
SLD-Сплошная
100
AcDbCircle
 10
1076.9054271659
 20
1457.0958155776
 30
0.0
 40
8.299999999999955
  0
LINE
  5
455
330
1F
100
AcDbEntity
  8
1
  6
SLD-Сплошная
100
AcDbLine
 10
563.1054271659
 20
1499.1958155776
 30
0.0
 11
535.1054271659
 21
1499.1958155776
 31
0.0
  0
LINE
  5
456
330
1F
100
AcDbEntity
  8
1
  6
SLD-Сплошная
100
AcDbLine
 10
560.1054271659
 20
1502.1958155776
 30
0.0
 11
538.1054271659
 21
1502.1958155776
 31
0.0
  0
LINE
  5
457
330
1F
100
AcDbEntity
  8
1
  6
SLD-Сплошная
100
AcDbLine
 10
1087.9054271659
 20
1473.0958155776
 30
0.0
 11
1087.9054271659
 21
1472.0958155776
 31
0.0
  0
LINE
  5
458
330
1F
100
AcDbEntity
  8
1
  6
SLD-Сплошная
100
AcDbLine
 10
1085.9054271659
 20
1474.0958155776
 30
0.0
 11
1086.9054271659
 21
1474.0958155776
 31
0.0
  0
SPLINE
  5
459
330
1F
100
AcDbEntity
  8
1
  6
SLD-Сплошная
100
AcDbSpline
210
0.0
220
0.0
230
1.0
 70
     8
 71
     3
 72
    12
 73
     8
 74
     0
 42
0.00000001
 43
0.00000001
 40
0.0
 40
0.0
 40
0.0
 40
0.0
 40
0.2178231110881947
 40
0.4765675029999277
 40
0.8410160589292637
 40
0.9961871477580916
 40
0.9999999999999999
 40
0.9999999999999999
 40
0.9999999999999999
 40
0.9999999999999999
 10
1086.905427165932
 20
1474.09581557758
 30
0.0
 10
1087.046563735965
 20
1474.076462384169
 30
0.0
 10
1087.355351460219
 20
1474.034120214815
 30
0.0
 10
1087.713161588579
 20
1473.739972459946
 30
0.0
 10
1087.879411854604
 20
1473.405981965347
 30
0.0
 10
1087.905300759419
 20
1473.169309778955
 30
0.0
 10
1087.905424205374
 20
1473.097536880099
 30
0.0
 10
1087.905427165932
 20
1473.09581557758
 30
0.0
  0
LINE
  5
45A
330
1F
100
AcDbEntity
  8
1
  6
SLD-Сплошная
100
AcDbLine
 10
1075.4054271659
 20
1474.0958155776
 30
0.0
 11
1085.9054271659
 21
1474.0958155776
 31
0.0
  0
ARC
  5
45B
330
1F
100
AcDbEntity
  8
1
  6
SLD-Сплошная
100
AcDbCircle
 10
1075.4054271659
 20
1475.0958155776
 30
0.0
 40
1.0
100
AcDbArc
 50
180.0
 51
270.0
  0
ARC
  5
45C
330
1F
100
AcDbEntity
  8
1
  6
SLD-Сплошная
100
AcDbCircle
 10
1075.4054271659
 20
1475.0958155776
 30
0.0
 40
3.000000000000227
100
AcDbArc
 50
180.0
 51
270.0
  0
LINE
  5
45D
330
1F
100
AcDbEntity
  8
1
  6
SLD-Сплошная
100
AcDbLine
 10
1072.4054271659
 20
1479.1958155776
 30
0.0
 11
1072.4054271659
 21
1475.0958155776
 31
0.0
  0
LINE
  5
45E
330
1F
100
AcDbEntity
  8
1
  6
SLD-Сплошная
100
AcDbLine
 10
1074.4054271659
 20
1479.1958155776
 30
0.0
 11
1074.4054271659
 21
1475.0958155776
 31
0.0
  0
LINE
  5
45F
330
1F
100
AcDbEntity
  8
1
  6
SLD-Сплошная
100
AcDbLine
 10
1084.1581183594
 20
1474.1958155776
 30
0.0
 11
1085.5054271659
 21
1474.1958155776
 31
0.0
  0
LINE
  5
460
330
1F
100
AcDbEntity
  8
1
  6
SLD-Сплошная
100
AcDbLine
 10
1076.3054271659
 20
1474.1958155776
 30
0.0
 11
1084.1581183594
 21
1474.1958155776
 31
0.0
  0
LINE
  5
461
330
1F
100
AcDbEntity
  8
1
  6
SLD-Сплошная
100
AcDbLine
 10
1084.1581183594
 20
1474.5958155776
 30
0.0
 11
1085.5054271659
 21
1474.5958155776
 31
0.0
  0
LINE
  5
462
330
1F
100
AcDbEntity
  8
1
  6
SLD-Сплошная
100
AcDbLine
 10
1076.3054271659
 20
1474.5958155776
 30
0.0
 11
1084.1581183594
 21
1474.5958155776
 31
0.0
  0
ARC
  5
463
330
1F
100
AcDbEntity
  8
1
  6
SLD-Сплошная
100
AcDbCircle
 10
1074.9054271659
 20
1474.5958155776
 30
0.0
 40
2.5
100
AcDbArc
 50
180.0
 51
270.0
  0
LINE
  5
464
330
1F
100
AcDbEntity
  8
1
  6
SLD-Сплошная
100
AcDbLine
 10
1072.4054271659
 20
1475.0958155776
 30
0.0
 11
1072.4054271659
 21
1474.5958155776
 31
0.0
  0
LINE
  5
465
330
1F
100
AcDbEntity
  8
1
  6
SLD-Сплошная
100
AcDbLine
 10
1637.4568051668
 20
915.448911213
 30
0.0
 11
1637.4568051668
 21
421.009546638
 31
0.0
  0
ARC
  5
466
330
1F
100
AcDbEntity
  8
1
  6
SLD-Сплошная
100
AcDbCircle
 10
1631.5221812055
 20
503.3792289255
 30
0.0
 40
0.1999999999999886
100
AcDbArc
 50
270.0
 51
338.1849373759
  0
ARC
  5
467
330
1F
100
AcDbEntity
  8
1
  6
SLD-Сплошная
100
AcDbCircle
 10
1631.5221812055
 20
513.0792289255
 30
0.0
 40
0.2000000000000455
100
AcDbArc
 50
21.8150626241
 51
90.0
  0
LINE
  5
468
330
1F
100
AcDbEntity
  8
1
  6
SLD-Сплошная
100
AcDbLine
 10
1630.3568051668
 20
503.1792289255
 30
0.0
 11
1631.5221812055
 21
503.1792289255
 31
0.0
  0
LINE
  5
469
330
1F
100
AcDbEntity
  8
1
  6
SLD-Сплошная
100
AcDbLine
 10
1631.5221812055
 20
513.2792289255
 30
0.0
 11
1630.3568051668
 21
513.2792289255
 31
0.0
  0
ARC
  5
46A
330
1F
100
AcDbEntity
  8
1
  6
SLD-Сплошная
100
AcDbCircle
 10
1619.4055551668
 20
508.2292289255
 30
0.0
 40
13.25125000000025
100
AcDbArc
 50
338.1849373759
 51
0.0
  0
ARC
  5
46B
330
1F
100
AcDbEntity
  8
1
  6
SLD-Сплошная
100
AcDbCircle
 10
1619.4055551668
 20
508.2292289255
 30
0.0
 40
13.25125000000025
100
AcDbArc
 50
0.0
 51
21.8150626241
  0
ARC
  5
46C
330
1F
100
AcDbEntity
  8
1
  6
SLD-Сплошная
100
AcDbCircle
 10
1631.5221812055
 20
823.3792289255
 30
0.0
 40
0.2000000000000455
100
AcDbArc
 50
270.0
 51
338.1849373758
  0
ARC
  5
46D
330
1F
100
AcDbEntity
  8
1
  6
SLD-Сплошная
100
AcDbCircle
 10
1631.5221812055
 20
833.0792289255
 30
0.0
 40
0.2000000000000455
100
AcDbArc
 50
21.8150626241
 51
90.0
  0
LINE
  5
46E
330
1F
100
AcDbEntity
  8
1
  6
SLD-Сплошная
100
AcDbLine
 10
1630.3568051668
 20
823.1792289255
 30
0.0
 11
1631.5221812055
 21
823.1792289255
 31
0.0
  0
LINE
  5
46F
330
1F
100
AcDbEntity
  8
1
  6
SLD-Сплошная
100
AcDbLine
 10
1631.5221812055
 20
833.2792289255
 30
0.0
 11
1630.3568051668
 21
833.2792289255
 31
0.0
  0
ARC
  5
470
330
1F
100
AcDbEntity
  8
1
  6
SLD-Сплошная
100
AcDbCircle
 10
1619.4055551668
 20
828.2292289255
 30
0.0
 40
13.25125000000025
100
AcDbArc
 50
338.1849373759
 51
0.0
  0
ARC
  5
471
330
1F
100
AcDbEntity
  8
1
  6
SLD-Сплошная
100
AcDbCircle
 10
1619.4055551668
 20
828.2292289255
 30
0.0
 40
13.25125000000025
100
AcDbArc
 50
0.0
 51
21.8150626241
  0
ARC
  5
472
330
1F
100
AcDbEntity
  8
1
  6
SLD-Сплошная
100
AcDbCircle
 10
1608.0568051668
 20
417.0234668679
 30
0.0
 40
1.000000000000227
100
AcDbArc
 50
180.0
 51
257.5813184942
  0
ARC
  5
473
330
1F
100
AcDbEntity
  8
1
  6
SLD-Сплошная
100
AcDbCircle
 10
1622.6568051668
 20
417.0234668679
 30
0.0
 40
1.000000000000227
100
AcDbArc
 50
282.4186815058
 51
0.0
  0
LINE
  5
474
330
1F
100
AcDbEntity
  8
1
  6
SLD-Сплошная
100
AcDbLine
 10
1607.0568051668
 20
418.2292289255
 30
0.0
 11
1607.0568051668
 21
417.0234668679
 31
0.0
  0
LINE
  5
475
330
1F
100
AcDbEntity
  8
1
  6
SLD-Сплошная
100
AcDbLine
 10
1623.6568051668
 20
417.0234668679
 30
0.0
 11
1623.6568051668
 21
418.2292289255
 31
0.0
  0
ARC
  5
476
330
1F
100
AcDbEntity
  8
1
  6
SLD-Сплошная
100
AcDbCircle
 10
1615.3568051668
 20
450.1742289255
 30
0.0
 40
34.94500000000006
100
AcDbArc
 50
270.0104111827
 51
282.4186815058
  0
ARC
  5
477
330
1F
100
AcDbEntity
  8
1
  6
SLD-Сплошная
100
AcDbCircle
 10
1615.3568051668
 20
450.1742289255
 30
0.0
 40
34.94500000000001
100
AcDbArc
 50
257.5813184942
 51
270.0104111827
  0
LINE
  5
478
330
1F
100
AcDbEntity
  8
1
  6
SLD-Сплошная
100
AcDbLine
 10
1657.4568051668
 20
654.2292289255
 30
0.0
 11
1660.4568051668
 21
657.2292289255
 31
0.0
  0
LINE
  5
479
330
1F
100
AcDbEntity
  8
1
  6
SLD-Сплошная
100
AcDbLine
 10
1660.4568051667
 20
679.2292289255
 30
0.0
 11
1657.4568051667
 21
682.2292289255
 31
0.0
  0
LINE
  5
47A
330
1F
100
AcDbEntity
  8
1
  6
SLD-Сплошная
100
AcDbLine
 10
1656.4568051668
 20
654.2292289255
 30
0.0
 11
1657.4568051668
 21
654.2292289255
 31
0.0
  0
LINE
  5
47B
330
1F
100
AcDbEntity
  8
1
  6
SLD-Сплошная
100
AcDbLine
 10
1657.4568051667
 20
682.2292289255
 30
0.0
 11
1656.4568051667
 21
682.2292289255
 31
0.0
  0
LINE
  5
47C
330
1F
100
AcDbEntity
  8
1
  6
SLD-Сплошная
100
AcDbLine
 10
1638.5068051668
 20
421.012071638
 30
0.0
 11
1653.7568051668
 21
421.012071638
 31
0.0
  0
LINE
  5
47D
330
1F
100
AcDbEntity
  8
1
  6
SLD-Сплошная
100
AcDbLine
 10
1638.5068051668
 20
915.446386213
 30
0.0
 11
1653.7568051668
 21
915.446386213
 31
0.0
  0
SPLINE
  5
47E
330
1F
100
AcDbEntity
  8
1
  6
SLD-Сплошная
100
AcDbSpline
210
0.0
220
0.0
230
1.0
 70
     8
 71
     3
 72
    11
 73
     7
 74
     0
 42
0.00000001
 43
0.00000001
 40
0.0
 40
0.0
 40
0.0
 40
0.0
 40
0.2499999999999933
 40
0.5000000000000062
 40
0.7500000000000044
 40
1.0
 40
1.0
 40
1.0
 40
1.0
 10
1638.50680516675
 20
915.446386213026
 30
0.0
 10
1638.369216270754
 20
915.4422195463593
 30
0.0
 10
1638.09403847876
 20
915.4338862130259
 30
0.0
 10
1637.746966294809
 20
915.421386213026
 30
0.0
 10
1637.50415462103
 20
915.408886213026
 30
0.0
 10
1637.472588318177
 20
915.4005528796926
 30
0.0
 10
1637.45680516675
 20
915.3963862130258
 30
0.0
  0
SPLINE
  5
47F
330
1F
100
AcDbEntity
  8
1
  6
SLD-Сплошная
100
AcDbSpline
210
0.0
220
0.0
230
1.0
 70
     8
 71
     3
 72
    11
 73
     7
 74
     0
 42
0.00000001
 43
0.00000001
 40
0.0
 40
0.0
 40
0.0
 40
0.0
 40
0.2499999999999888
 40
0.5000000000000101
 40
0.7500000000000007
 40
0.9999999999999999
 40
0.9999999999999999
 40
0.9999999999999999
 40
0.9999999999999999
 10
1637.45680516675
 20
421.062071637974
 30
0.0
 10
1637.472588318176
 20
421.0579049713073
 30
0.0
 10
1637.504154621028
 20
421.0495716379738
 30
0.0
 10
1637.746966294806
 20
421.037071637974
 30
0.0
 10
1638.094038478759
 20
421.0245716379738
 30
0.0
 10
1638.369216270753
 20
421.0162383046405
 30
0.0
 10
1638.50680516675
 20
421.0120716379739
 30
0.0
  0
ELLIPSE
  5
480
330
1F
100
AcDbEntity
  8
1
  6
SLD-Сплошная
100
AcDbEllipse
 10
1653.7568051668
 20
914.0292289255
 30
0.0
 11
2.699999999999818
 21
0.0
 31
0.0
210
0.0
220
0.0
230
1.0
 40
0.5248730694
 41
0.0
 42
1.570796326794897
  0
LINE
  5
481
330
1F
100
AcDbEntity
  8
1
  6
SLD-Сплошная
100
AcDbLine
 10
1656.4568051668
 20
914.0292289255
 30
0.0
 11
1656.4568051668
 21
422.4292289255
 31
0.0
  0
ELLIPSE
  5
482
330
1F
100
AcDbEntity
  8
1
  6
SLD-Сплошная
100
AcDbEllipse
 10
1653.7568051668
 20
422.4292289255
 30
0.0
 11
2.700000000000045
 21
0.0
 31
0.0
210
0.0
220
0.0
230
1.0
 40
0.5248730694
 41
4.712388980384697
 42
6.283185307179586
  0
LINE
  5
483
330
1F
100
AcDbEntity
  8
1
  6
SLD-Сплошная
100
AcDbLine
 10
1653.7568051668
 20
916.7292289255
 30
0.0
 11
1638.5068051668
 21
916.7292289255
 31
0.0
  0
LINE
  5
484
330
1F
100
AcDbEntity
  8
1
  6
SLD-Сплошная
100
AcDbLine
 10
1653.7568051668
 20
915.7292289255
 30
0.0
 11
1638.5068051668
 21
915.7292289255
 31
0.0
  0
LINE
  5
485
330
1F
100
AcDbEntity
  8
1
  6
SLD-Сплошная
100
AcDbLine
 10
1638.5068051668
 20
916.7292289255
 30
0.0
 11
1638.5068051668
 21
915.7292289255
 31
0.0
  0
LINE
  5
486
330
1F
100
AcDbEntity
  8
1
  6
SLD-Сплошная
100
AcDbLine
 10
1638.4568051668
 20
915.6792289255
 30
0.0
 11
1637.4568051668
 21
915.6792289255
 31
0.0
  0
SPLINE
  5
487
330
1F
100
AcDbEntity
  8
1
  6
SLD-Сплошная
100
AcDbSpline
210
0.0
220
0.0
230
1.0
 70
     8
 71
     3
 72
    11
 73
     7
 74
     0
 42
0.00000001
 43
0.00000001
 40
0.0
 40
0.0
 40
0.0
 40
0.0
 40
0.2499999999998908
 40
0.5000000000000343
 40
0.7499999999999855
 40
1.0
 40
1.0
 40
1.0
 40
1.0
 10
1638.45680516675
 20
915.6792289255001
 30
0.0
 10
1638.45755674539
 20
915.6857807776904
 30
0.0
 10
1638.459059902669
 20
915.698884482071
 30
0.0
 10
1638.470622363325
 20
915.7154117289258
 30
0.0
 10
1638.487149610179
 20
915.7269741895819
 30
0.0
 10
1638.50025331456
 20
915.7284773468606
 30
0.0
 10
1638.50680516675
 20
915.7292289255
 30
0.0
  0
SPLINE
  5
488
330
1F
100
AcDbEntity
  8
1
  6
SLD-Сплошная
100
AcDbSpline
210
0.0
220
0.0
230
1.0
 70
     8
 71
     3
 72
    11
 73
     7
 74
     0
 42
0.00000001
 43
0.00000001
 40
0.0
 40
0.0
 40
0.0
 40
0.0
 40
0.2500000000000026
 40
0.4999999999999954
 40
0.7499999999999992
 40
1.0
 40
1.0
 40
1.0
 40
1.0
 10
1637.45680516675
 20
915.6792289255
 30
0.0
 10
1637.472588318177
 20
915.8168178214964
 30
0.0
 10
1637.50415462103
 20
916.0919956134896
 30
0.0
 10
1637.746966294809
 20
916.4390677974412
 30
0.0
 10
1638.09403847876
 20
916.68187947122
 30
0.0
 10
1638.369216270754
 20
916.7134457740733
 30
0.0
 10
1638.50680516675
 20
916.7292289255
 30
0.0
  0
LINE
  5
489
330
1F
100
AcDbEntity
  8
1
  6
SLD-Сплошная
100
AcDbLine
 10
1638.5068051668
 20
419.7292289255
 30
0.0
 11
1638.5068051668
 21
420.7292289255
 31
0.0
  0
LINE
  5
48A
330
1F
100
AcDbEntity
  8
1
  6
SLD-Сплошная
100
AcDbLine
 10
1638.4568051668
 20
420.7792289255
 30
0.0
 11
1637.4568051668
 21
420.7792289255
 31
0.0
  0
SPLINE
  5
48B
330
1F
100
AcDbEntity
  8
1
  6
SLD-Сплошная
100
AcDbSpline
210
0.0
220
0.0
230
1.0
 70
     8
 71
     3
 72
    11
 73
     7
 74
     0
 42
0.00000001
 43
0.00000001
 40
0.0
 40
0.0
 40
0.0
 40
0.0
 40
0.249999999999904
 40
0.4999999999998018
 40
0.7500000000001888
 40
1.0
 40
1.0
 40
1.0
 40
1.0
 10
1638.50680516675
 20
420.7292289254999
 30
0.0
 10
1638.50025331456
 20
420.7299805041393
 30
0.0
 10
1638.487149610179
 20
420.7314836614181
 30
0.0
 10
1638.470622363325
 20
420.743046122074
 30
0.0
 10
1638.459059902668
 20
420.7595733689289
 30
0.0
 10
1638.45755674539
 20
420.7726770733096
 30
0.0
 10
1638.45680516675
 20
420.7792289254999
 30
0.0
  0
SPLINE
  5
48C
330
1F
100
AcDbEntity
  8
1
  6
SLD-Сплошная
100
AcDbSpline
210
0.0
220
0.0
230
1.0
 70
     8
 71
     3
 72
    11
 73
     7
 74
     0
 42
0.00000001
 43
0.00000001
 40
0.0
 40
0.0
 40
0.0
 40
0.0
 40
0.249999999999997
 40
0.500000000000001
 40
0.7499999999999907
 40
0.9999999999999999
 40
0.9999999999999999
 40
0.9999999999999999
 40
0.9999999999999999
 10
1638.50680516675
 20
419.7292289254999
 30
0.0
 10
1638.369216270754
 20
419.7450120769266
 30
0.0
 10
1638.09403847876
 20
419.77657837978
 30
0.0
 10
1637.746966294809
 20
420.0193900535585
 30
0.0
 10
1637.50415462103
 20
420.3664622375103
 30
0.0
 10
1637.472588318177
 20
420.6416400295033
 30
0.0
 10
1637.45680516675
 20
420.7792289254999
 30
0.0
  0
LINE
  5
48D
330
1F
100
AcDbEntity
  8
1
  6
SLD-Сплошная
100
AcDbLine
 10
1653.7568051668
 20
419.7292289255
 30
0.0
 11
1638.5068051668
 21
419.7292289255
 31
0.0
  0
LINE
  5
48E
330
1F
100
AcDbEntity
  8
1
  6
SLD-Сплошная
100
AcDbLine
 10
1653.7568051668
 20
420.7292289255
 30
0.0
 11
1638.5068051668
 21
420.7292289255
 31
0.0
  0
ARC
  5
48F
330
1F
100
AcDbEntity
  8
1
  6
SLD-Сплошная
100
AcDbCircle
 10
1653.7568051668
 20
914.0292289255
 30
0.0
 40
2.699999999999932
100
AcDbArc
 50
0.0000000005
 51
90.0
  0
ARC
  5
490
330
1F
100
AcDbEntity
  8
1
  6
SLD-Сплошная
100
AcDbCircle
 10
1653.7568051668
 20
914.0292289255
 30
0.0
 40
1.699999999999932
100
AcDbArc
 50
49.5408896295
 51
90.0
  0
ARC
  5
491
330
1F
100
AcDbEntity
  8
1
  6
SLD-Сплошная
100
AcDbCircle
 10
1653.7568051668
 20
422.4292289255
 30
0.0
 40
1.700000000000221
100
AcDbArc
 50
270.0
 51
310.4591103706
  0
ARC
  5
492
330
1F
100
AcDbEntity
  8
1
  6
SLD-Сплошная
100
AcDbCircle
 10
1653.7568051668
 20
422.4292289255
 30
0.0
 40
2.700000000000159
100
AcDbArc
 50
270.0
 51
359.9999999995
  0
LINE
  5
493
330
1F
100
AcDbEntity
  8
1
  6
SLD-Сплошная
100
AcDbLine
 10
1638.5068051668
 20
915.446386213
 30
0.0
 11
1638.5068051668
 21
915.6292289255
 31
0.0
  0
SPLINE
  5
494
330
1F
100
AcDbEntity
  8
1
  6
SLD-Сплошная
100
AcDbSpline
210
0.0
220
0.0
230
1.0
 70
     8
 71
     3
 72
    10
 73
     6
 74
     0
 42
0.00000001
 43
0.00000001
 40
0.0
 40
0.0
 40
0.0
 40
0.0
 40
0.3585486610923566
 40
0.596969004633104
 40
1.0
 40
1.0
 40
1.0
 40
1.0
 10
1638.506805166752
 20
915.6292289255
 30
0.0
 10
1638.49137897422
 20
915.6351459684919
 30
0.0
 10
1638.465694988195
 20
915.6449976055178
 30
0.0
 10
1638.459803414307
 20
915.6618976277272
 30
0.0
 10
1638.457962090767
 20
915.6725413540945
 30
0.0
 10
1638.45680516675
 20
915.6792289255001
 30
0.0
  0
LINE
  5
495
330
1F
100
AcDbEntity
  8
1
  6
SLD-Сплошная
100
AcDbLine
 10
1637.5249817174
 20
915.35506107
 30
0.0
 11
1637.4568051668
 21
915.6792289255
 31
0.0
  0
LINE
  5
496
330
1F
100
AcDbEntity
  8
1
  6
SLD-Сплошная
100
AcDbLine
 10
1638.5068051668
 20
421.012071638
 30
0.0
 11
1638.5068051668
 21
420.8292289255
 31
0.0
  0
SPLINE
  5
497
330
1F
100
AcDbEntity
  8
1
  6
SLD-Сплошная
100
AcDbSpline
210
0.0
220
0.0
230
1.0
 70
     8
 71
     3
 72
    10
 73
     6
 74
     0
 42
0.00000001
 43
0.00000001
 40
0.0
 40
0.0
 40
0.0
 40
0.0
 40
0.4215647020771014
 40
0.6406677011990409
 40
1.0
 40
1.0
 40
1.0
 40
1.0
 10
1638.45680516675
 20
420.7792289254999
 30
0.0
 10
1638.458145206677
 20
420.7864836745105
 30
0.0
 10
1638.460181715653
 20
420.7975089888894
 30
0.0
 10
1638.466303720687
 20
420.8135988065135
 30
0.0
 10
1638.491285886953
 20
420.823239801323
 30
0.0
 10
1638.50680516675
 20
420.8292289255
 30
0.0
  0
LINE
  5
498
330
1F
100
AcDbEntity
  8
1
  6
SLD-Сплошная
100
AcDbLine
 10
1637.4568051668
 20
420.7792289255
 30
0.0
 11
1637.51367078
 21
421.0314702876
 31
0.0
  0
LINE
  5
499
330
1F
100
AcDbEntity
  8
1
  6
SLD-Сплошная
100
AcDbLine
 10
1653.3468051668
 20
915.4463862131
 30
0.0
 11
1653.3468051668
 21
915.6292289255
 31
0.0
  0
LINE
  5
49A
330
1F
100
AcDbEntity
  8
1
  6
SLD-Сплошная
100
AcDbLine
 10
1653.3468051668
 20
915.6292289255
 30
0.0
 11
1638.5068051668
 21
915.6292289255
 31
0.0
  0
LINE
  5
49B
330
1F
100
AcDbEntity
  8
1
  6
SLD-Сплошная
100
AcDbLine
 10
1653.3468051668
 20
420.8292289255
 30
0.0
 11
1638.5068051668
 21
420.8292289255
 31
0.0
  0
LINE
  5
49C
330
1F
100
AcDbEntity
  8
1
  6
SLD-Сплошная
100
AcDbLine
 10
1653.3468051668
 20
421.012071638
 30
0.0
 11
1653.3468051668
 21
420.8292289255
 31
0.0
  0
ARC
  5
49D
330
1F
100
AcDbEntity
  8
1
  6
SLD-Сплошная
100
AcDbCircle
 10
1653.3468051668
 20
913.6192289255
 30
0.0
 40
2.010000000000105
100
AcDbArc
 50
63.906948719
 51
90.0
  0
ARC
  5
49E
330
1F
100
AcDbEntity
  8
1
  6
SLD-Сплошная
100
AcDbCircle
 10
1653.3468051668
 20
422.8392289255
 30
0.0
 40
2.010000000000046
100
AcDbArc
 50
270.0
 51
296.0930512881
  0
LINE
  5
49F
330
1F
100
AcDbEntity
  8
1
  6
SLD-Сплошная
100
AcDbLine
 10
1458.8568051668
 20
420.2292289255
 30
0.0
 11
1628.3568051668
 21
420.2292289255
 31
0.0
  0
CIRCLE
  5
4A0
330
1F
100
AcDbEntity
  8
1
  6
SLD-Сплошная
100
AcDbCircle
 10
1590.3568051668
 20
468.2292289255
 30
0.0
 40
0.5
  0
CIRCLE
  5
4A1
330
1F
100
AcDbEntity
  8
1
  6
SLD-Сплошная
100
AcDbCircle
 10
1590.3568051668
 20
868.2292289255
 30
0.0
 40
0.5
  0
CIRCLE
  5
4A2
330
1F
100
AcDbEntity
  8
1
  6
SLD-Сплошная
100
AcDbCircle
 10
1540.3568051668
 20
878.2292289255
 30
0.0
 40
0.5000000000001137
  0
ELLIPSE
  5
4A3
330
1F
100
AcDbEntity
  8
1
  6
SLD-Сплошная
100
AcDbEllipse
 10
1458.8568051668
 20
915.6585182474
 30
0.0
 11
2.5
 21
0.0
 31
0.0
210
0.0
220
0.0
230
1.0
 40
0.6
 41
2.751284095291447
 42
3.141592653589892
  0
LINE
  5
4A4
330
1F
100
AcDbEntity
  8
1
  6
SLD-Сплошная
100
AcDbLine
 10
1456.5448259029
 20
916.2292289255
 30
0.0
 11
1458.8568051668
 21
916.2292289255
 31
0.0
  0
LINE
  5
4A5
330
1F
100
AcDbEntity
  8
1
  6
SLD-Сплошная
100
AcDbLine
 10
1456.5448259029
 20
420.2292289255
 30
0.0
 11
1458.8568051668
 21
420.2292289255
 31
0.0
  0
ELLIPSE
  5
4A6
330
1F
100
AcDbEntity
  8
1
  6
SLD-Сплошная
100
AcDbEllipse
 10
1458.8568051668
 20
420.7999396036
 30
0.0
 11
2.5
 21
0.0
 31
0.0
210
0.0
220
0.0
230
1.0
 40
0.6
 41
3.141592653589718
 42
3.531901211888235
  0
LINE
  5
4A7
330
1F
100
AcDbEntity
  8
1
  6
SLD-Сплошная
100
AcDbLine
 10
1456.3568051668
 20
420.7999396036
 30
0.0
 11
1456.3568051668
 21
915.6585182474
 31
0.0
  0
LINE
  5
4A8
330
1F
100
AcDbEntity
  8
1
  6
SLD-Сплошная
100
AcDbLine
 10
1458.8568051668
 20
918.2292289255
 30
0.0
 11
1628.3568051668
 21
918.2292289255
 31
0.0
  0
LINE
  5
4A9
330
1F
100
AcDbEntity
  8
1
  6
SLD-Сплошная
100
AcDbLine
 10
1628.3568051668
 20
916.2292289255
 30
0.0
 11
1628.3568051668
 21
918.2292289255
 31
0.0
  0
LINE
  5
4AA
330
1F
100
AcDbEntity
  8
1
  6
SLD-Сплошная
100
AcDbLine
 10
1458.8568051668
 20
916.2292289255
 30
0.0
 11
1458.8568051668
 21
918.2292289255
 31
0.0
  0
LINE
  5
4AB
330
1F
100
AcDbEntity
  8
1
  6
SLD-Сплошная
100
AcDbLine
 10
1630.3568051668
 20
420.2999396036
 30
0.0
 11
1628.3568051668
 21
420.2292289255
 31
0.0
  0
LINE
  5
4AC
330
1F
100
AcDbEntity
  8
1
  6
SLD-Сплошная
100
AcDbLine
 10
1630.3568051668
 20
916.1585182474
 30
0.0
 11
1628.3568051668
 21
916.2292289255
 31
0.0
  0
LINE
  5
4AD
330
1F
100
AcDbEntity
  8
1
  6
SLD-Сплошная
100
AcDbLine
 10
1630.3568051668
 20
916.1585182474
 30
0.0
 11
1630.3568051668
 21
420.2999396036
 31
0.0
  0
LINE
  5
4AE
330
1F
100
AcDbEntity
  8
1
  6
SLD-Сплошная
100
AcDbLine
 10
1458.8568051668
 20
418.5588996167
 30
0.0
 11
1458.8568051668
 21
420.2292289255
 31
0.0
  0
LINE
  5
4AF
330
1F
100
AcDbEntity
  8
1
  6
SLD-Сплошная
100
AcDbLine
 10
1628.3568051668
 20
420.2292289255
 30
0.0
 11
1628.3568051668
 21
418.5588996167
 31
0.0
  0
LINE
  5
4B0
330
1F
100
AcDbEntity
  8
1
  6
SLD-Сплошная
100
AcDbLine
 10
1628.3568051668
 20
418.2292289255
 30
0.0
 11
1458.8568051668
 21
418.2292289255
 31
0.0
  0
ARC
  5
4B1
330
1F
100
AcDbEntity
  8
1
  6
SLD-Сплошная
100
AcDbCircle
 10
1458.8568051668
 20
915.7292289255
 30
0.0
 40
1.500000000000068
100
AcDbArc
 50
90.0
 51
157.6369669022
  0
LINE
  5
4B2
330
1F
100
AcDbEntity
  8
1
  6
SLD-Сплошная
100
AcDbLine
 10
1456.5448259029
 20
916.680413389
 30
0.0
 11
1457.4696176084
 21
916.2999396036
 31
0.0
  0
ARC
  5
4B3
330
1F
100
AcDbEntity
  8
1
  6
SLD-Сплошная
100
AcDbCircle
 10
1458.8568051668
 20
915.7292289255
 30
0.0
 40
2.500000000000127
100
AcDbArc
 50
90.0
 51
157.6369669022
  0
LINE
  5
4B4
330
1F
100
AcDbEntity
  8
1
  6
SLD-Сплошная
100
AcDbLine
 10
1456.5448259029
 20
419.7780444621
 30
0.0
 11
1457.4696176084
 21
420.1585182475
 31
0.0
  0
LINE
  5
4B5
330
1F
100
AcDbEntity
  8
1
  6
SLD-Сплошная
100
AcDbLine
 10
1458.8568051668
 20
418.5588996167
 30
0.0
 11
1458.8568051668
 21
418.2292289255
 31
0.0
  0
ARC
  5
4B6
330
1F
100
AcDbEntity
  8
1
  6
SLD-Сплошная
100
AcDbCircle
 10
1458.8568051668
 20
420.7292289255
 30
0.0
 40
2.500000000000083
100
AcDbArc
 50
202.3630330978
 51
270.0
  0
ARC
  5
4B7
330
1F
100
AcDbEntity
  8
1
  6
SLD-Сплошная
100
AcDbCircle
 10
1458.8568051668
 20
420.7292289255
 30
0.0
 40
1.500000000000046
100
AcDbArc
 50
202.3630330978
 51
270.0
  0
LINE
  5
4B8
330
1F
100
AcDbEntity
  8
1
  6
SLD-Сплошная
100
AcDbLine
 10
1456.3568051668
 20
915.7292289255
 30
0.0
 11
1456.3595844895
 21
915.7292289255
 31
0.0
  0
ARC
  5
4B9
330
1F
100
AcDbEntity
  8
1
  6
SLD-Сплошная
100
AcDbCircle
 10
1458.8568051668
 20
915.7292289255
 30
0.0
 40
2.500000000000127
100
AcDbArc
 50
157.6369669022
 51
180.0
  0
LINE
  5
4BA
330
1F
100
AcDbEntity
  8
1
  6
SLD-Сплошная
100
AcDbLine
 10
1456.3568051668
 20
420.7292289255
 30
0.0
 11
1456.3595844895
 21
420.7292289255
 31
0.0
  0
ARC
  5
4BB
330
1F
100
AcDbEntity
  8
1
  6
SLD-Сплошная
100
AcDbCircle
 10
1458.8568051668
 20
420.7292289255
 30
0.0
 40
2.500000000000083
100
AcDbArc
 50
180.0
 51
202.3630330978
  0
ARC
  5
4BC
330
1F
100
AcDbEntity
  8
1
  6
SLD-Сплошная
100
AcDbCircle
 10
1628.3568051668
 20
420.2292289255
 30
0.0
 40
1.0
100
AcDbArc
 50
270.0
 51
0.0
  0
LINE
  5
4BD
330
1F
100
AcDbEntity
  8
1
  6
SLD-Сплошная
100
AcDbLine
 10
1629.3568051668
 20
420.2292289255
 30
0.0
 11
1630.3568051668
 21
420.2292289255
 31
0.0
  0
LINE
  5
4BE
330
1F
100
AcDbEntity
  8
1
  6
SLD-Сплошная
100
AcDbLine
 10
1628.3568051668
 20
418.2292289255
 30
0.0
 11
1628.3568051668
 21
418.5588996167
 31
0.0
  0
ARC
  5
4BF
330
1F
100
AcDbEntity
  8
1
  6
SLD-Сплошная
100
AcDbCircle
 10
1628.3568051668
 20
420.2292289255
 30
0.0
 40
2.0
100
AcDbArc
 50
270.0
 51
360.0
  0
ARC
  5
4C0
330
1F
100
AcDbEntity
  8
1
  6
SLD-Сплошная
100
AcDbCircle
 10
1628.3568051668
 20
916.2292289255
 30
0.0
 40
2.0
100
AcDbArc
 50
0.0
 51
90.0
  0
LINE
  5
4C1
330
1F
100
AcDbEntity
  8
1
  6
SLD-Сплошная
100
AcDbLine
 10
1629.3568051668
 20
916.2292289255
 30
0.0
 11
1630.3568051668
 21
916.2292289255
 31
0.0
  0
ARC
  5
4C2
330
1F
100
AcDbEntity
  8
1
  6
SLD-Сплошная
100
AcDbCircle
 10
1628.3568051668
 20
916.2292289255
 30
0.0
 40
1.0
100
AcDbArc
 50
0.0
 51
90.0
  0
LINE
  5
4C3
330
1F
100
AcDbEntity
  8
1
  6
SLD-Сплошная
100
AcDbLine
 10
1630.3568051668
 20
420.2292289255
 30
0.0
 11
1630.3568051668
 21
420.2999396036
 31
0.0
  0
LINE
  5
4C4
330
1F
100
AcDbEntity
  8
1
  6
SLD-Сплошная
100
AcDbLine
 10
1629.3568051668
 20
420.2292289255
 30
0.0
 11
1629.3568051668
 21
420.2645842645
 31
0.0
  0
LINE
  5
4C5
330
1F
100
AcDbEntity
  8
1
  6
SLD-Сплошная
100
AcDbLine
 10
1629.3568051668
 20
916.2292289255
 30
0.0
 11
1629.3568051668
 21
916.1938735865
 31
0.0
  0
LINE
  5
4C6
330
1F
100
AcDbEntity
  8
1
  6
SLD-Сплошная
100
AcDbLine
 10
1630.3568051668
 20
916.2292289255
 30
0.0
 11
1630.3568051668
 21
916.1585182475
 31
0.0
  0
LINE
  5
4C7
330
1F
100
AcDbEntity
  8
1
  6
SLD-Сплошная
100
AcDbLine
 10
1456.3568051668
 20
420.7292289255
 30
0.0
 11
1456.3568051668
 21
420.7999396035
 31
0.0
  0
LINE
  5
4C8
330
1F
100
AcDbEntity
  8
1
  6
SLD-Сплошная
100
AcDbLine
 10
1456.3568051668
 20
915.7292289255
 30
0.0
 11
1456.3568051668
 21
915.6585182475
 31
0.0
  0
ELLIPSE
  5
4C9
330
1F
100
AcDbEntity
  8
1
  6
SLD-Сплошная
100
AcDbEllipse
 10
1631.3568051668
 20
899.1585182474
 30
0.0
 11
0.0
 21
1.999999999999886
 31
0.0
210
0.0
220
0.0
230
1.0
 40
0.5
 41
1.57079632679484
 42
3.141592653589793
  0
ELLIPSE
  5
4CA
330
1F
100
AcDbEntity
  8
1
  6
SLD-Сплошная
100
AcDbEllipse
 10
1631.3568051668
 20
437.2999396036
 30
0.0
 11
0.0
 21
1.999999999999886
 31
0.0
210
0.0
220
0.0
230
1.0
 40
0.5
 41
0.0
 42
1.570796326794953
  0
ARC
  5
4CB
330
1F
100
AcDbEntity
  8
1
  6
SLD-Сплошная
100
AcDbCircle
 10
1631.3568051668
 20
437.2292289255
 30
0.0
 40
0.9999999999999432
100
AcDbArc
 50
90.0
 51
180.0
  0
ARC
  5
4CC
330
1F
100
AcDbEntity
  8
1
  6
SLD-Сплошная
100
AcDbCircle
 10
1631.3568051668
 20
437.2292289255
 30
0.0
 40
2.0
100
AcDbArc
 50
90.0
 51
98.7004774908
  0
ARC
  5
4CD
330
1F
100
AcDbEntity
  8
1
  6
SLD-Сплошная
100
AcDbCircle
 10
1631.3568051668
 20
899.2292289255
 30
0.0
 40
1.0
100
AcDbArc
 50
180.0
 51
270.0
  0
ARC
  5
4CE
330
1F
100
AcDbEntity
  8
1
  6
SLD-Сплошная
100
AcDbCircle
 10
1631.3568051668
 20
899.2292289255
 30
0.0
 40
2.0
100
AcDbArc
 50
261.2995225092
 51
270.0
  0
LINE
  5
4CF
330
1F
100
AcDbEntity
  8
1
  6
SLD-Сплошная
100
AcDbLine
 10
1631.3568051668
 20
897.1585182474
 30
0.0
 11
1637.4568051667
 21
897.1585182474
 31
0.0
  0
LINE
  5
4D0
330
1F
100
AcDbEntity
  8
1
  6
SLD-Сплошная
100
AcDbLine
 10
1631.3568051668
 20
439.2999396036
 30
0.0
 11
1637.4568051667
 21
439.2999396036
 31
0.0
  0
LINE
  5
4D1
330
1F
100
AcDbEntity
  8
1
  6
SLD-Сплошная
100
AcDbLine
 10
1637.4568051667
 20
898.2292289255
 30
0.0
 11
1631.3568051668
 21
898.2292289255
 31
0.0
  0
LINE
  5
4D2
330
1F
100
AcDbEntity
  8
1
  6
SLD-Сплошная
100
AcDbLine
 10
1637.4568051667
 20
897.2292289255
 30
0.0
 11
1631.3568051668
 21
897.2292289255
 31
0.0
  0
LINE
  5
4D3
330
1F
100
AcDbEntity
  8
1
  6
SLD-Сплошная
100
AcDbLine
 10
1637.4568051667
 20
438.2292289255
 30
0.0
 11
1631.3568051668
 21
438.2292289255
 31
0.0
  0
LINE
  5
4D4
330
1F
100
AcDbEntity
  8
1
  6
SLD-Сплошная
100
AcDbLine
 10
1637.4568051667
 20
439.2292289255
 30
0.0
 11
1631.3568051668
 21
439.2292289255
 31
0.0
  0
LINE
  5
4D5
330
1F
100
AcDbEntity
  8
1
  6
SLD-Сплошная
100
AcDbLine
 10
1508.6068051668
 20
417.7292289255
 30
0.0
 11
1498.1151312788
 21
417.7292289255
 31
0.0
  0
ARC
  5
4D6
330
1F
100
AcDbEntity
  8
1
  6
SLD-Сплошная
100
AcDbCircle
 10
1498.1151312788
 20
420.1292289255
 30
0.0
 40
2.400000000000123
100
AcDbArc
 50
232.3415379935
 51
270.0
  0
LINE
  5
4D7
330
1F
100
AcDbEntity
  8
1
  6
SLD-Сплошная
100
AcDbLine
 10
1577.6068051668
 20
417.7292289255
 30
0.0
 11
1508.6068051668
 21
417.7292289255
 31
0.0
  0
LINE
  5
4D8
330
1F
100
AcDbEntity
  8
1
  6
SLD-Сплошная
100
AcDbLine
 10
1588.0984790547
 20
417.7292289255
 30
0.0
 11
1577.6068051668
 21
417.7292289255
 31
0.0
  0
ARC
  5
4D9
330
1F
100
AcDbEntity
  8
1
  6
SLD-Сплошная
100
AcDbCircle
 10
1588.0984790547
 20
420.1292289255
 30
0.0
 40
2.400000000000034
100
AcDbArc
 50
270.0
 51
307.6584620063
  0
LINE
  5
4DA
330
1F
100
AcDbEntity
  8
1
  6
SLD-Сплошная
100
AcDbLine
 10
1657.4568051668
 20
654.2292289255
 30
0.0
 11
1657.4568051667
 21
682.2292289255
 31
0.0
  0
LINE
  5
4DB
330
1F
100
AcDbEntity
  8
1
  6
SLD-Сплошная
100
AcDbLine
 10
1660.4568051668
 20
657.2292289255
 30
0.0
 11
1660.4568051667
 21
679.2292289255
 31
0.0
  0
ENDSEC
  0
SECTION
  2
OBJECTS
  0
DICTIONARY
  5
C
330
0
100
AcDbDictionary
281
     1
  3
ACAD_GROUP
350
D
  3
ACAD_LAYOUT
350
1A
  3
ACAD_MLINESTYLE
350
17
  3
ACAD_PLOTSETTINGS
350
19
  3
ACAD_PLOTSTYLENAME
350
E
  3
ACAD_SCALELIST
350
47
  3
DWGPROPS
350
4DC
  0
DICTIONARY
  5
D
102
{ACAD_REACTORS
330
C
102
}
330
C
100
AcDbDictionary
281
     1
  0
DICTIONARY
  5
1A
102
{ACAD_REACTORS
330
C
102
}
330
C
100
AcDbDictionary
281
     1
  3
Layout1
350
1E
  3
Layout2
350
26
  3
Model
350
22
  0
DICTIONARY
  5
17
102
{ACAD_REACTORS
330
C
102
}
330
C
100
AcDbDictionary
281
     1
  3
Standard
350
18
  0
DICTIONARY
  5
19
102
{ACAD_REACTORS
330
C
102
}
330
C
100
AcDbDictionary
281
     1
  0
ACDBDICTIONARYWDFLT
  5
E
102
{ACAD_REACTORS
330
C
102
}
330
C
100
AcDbDictionary
281
     1
  3
Normal
350
F
100
AcDbDictionaryWithDefault
340
F
  0
DICTIONARY
  5
47
102
{ACAD_REACTORS
330
C
102
}
330
C
100
AcDbDictionary
281
     1
  3
A0
350
48
  3
A1
350
49
  3
A2
350
4A
  3
A3
350
4B
  3
A4
350
4C
  3
A5
350
4D
  3
A6
350
4E
  3
A7
350
4F
  3
A8
350
50
  3
A9
350
51
  3
B0
350
52
  3
B1
350
53
  3
B2
350
54
  3
B3
350
55
  3
B4
350
56
  3
B5
350
57
  3
B6
350
58
  0
XRECORD
  5
4DC
102
{ACAD_REACTORS
330
C
102
}
330
C
100
AcDbXrecord
280
     1
  1
DWGPROPS COOKIE
  2

  3

  4

  6

  7

  8
ignatieved
  9

300
=
301
=
302
=
303
=
304
=
305
=
306
=
307
=
308
=
309
=
 40
0.0
 41
2460213.503639062
 42
2460213.50363963
  1

 90
        0
  0
LAYOUT
  5
1E
102
{ACAD_REACTORS
330
1A
102
}
330
1A
100
AcDbPlotSettings
  1

  2
none_device
  4

  6

 40
0.0
 41
0.0
 42
0.0
 43
0.0
 44
0.0
 45
0.0
 46
0.0
 47
0.0
 48
0.0
 49
0.0
140
0.0
141
0.0
142
1.0
143
1.0
 70
   688
 72
     1
 73
     0
 74
     5
  7

 75
    16
147
1.0
148
0.0
149
0.0
100
AcDbLayout
  1
Layout1
 70
     1
 71
     1
 10
0.0
 20
0.0
 11
420.0
 21
297.0
 12
0.0
 22
0.0
 32
0.0
 14
1.0000000000E+20
 24
1.0000000000E+20
 34
1.0000000000E+20
 15
-1.0000000000E+20
 25
-1.0000000000E+20
 35
-1.0000000000E+20
146
0.0
 13
0.0
 23
0.0
 33
0.0
 16
1.0
 26
0.0
 36
0.0
 17
0.0
 27
1.0
 37
0.0
 76
     0
330
1B
  0
LAYOUT
  5
26
102
{ACAD_REACTORS
330
1A
102
}
330
1A
100
AcDbPlotSettings
  1

  2
none_device
  4

  6

 40
0.0
 41
0.0
 42
0.0
 43
0.0
 44
0.0
 45
0.0
 46
0.0
 47
0.0
 48
0.0
 49
0.0
140
0.0
141
0.0
142
1.0
143
1.0
 70
   688
 72
     1
 73
     0
 74
     5
  7

 75
    16
147
1.0
148
0.0
149
0.0
100
AcDbLayout
  1
Layout2
 70
     1
 71
     2
 10
0.0
 20
0.0
 11
0.0
 21
0.0
 12
0.0
 22
0.0
 32
0.0
 14
0.0
 24
0.0
 34
0.0
 15
0.0
 25
0.0
 35
0.0
146
0.0
 13
0.0
 23
0.0
 33
0.0
 16
1.0
 26
0.0
 36
0.0
 17
0.0
 27
1.0
 37
0.0
 76
     0
330
23
  0
LAYOUT
  5
22
102
{ACAD_REACTORS
330
1A
102
}
330
1A
100
AcDbPlotSettings
  1

  2
none_device
  4
Letter_(8.50_x_11.00_Inches)
  6

 40
6.35
 41
6.35
 42
6.35000508
 43
6.35000508
 44
215.9
 45
279.4
 46
0.0
 47
0.0
 48
0.0
 49
0.0
140
0.0
141
0.0
142
1.0
143
1.0
 70
  1712
 72
     1
 73
     0
 74
     0
  7

 75
     0
147
1.0
148
0.0
149
0.0
100
AcDbLayout
  1
Model
 70
     1
 71
     0
 10
0.0
 20
0.0
 11
2000.0
 21
2000.0
 12
0.0
 22
0.0
 32
0.0
 14
0.0
 24
0.0
 34
0.0
 15
2000.0
 25
2000.0
 35
0.0
146
0.0
 13
0.0
 23
0.0
 33
0.0
 16
1.0
 26
0.0
 36
0.0
 17
0.0
 27
1.0
 37
0.0
 76
     0
330
1F
331
29
  0
MLINESTYLE
  5
18
102
{ACAD_REACTORS
330
17
102
}
330
17
100
AcDbMlineStyle
  2
Standard
 70
     0
  3

 62
   256
 51
90.0
 52
90.0
 71
     2
 49
0.5
 62
   256
  6
BYLAYER
 49
-0.5
 62
   256
  6
BYLAYER
  0
ACDBPLACEHOLDER
  5
F
102
{ACAD_REACTORS
330
E
102
}
330
E
  0
SCALE
  5
48
102
{ACAD_REACTORS
330
47
102
}
330
47
100
AcDbScale
 70
     0
300
1:1
140
1.0
141
1.0
290
     1
  0
SCALE
  5
49
102
{ACAD_REACTORS
330
47
102
}
330
47
100
AcDbScale
 70
     0
300
1:2
140
1.0
141
2.0
290
     0
  0
SCALE
  5
4A
102
{ACAD_REACTORS
330
47
102
}
330
47
100
AcDbScale
 70
     0
300
1:4
140
1.0
141
4.0
290
     0
  0
SCALE
  5
4B
102
{ACAD_REACTORS
330
47
102
}
330
47
100
AcDbScale
 70
     0
300
1:5
140
1.0
141
5.0
290
     0
  0
SCALE
  5
4C
102
{ACAD_REACTORS
330
47
102
}
330
47
100
AcDbScale
 70
     0
300
1:8
140
1.0
141
8.0
290
     0
  0
SCALE
  5
4D
102
{ACAD_REACTORS
330
47
102
}
330
47
100
AcDbScale
 70
     0
300
1:10
140
1.0
141
10.0
290
     0
  0
SCALE
  5
4E
102
{ACAD_REACTORS
330
47
102
}
330
47
100
AcDbScale
 70
     0
300
1:16
140
1.0
141
16.0
290
     0
  0
SCALE
  5
4F
102
{ACAD_REACTORS
330
47
102
}
330
47
100
AcDbScale
 70
     0
300
1:20
140
1.0
141
20.0
290
     0
  0
SCALE
  5
50
102
{ACAD_REACTORS
330
47
102
}
330
47
100
AcDbScale
 70
     0
300
1:30
140
1.0
141
30.0
290
     0
  0
SCALE
  5
51
102
{ACAD_REACTORS
330
47
102
}
330
47
100
AcDbScale
 70
     0
300
1:40
140
1.0
141
40.0
290
     0
  0
SCALE
  5
52
102
{ACAD_REACTORS
330
47
102
}
330
47
100
AcDbScale
 70
     0
300
1:50
140
1.0
141
50.0
290
     0
  0
SCALE
  5
53
102
{ACAD_REACTORS
330
47
102
}
330
47
100
AcDbScale
 70
     0
300
1:100
140
1.0
141
100.0
290
     0
  0
SCALE
  5
54
102
{ACAD_REACTORS
330
47
102
}
330
47
100
AcDbScale
 70
     0
300
2:1
140
2.0
141
1.0
290
     0
  0
SCALE
  5
55
102
{ACAD_REACTORS
330
47
102
}
330
47
100
AcDbScale
 70
     0
300
4:1
140
4.0
141
1.0
290
     0
  0
SCALE
  5
56
102
{ACAD_REACTORS
330
47
102
}
330
47
100
AcDbScale
 70
     0
300
8:1
140
8.0
141
1.0
290
     0
  0
SCALE
  5
57
102
{ACAD_REACTORS
330
47
102
}
330
47
100
AcDbScale
 70
     0
300
10:1
140
10.0
141
1.0
290
     0
  0
SCALE
  5
58
102
{ACAD_REACTORS
330
47
102
}
330
47
100
AcDbScale
 70
     0
300
100:1
140
100.0
141
1.0
290
     0
  0
ENDSEC
  0
EOF
