ISO-10303-21;
HEADER;
FILE_DESCRIPTION (( 'STEP AP203' ),
    '1' );
FILE_NAME ('Ãèëüçà àëþìèíèåâàÿ GL-95-13 (ÃÀ) EKF.STEP',
    '2016-12-30T10:23:45',
    ( 'kuryshev' ),
    ( '' ),
    'SwSTEP 2.0',
    'SolidWorks 2010',
    '' );
FILE_SCHEMA (( 'CONFIG_CONTROL_DESIGN' ));
ENDSEC;

DATA;
#1 = PERSON ( 'UNSPECIFIED', 'UNSPECIFIED', 'UNSPECIFIED', ('UNSPECIFIED'), ('UNSPECIFIED'), ('UNSPECIFIED') ) ;
#2 = PRODUCT ( 'Ãèëüçà àëþìèíèåâàÿ GL-95-13 (ÃÀ) EKF', 'Ãèëüçà àëþìèíèåâàÿ GL-95-13 (ÃÀ) EKF', '', ( #234 ) ) ;
#3 = VERTEX_POINT ( 'NONE', #185 ) ;
#4 = VERTEX_POINT ( 'NONE', #10 ) ;
#5 = VERTEX_POINT ( 'NONE', #187 ) ;
#6 = VERTEX_POINT ( 'NONE', #11 ) ;
#7 = VERTEX_POINT ( 'NONE', #13 ) ;
#8 = VERTEX_POINT ( 'NONE', #12 ) ;
#9 = VERTEX_POINT ( 'NONE', #186 ) ;
#10 = CARTESIAN_POINT ( 'NONE',  ( 10.00000000000000000, 1.224646799147353300E-015, 85.00000000000000000 ) ) ;
#11 = CARTESIAN_POINT ( 'NONE',  ( 10.00000000000000000, 1.224646799147353300E-015, 0.0000000000000000000 ) ) ;
#12 = CARTESIAN_POINT ( 'NONE',  ( 6.500000000000000900, 7.960204194457796500E-016, 1.500000000000015100 ) ) ;
#13 = CARTESIAN_POINT ( 'NONE',  ( -10.00000000000000000, 0.0000000000000000000, 0.0000000000000000000 ) ) ;
#14 = CLOSED_SHELL ( 'NONE', ( #250, #246, #247, #249, #245, #248, #253, #252, #251, #254 ) ) ;
#15 = VECTOR ( 'NONE', #207, 1000.000000000000000 ) ;
#16 = EDGE_LOOP ( 'NONE', ( #32, #28, #33, #35 ) ) ;
#17 = EDGE_LOOP ( 'NONE', ( #36, #34, #37, #38 ) ) ;
#18 = EDGE_LOOP ( 'NONE', ( #50, #51, #52, #53 ) ) ;
#19 = EDGE_LOOP ( 'NONE', ( #39, #40 ) ) ;
#20 = EDGE_LOOP ( 'NONE', ( #43, #44 ) ) ;
#21 = EDGE_LOOP ( 'NONE', ( #67, #30, #29, #31 ) ) ;
#22 = EDGE_LOOP ( 'NONE', ( #64, #63, #65, #66 ) ) ;
#23 = EDGE_LOOP ( 'NONE', ( #47, #48, #49, #62 ) ) ;
#24 = EDGE_LOOP ( 'NONE', ( #41, #42 ) ) ;
#25 = EDGE_LOOP ( 'NONE', ( #45, #46 ) ) ;
#26 = EDGE_LOOP ( 'NONE', ( #54, #55, #56, #57 ) ) ;
#27 = EDGE_LOOP ( 'NONE', ( #58, #59, #60, #61 ) ) ;
#28 = ORIENTED_EDGE ( 'NONE', *, *, #181, .T. ) ;
#29 = ORIENTED_EDGE ( 'NONE', *, *, #294, .F. ) ;
#30 = ORIENTED_EDGE ( 'NONE', *, *, #295, .T. ) ;
#31 = ORIENTED_EDGE ( 'NONE', *, *, #287, .F. ) ;
#32 = ORIENTED_EDGE ( 'NONE', *, *, #293, .T. ) ;
#33 = ORIENTED_EDGE ( 'NONE', *, *, #292, .T. ) ;
#34 = ORIENTED_EDGE ( 'NONE', *, *, #289, .T. ) ;
#35 = ORIENTED_EDGE ( 'NONE', *, *, #288, .F. ) ;
#36 = ORIENTED_EDGE ( 'NONE', *, *, #290, .F. ) ;
#37 = ORIENTED_EDGE ( 'NONE', *, *, #286, .T. ) ;
#38 = ORIENTED_EDGE ( 'NONE', *, *, #285, .F. ) ;
#39 = ORIENTED_EDGE ( 'NONE', *, *, #294, .T. ) ;
#40 = ORIENTED_EDGE ( 'NONE', *, *, #182, .T. ) ;
#41 = ORIENTED_EDGE ( 'NONE', *, *, #349, .T. ) ;
#42 = ORIENTED_EDGE ( 'NONE', *, *, #290, .T. ) ;
#43 = ORIENTED_EDGE ( 'NONE', *, *, #175, .T. ) ;
#44 = ORIENTED_EDGE ( 'NONE', *, *, #174, .T. ) ;
#45 = ORIENTED_EDGE ( 'NONE', *, *, #178, .F. ) ;
#46 = ORIENTED_EDGE ( 'NONE', *, *, #286, .F. ) ;
#47 = ORIENTED_EDGE ( 'NONE', *, *, #289, .F. ) ;
#48 = ORIENTED_EDGE ( 'NONE', *, *, #349, .F. ) ;
#49 = ORIENTED_EDGE ( 'NONE', *, *, #285, .T. ) ;
#50 = ORIENTED_EDGE ( 'NONE', *, *, #181, .F. ) ;
#51 = ORIENTED_EDGE ( 'NONE', *, *, #177, .T. ) ;
#52 = ORIENTED_EDGE ( 'NONE', *, *, #288, .T. ) ;
#53 = ORIENTED_EDGE ( 'NONE', *, *, #180, .T. ) ;
#54 = ORIENTED_EDGE ( 'NONE', *, *, #295, .F. ) ;
#55 = ORIENTED_EDGE ( 'NONE', *, *, #177, .F. ) ;
#56 = ORIENTED_EDGE ( 'NONE', *, *, #287, .T. ) ;
#57 = ORIENTED_EDGE ( 'NONE', *, *, #182, .F. ) ;
#58 = ORIENTED_EDGE ( 'NONE', *, *, #291, .F. ) ;
#59 = ORIENTED_EDGE ( 'NONE', *, *, #180, .F. ) ;
#60 = ORIENTED_EDGE ( 'NONE', *, *, #183, .T. ) ;
#61 = ORIENTED_EDGE ( 'NONE', *, *, #174, .F. ) ;
#62 = ORIENTED_EDGE ( 'NONE', *, *, #178, .T. ) ;
#63 = ORIENTED_EDGE ( 'NONE', *, *, #291, .T. ) ;
#64 = ORIENTED_EDGE ( 'NONE', *, *, #292, .F. ) ;
#65 = ORIENTED_EDGE ( 'NONE', *, *, #175, .F. ) ;
#66 = ORIENTED_EDGE ( 'NONE', *, *, #183, .F. ) ;
#67 = ORIENTED_EDGE ( 'NONE', *, *, #293, .F. ) ;
#68 = FACE_OUTER_BOUND ( 'NONE', #21, .T. ) ;
#69 = LINE ( 'NONE', #200, #71 ) ;
#70 = CIRCLE ( 'NONE', #179, 8.000000000000007100 ) ;
#71 = VECTOR ( 'NONE', #201, 1000.000000000000000 ) ;
#72 = CIRCLE ( 'NONE', #176, 8.000000000000007100 ) ;
#73 = CIRCLE ( 'NONE', #284, 6.500000000000000900 ) ;
#74 = CIRCLE ( 'NONE', #125, 10.00000000000000000 ) ;
#75 = CIRCLE ( 'NONE', #127, 6.500000000000000900 ) ;
#76 = FACE_OUTER_BOUND ( 'NONE', #24, .T. ) ;
#77 = FACE_BOUND ( 'NONE', #19, .T. ) ;
#78 = LINE ( 'NONE', #199, #15 ) ;
#79 = CIRCLE ( 'NONE', #129, 7.999999999999992900 ) ;
#80 = FACE_OUTER_BOUND ( 'NONE', #17, .T. ) ;
#81 = FACE_OUTER_BOUND ( 'NONE', #16, .T. ) ;
#82 = FACE_OUTER_BOUND ( 'NONE', #23, .T. ) ;
#83 = FACE_BOUND ( 'NONE', #20, .T. ) ;
#84 = CONICAL_SURFACE ( 'NONE', #135, 6.500000000000000900, 0.7853981633974500600 ) ;
#85 = FACE_OUTER_BOUND ( 'NONE', #26, .T. ) ;
#86 = CYLINDRICAL_SURFACE ( 'NONE', #130, 6.500000000000000900 ) ;
#87 = FACE_OUTER_BOUND ( 'NONE', #25, .T. ) ;
#88 = FACE_OUTER_BOUND ( 'NONE', #22, .T. ) ;
#89 = FACE_OUTER_BOUND ( 'NONE', #18, .T. ) ;
#90 = CYLINDRICAL_SURFACE ( 'NONE', #136, 10.00000000000000000 ) ;
#91 = FACE_OUTER_BOUND ( 'NONE', #27, .T. ) ;
#92 = CONICAL_SURFACE ( 'NONE', #139, 8.000000000000007100, 0.7853981633974453900 ) ;
#93 = VECTOR ( 'NONE', #119, 999.9999999999998900 ) ;
#94 = CONICAL_SURFACE ( 'NONE', #140, 6.500000000000000900, 0.7853981633974500600 ) ;
#95 = CYLINDRICAL_SURFACE ( 'NONE', #138, 6.500000000000000900 ) ;
#96 = LINE ( 'NONE', #117, #103 ) ;
#97 = CYLINDRICAL_SURFACE ( 'NONE', #134, 10.00000000000000000 ) ;
#98 = CONICAL_SURFACE ( 'NONE', #143, 8.000000000000007100, 0.7853981633974453900 ) ;
#99 = LINE ( 'NONE', #111, #100 ) ;
#100 = VECTOR ( 'NONE', #112, 1000.000000000000000 ) ;
#101 = LINE ( 'NONE', #274, #93 ) ;
#102 = CIRCLE ( 'NONE', #142, 10.00000000000000000 ) ;
#103 = VECTOR ( 'NONE', #121, 1000.000000000000000 ) ;
#104 = CIRCLE ( 'NONE', #137, 6.500000000000000900 ) ;
#105 = LINE ( 'NONE', #122, #106 ) ;
#106 = VECTOR ( 'NONE', #123, 1000.000000000000000 ) ;
#107 = UNCERTAINTY_MEASURE_WITH_UNIT (LENGTH_MEASURE( 1.000000000000000100E-005 ), #223, 'distance_accuracy_value', 'NONE');
#108 = ADVANCED_BREP_SHAPE_REPRESENTATION ( 'Ãèëüçà àëþìèíèåâàÿ GL-95-13 (ÃÀ) EKF', ( #213, #144 ), #300 ) ;
#109 = DIRECTION ( 'NONE',  ( -0.0000000000000000000, -0.0000000000000000000, -1.000000000000000000 ) ) ;
#110 = DIRECTION ( 'NONE',  ( -1.000000000000000000, 0.0000000000000000000, 0.0000000000000000000 ) ) ;
#111 = CARTESIAN_POINT ( 'NONE',  ( -10.00000000000000000, 0.0000000000000000000, 85.00000000000000000 ) ) ;
#112 = DIRECTION ( 'NONE',  ( -0.0000000000000000000, -0.0000000000000000000, -1.000000000000000000 ) ) ;
#113 = CARTESIAN_POINT ( 'NONE',  ( 0.0000000000000000000, 0.0000000000000000000, 0.0000000000000000000 ) ) ;
#114 = DIRECTION ( 'NONE',  ( 0.0000000000000000000, 0.0000000000000000000, 1.000000000000000000 ) ) ;
#115 = DIRECTION ( 'NONE',  ( 0.0000000000000000000, 0.0000000000000000000, 1.000000000000000000 ) ) ;
#116 = DIRECTION ( 'NONE',  ( 1.000000000000000000, 0.0000000000000000000, 0.0000000000000000000 ) ) ;
#117 = CARTESIAN_POINT ( 'NONE',  ( -6.500000000000000900, 0.0000000000000000000, 85.00000000000000000 ) ) ;
#118 = CARTESIAN_POINT ( 'NONE',  ( 8.000000000000007100, 9.797174393178835500E-016, 0.0000000000000000000 ) ) ;
#119 = DIRECTION ( 'NONE',  ( 0.7071067811865489100, 0.0000000000000000000, 0.7071067811865462400 ) ) ;
#120 = CARTESIAN_POINT ( 'NONE',  ( 0.0000000000000000000, 0.0000000000000000000, 85.00000000000000000 ) ) ;
#121 = DIRECTION ( 'NONE',  ( -0.0000000000000000000, -0.0000000000000000000, -1.000000000000000000 ) ) ;
#122 = CARTESIAN_POINT ( 'NONE',  ( 10.00000000000000000, 1.224646799147353300E-015, 85.00000000000000000 ) ) ;
#123 = DIRECTION ( 'NONE',  ( -0.0000000000000000000, -0.0000000000000000000, -1.000000000000000000 ) ) ;
#124 = DIRECTION ( 'NONE',  ( 0.7071067811865454600, 8.659560562354908200E-017, -0.7071067811865495700 ) ) ;
#125 = AXIS2_PLACEMENT_3D ( 'NONE', #193, #194, #195 ) ;
#126 = AXIS2_PLACEMENT_3D ( 'NONE', #257, #258, #259 ) ;
#127 = AXIS2_PLACEMENT_3D ( 'NONE', #196, #197, #198 ) ;
#128 = AXIS2_PLACEMENT_3D ( 'NONE', #220, #225, #226 ) ;
#129 = AXIS2_PLACEMENT_3D ( 'NONE', #202, #203, #204 ) ;
#130 = AXIS2_PLACEMENT_3D ( 'NONE', #263, #262, #260 ) ;
#131 = AXIS2_PLACEMENT_3D ( 'NONE', #265, #268, #269 ) ;
#132 = AXIS2_PLACEMENT_3D ( 'NONE', #120, #216, #217 ) ;
#133 = AXIS2_PLACEMENT_3D ( 'NONE', #229, #231, #232 ) ;
#134 = AXIS2_PLACEMENT_3D ( 'NONE', #271, #109, #110 ) ;
#135 = AXIS2_PLACEMENT_3D ( 'NONE', #208, #212, #256 ) ;
#136 = AXIS2_PLACEMENT_3D ( 'NONE', #261, #264, #267 ) ;
#137 = AXIS2_PLACEMENT_3D ( 'NONE', #219, #221, #222 ) ;
#138 = AXIS2_PLACEMENT_3D ( 'NONE', #279, #281, #282 ) ;
#139 = AXIS2_PLACEMENT_3D ( 'NONE', #273, #272, #270 ) ;
#140 = AXIS2_PLACEMENT_3D ( 'NONE', #276, #275, #278 ) ;
#141 = AXIS2_PLACEMENT_3D ( 'NONE', #218, #114, #224 ) ;
#142 = AXIS2_PLACEMENT_3D ( 'NONE', #113, #115, #116 ) ;
#143 = AXIS2_PLACEMENT_3D ( 'NONE', #277, #283, #280 ) ;
#144 = AXIS2_PLACEMENT_3D ( 'NONE', #164, #165, #166 ) ;
#145 = CC_DESIGN_PERSON_AND_ORGANIZATION_ASSIGNMENT ( #303, #235, ( #2 ) ) ;
#146 = PRODUCT_DEFINITION ( 'UNKNOWN', '', #151, #214 ) ;
#147 = APPROVAL ( #238, 'UNSPECIFIED' ) ;
#148 = CC_DESIGN_APPROVAL ( #147, ( #146 ) ) ;
#149 = CC_DESIGN_PERSON_AND_ORGANIZATION_ASSIGNMENT ( #311, #240, ( #146 ) ) ;
#150 = CC_DESIGN_DATE_AND_TIME_ASSIGNMENT ( #315, #241, ( #146 ) ) ;
#151 = PRODUCT_DEFINITION_FORMATION_WITH_SPECIFIED_SOURCE ( 'ANY', '', #2, .NOT_KNOWN. ) ;
#152 = APPROVAL ( #242, 'UNSPECIFIED' ) ;
#153 = CC_DESIGN_APPROVAL ( #152, ( #151 ) ) ;
#154 = CC_DESIGN_PERSON_AND_ORGANIZATION_ASSIGNMENT ( #323, #244, ( #151 ) ) ;
#155 = CC_DESIGN_PERSON_AND_ORGANIZATION_ASSIGNMENT ( #324, #168, ( #151 ) ) ;
#156 = SECURITY_CLASSIFICATION ( '', '', #169 ) ;
#157 = CC_DESIGN_PERSON_AND_ORGANIZATION_ASSIGNMENT ( #325, #170, ( #156 ) ) ;
#158 = CC_DESIGN_DATE_AND_TIME_ASSIGNMENT ( #329, #171, ( #156 ) ) ;
#159 = APPROVAL ( #172, 'UNSPECIFIED' ) ;
#160 = CC_DESIGN_APPROVAL ( #159, ( #156 ) ) ;
#161 = CC_DESIGN_SECURITY_CLASSIFICATION ( #156, ( #151 ) ) ;
#162 = PRODUCT_RELATED_PRODUCT_CATEGORY ( 'detail', '', ( #2 ) ) ;
#163 =( NAMED_UNIT ( * ) SI_UNIT ( $, .STERADIAN. ) SOLID_ANGLE_UNIT ( ) );
#164 = CARTESIAN_POINT ( 'NONE',  ( 0.0000000000000000000, 0.0000000000000000000, 0.0000000000000000000 ) ) ;
#165 = DIRECTION ( 'NONE',  ( 0.0000000000000000000, 0.0000000000000000000, 1.000000000000000000 ) ) ;
#166 = DIRECTION ( 'NONE',  ( 1.000000000000000000, 0.0000000000000000000, 0.0000000000000000000 ) ) ;
#167 = APPLICATION_CONTEXT ( 'configuration controlled 3d designs of mechanical parts and assemblies' ) ;
#168 = PERSON_AND_ORGANIZATION_ROLE ( 'design_supplier' ) ;
#169 = SECURITY_CLASSIFICATION_LEVEL ( 'unclassified' ) ;
#170 = PERSON_AND_ORGANIZATION_ROLE ( 'classification_officer' ) ;
#171 = DATE_TIME_ROLE ( 'classification_date' ) ;
#172 = APPROVAL_STATUS ( 'not_yet_approved' ) ;
#173 = APPROVAL_ROLE ( '' ) ;
#174 = EDGE_CURVE ( 'NONE', #184, #188, #70, .T. ) ;
#175 = EDGE_CURVE ( 'NONE', #188, #184, #72, .T. ) ;
#176 = AXIS2_PLACEMENT_3D ( 'NONE', #341, #342, #343 ) ;
#177 = EDGE_CURVE ( 'NONE', #190, #189, #73, .T. ) ;
#178 = EDGE_CURVE ( 'NONE', #7, #6, #74, .T. ) ;
#179 = AXIS2_PLACEMENT_3D ( 'NONE', #339, #338, #340 ) ;
#180 = EDGE_CURVE ( 'NONE', #9, #8, #75, .T. ) ;
#181 = EDGE_CURVE ( 'NONE', #190, #8, #69, .T. ) ;
#182 = EDGE_CURVE ( 'NONE', #191, #3, #79, .T. ) ;
#183 = EDGE_CURVE ( 'NONE', #9, #188, #78, .T. ) ;
#184 = VERTEX_POINT ( 'NONE', #206 ) ;
#185 = CARTESIAN_POINT ( 'NONE',  ( 7.999999999999992900, 0.0000000000000000000, 85.00000000000000000 ) ) ;
#186 = CARTESIAN_POINT ( 'NONE',  ( -6.500000000000000900, 0.0000000000000000000, 1.500000000000015100 ) ) ;
#187 = CARTESIAN_POINT ( 'NONE',  ( -10.00000000000000000, 0.0000000000000000000, 85.00000000000000000 ) ) ;
#188 = VERTEX_POINT ( 'NONE', #209 ) ;
#189 = VERTEX_POINT ( 'NONE', #210 ) ;
#190 = VERTEX_POINT ( 'NONE', #211 ) ;
#191 = VERTEX_POINT ( 'NONE', #205 ) ;
#192 = DIRECTION ( 'NONE',  ( 1.000000000000000000, 0.0000000000000000000, 0.0000000000000000000 ) ) ;
#193 = CARTESIAN_POINT ( 'NONE',  ( 0.0000000000000000000, 0.0000000000000000000, 0.0000000000000000000 ) ) ;
#194 = DIRECTION ( 'NONE',  ( 0.0000000000000000000, 0.0000000000000000000, 1.000000000000000000 ) ) ;
#195 = DIRECTION ( 'NONE',  ( 1.000000000000000000, 0.0000000000000000000, 0.0000000000000000000 ) ) ;
#196 = CARTESIAN_POINT ( 'NONE',  ( 0.0000000000000000000, 0.0000000000000000000, 1.500000000000015100 ) ) ;
#197 = DIRECTION ( 'NONE',  ( -0.0000000000000000000, -0.0000000000000000000, -1.000000000000000000 ) ) ;
#198 = DIRECTION ( 'NONE',  ( 1.000000000000000000, 0.0000000000000000000, 0.0000000000000000000 ) ) ;
#199 = CARTESIAN_POINT ( 'NONE',  ( -8.000000000000007100, 0.0000000000000000000, 0.0000000000000000000 ) ) ;
#200 = CARTESIAN_POINT ( 'NONE',  ( 6.500000000000000900, 7.960204194457796500E-016, 85.00000000000000000 ) ) ;
#201 = DIRECTION ( 'NONE',  ( -0.0000000000000000000, -0.0000000000000000000, -1.000000000000000000 ) ) ;
#202 = CARTESIAN_POINT ( 'NONE',  ( 0.0000000000000000000, 0.0000000000000000000, 85.00000000000000000 ) ) ;
#203 = DIRECTION ( 'NONE',  ( -0.0000000000000000000, -0.0000000000000000000, -1.000000000000000000 ) ) ;
#204 = DIRECTION ( 'NONE',  ( 1.000000000000000000, 0.0000000000000000000, 0.0000000000000000000 ) ) ;
#205 = CARTESIAN_POINT ( 'NONE',  ( -7.999999999999992900, 9.797174393178815800E-016, 85.00000000000000000 ) ) ;
#206 = CARTESIAN_POINT ( 'NONE',  ( 8.000000000000007100, 9.797174393178835500E-016, 0.0000000000000000000 ) ) ;
#207 = DIRECTION ( 'NONE',  ( -0.7071067811865454600, 0.0000000000000000000, -0.7071067811865495700 ) ) ;
#208 = CARTESIAN_POINT ( 'NONE',  ( 0.0000000000000000000, 0.0000000000000000000, 83.50000000000001400 ) ) ;
#209 = CARTESIAN_POINT ( 'NONE',  ( -8.000000000000007100, 0.0000000000000000000, 0.0000000000000000000 ) ) ;
#210 = CARTESIAN_POINT ( 'NONE',  ( -6.500000000000000900, 0.0000000000000000000, 83.50000000000001400 ) ) ;
#211 = CARTESIAN_POINT ( 'NONE',  ( 6.500000000000000900, 7.960204194457796500E-016, 83.50000000000001400 ) ) ;
#212 = DIRECTION ( 'NONE',  ( 0.0000000000000000000, 0.0000000000000000000, 1.000000000000000000 ) ) ;
#213 = MANIFOLD_SOLID_BREP ( 'Ôàñêà1', #14 ) ;
#214 = DESIGN_CONTEXT ( 'detailed design', #236, 'design' ) ;
#215 = PRODUCT_DEFINITION_SHAPE ( 'NONE', 'NONE',  #146 ) ;
#216 = DIRECTION ( 'NONE',  ( 0.0000000000000000000, 0.0000000000000000000, 1.000000000000000000 ) ) ;
#217 = DIRECTION ( 'NONE',  ( 1.000000000000000000, 0.0000000000000000000, 0.0000000000000000000 ) ) ;
#218 = CARTESIAN_POINT ( 'NONE',  ( 0.0000000000000000000, 0.0000000000000000000, 83.50000000000001400 ) ) ;
#219 = CARTESIAN_POINT ( 'NONE',  ( 0.0000000000000000000, 0.0000000000000000000, 1.500000000000015100 ) ) ;
#220 = CARTESIAN_POINT ( 'NONE',  ( 0.0000000000000000000, 0.0000000000000000000, 85.00000000000000000 ) ) ;
#221 = DIRECTION ( 'NONE',  ( -0.0000000000000000000, -0.0000000000000000000, -1.000000000000000000 ) ) ;
#222 = DIRECTION ( 'NONE',  ( 1.000000000000000000, 0.0000000000000000000, 0.0000000000000000000 ) ) ;
#223 =( LENGTH_UNIT ( ) NAMED_UNIT ( * ) SI_UNIT ( .MILLI., .METRE. ) );
#224 = DIRECTION ( 'NONE',  ( 1.000000000000000000, 0.0000000000000000000, 0.0000000000000000000 ) ) ;
#225 = DIRECTION ( 'NONE',  ( -0.0000000000000000000, -0.0000000000000000000, -1.000000000000000000 ) ) ;
#226 = DIRECTION ( 'NONE',  ( 1.000000000000000000, 0.0000000000000000000, 0.0000000000000000000 ) ) ;
#227 = CARTESIAN_POINT ( 'NONE',  ( -6.500000000000000900, 7.960204194457794500E-016, 83.50000000000001400 ) ) ;
#228 = DIRECTION ( 'NONE',  ( -0.7071067811865489100, 8.659560562354948900E-017, 0.7071067811865462400 ) ) ;
#229 = CARTESIAN_POINT ( 'NONE',  ( 0.0000000000000000000, 0.0000000000000000000, 85.00000000000000000 ) ) ;
#230 =( NAMED_UNIT ( * ) PLANE_ANGLE_UNIT ( ) SI_UNIT ( $, .RADIAN. ) );
#231 = DIRECTION ( 'NONE',  ( 0.0000000000000000000, 0.0000000000000000000, 1.000000000000000000 ) ) ;
#232 = DIRECTION ( 'NONE',  ( 1.000000000000000000, 0.0000000000000000000, 0.0000000000000000000 ) ) ;
#233 = APPLICATION_PROTOCOL_DEFINITION ( 'international standard', 'config_control_design', 1994, #167 ) ;
#234 = MECHANICAL_CONTEXT ( 'NONE', #167, 'mechanical' ) ;
#235 = PERSON_AND_ORGANIZATION_ROLE ( 'design_owner' ) ;
#236 = APPLICATION_CONTEXT ( 'configuration controlled 3d designs of mechanical parts and assemblies' ) ;
#237 = APPLICATION_PROTOCOL_DEFINITION ( 'international standard', 'config_control_design', 1994, #236 ) ;
#238 = APPROVAL_STATUS ( 'not_yet_approved' ) ;
#239 = APPROVAL_ROLE ( '' ) ;
#240 = PERSON_AND_ORGANIZATION_ROLE ( 'creator' ) ;
#241 = DATE_TIME_ROLE ( 'creation_date' ) ;
#242 = APPROVAL_STATUS ( 'not_yet_approved' ) ;
#243 = APPROVAL_ROLE ( '' ) ;
#244 = PERSON_AND_ORGANIZATION_ROLE ( 'creator' ) ;
#245 = ADVANCED_FACE ( 'NONE', ( #77, #76 ), #255, .T. ) ;
#246 = ADVANCED_FACE ( 'NONE', ( #68 ), #84, .F. ) ;
#247 = ADVANCED_FACE ( 'NONE', ( #81 ), #86, .F. ) ;
#248 = ADVANCED_FACE ( 'NONE', ( #83, #87 ), #266, .F. ) ;
#249 = ADVANCED_FACE ( 'NONE', ( #80 ), #90, .T. ) ;
#250 = ADVANCED_FACE ( 'NONE', ( #88 ), #92, .F. ) ;
#251 = ADVANCED_FACE ( 'NONE', ( #85 ), #94, .F. ) ;
#252 = ADVANCED_FACE ( 'NONE', ( #89 ), #95, .F. ) ;
#253 = ADVANCED_FACE ( 'NONE', ( #82 ), #97, .T. ) ;
#254 = ADVANCED_FACE ( 'NONE', ( #91 ), #98, .F. ) ;
#255 = PLANE ( 'NONE',  #126 ) ;
#256 = DIRECTION ( 'NONE',  ( 1.000000000000000000, 0.0000000000000000000, 0.0000000000000000000 ) ) ;
#257 = CARTESIAN_POINT ( 'NONE',  ( 0.0000000000000000000, 0.0000000000000000000, 85.00000000000000000 ) ) ;
#258 = DIRECTION ( 'NONE',  ( 0.0000000000000000000, 0.0000000000000000000, 1.000000000000000000 ) ) ;
#259 = DIRECTION ( 'NONE',  ( 1.000000000000000000, 0.0000000000000000000, -0.0000000000000000000 ) ) ;
#260 = DIRECTION ( 'NONE',  ( -1.000000000000000000, 0.0000000000000000000, 0.0000000000000000000 ) ) ;
#261 = CARTESIAN_POINT ( 'NONE',  ( 0.0000000000000000000, 0.0000000000000000000, 85.00000000000000000 ) ) ;
#262 = DIRECTION ( 'NONE',  ( -0.0000000000000000000, -0.0000000000000000000, -1.000000000000000000 ) ) ;
#263 = CARTESIAN_POINT ( 'NONE',  ( 0.0000000000000000000, 0.0000000000000000000, 85.00000000000000000 ) ) ;
#264 = DIRECTION ( 'NONE',  ( -0.0000000000000000000, -0.0000000000000000000, -1.000000000000000000 ) ) ;
#265 = CARTESIAN_POINT ( 'NONE',  ( 0.0000000000000000000, 0.0000000000000000000, 0.0000000000000000000 ) ) ;
#266 = PLANE ( 'NONE',  #131 ) ;
#267 = DIRECTION ( 'NONE',  ( -1.000000000000000000, 0.0000000000000000000, 0.0000000000000000000 ) ) ;
#268 = DIRECTION ( 'NONE',  ( 0.0000000000000000000, 0.0000000000000000000, 1.000000000000000000 ) ) ;
#269 = DIRECTION ( 'NONE',  ( 1.000000000000000000, 0.0000000000000000000, -0.0000000000000000000 ) ) ;
#270 = DIRECTION ( 'NONE',  ( -1.000000000000000000, 0.0000000000000000000, 0.0000000000000000000 ) ) ;
#271 = CARTESIAN_POINT ( 'NONE',  ( 0.0000000000000000000, 0.0000000000000000000, 85.00000000000000000 ) ) ;
#272 = DIRECTION ( 'NONE',  ( -0.0000000000000000000, -0.0000000000000000000, -1.000000000000000000 ) ) ;
#273 = CARTESIAN_POINT ( 'NONE',  ( 0.0000000000000000000, 0.0000000000000000000, 0.0000000000000000000 ) ) ;
#274 = CARTESIAN_POINT ( 'NONE',  ( 6.500000000000000900, 0.0000000000000000000, 83.50000000000001400 ) ) ;
#275 = DIRECTION ( 'NONE',  ( 0.0000000000000000000, 0.0000000000000000000, 1.000000000000000000 ) ) ;
#276 = CARTESIAN_POINT ( 'NONE',  ( 0.0000000000000000000, 0.0000000000000000000, 83.50000000000001400 ) ) ;
#277 = CARTESIAN_POINT ( 'NONE',  ( 0.0000000000000000000, 0.0000000000000000000, 0.0000000000000000000 ) ) ;
#278 = DIRECTION ( 'NONE',  ( 1.000000000000000000, 0.0000000000000000000, 0.0000000000000000000 ) ) ;
#279 = CARTESIAN_POINT ( 'NONE',  ( 0.0000000000000000000, 0.0000000000000000000, 85.00000000000000000 ) ) ;
#280 = DIRECTION ( 'NONE',  ( -1.000000000000000000, 0.0000000000000000000, 0.0000000000000000000 ) ) ;
#281 = DIRECTION ( 'NONE',  ( -0.0000000000000000000, -0.0000000000000000000, -1.000000000000000000 ) ) ;
#282 = DIRECTION ( 'NONE',  ( -1.000000000000000000, 0.0000000000000000000, 0.0000000000000000000 ) ) ;
#283 = DIRECTION ( 'NONE',  ( -0.0000000000000000000, -0.0000000000000000000, -1.000000000000000000 ) ) ;
#284 = AXIS2_PLACEMENT_3D ( 'NONE', #337, #344, #192 ) ;
#285 = EDGE_CURVE ( 'NONE', #5, #7, #99, .T. ) ;
#286 = EDGE_CURVE ( 'NONE', #6, #7, #102, .T. ) ;
#287 = EDGE_CURVE ( 'NONE', #190, #3, #101, .T. ) ;
#288 = EDGE_CURVE ( 'NONE', #189, #9, #96, .T. ) ;
#289 = EDGE_CURVE ( 'NONE', #4, #6, #105, .T. ) ;
#290 = EDGE_CURVE ( 'NONE', #4, #5, #346, .T. ) ;
#291 = EDGE_CURVE ( 'NONE', #8, #184, #345, .T. ) ;
#292 = EDGE_CURVE ( 'NONE', #8, #9, #104, .T. ) ;
#293 = EDGE_CURVE ( 'NONE', #189, #190, #297, .T. ) ;
#294 = EDGE_CURVE ( 'NONE', #3, #191, #298, .T. ) ;
#295 = EDGE_CURVE ( 'NONE', #189, #191, #348, .T. ) ;
#296 = VECTOR ( 'NONE', #228, 999.9999999999998900 ) ;
#297 = CIRCLE ( 'NONE', #141, 6.500000000000000900 ) ;
#298 = CIRCLE ( 'NONE', #128, 7.999999999999992900 ) ;
#299 = CIRCLE ( 'NONE', #133, 10.00000000000000000 ) ;
#300 =( GEOMETRIC_REPRESENTATION_CONTEXT ( 3 ) GLOBAL_UNCERTAINTY_ASSIGNED_CONTEXT ( ( #107 ) ) GLOBAL_UNIT_ASSIGNED_CONTEXT ( ( #223, #230, #163 ) ) REPRESENTATION_CONTEXT ( 'NONE', 'WORKASPACE' ) );
#301 = SHAPE_DEFINITION_REPRESENTATION ( #215, #108 ) ;
#302 = ORGANIZATION ( 'UNSPECIFIED', 'UNSPECIFIED', '' ) ;
#303 = PERSON_AND_ORGANIZATION ( #1, #302 ) ;
#304 = PERSON_AND_ORGANIZATION ( #1, #302 ) ;
#305 = APPROVAL_PERSON_ORGANIZATION ( #304, #147, #239 ) ;
#306 = COORDINATED_UNIVERSAL_TIME_OFFSET ( 3, 0, .AHEAD. ) ;
#307 = LOCAL_TIME ( 13, 23, 45.00000000000000000, #306 ) ;
#308 = CALENDAR_DATE ( 2016, 30, 12 ) ;
#309 = DATE_AND_TIME ( #308, #307 ) ;
#310 = APPROVAL_DATE_TIME ( #309, #147 ) ;
#311 = PERSON_AND_ORGANIZATION ( #1, #302 ) ;
#312 = COORDINATED_UNIVERSAL_TIME_OFFSET ( 3, 0, .AHEAD. ) ;
#313 = LOCAL_TIME ( 13, 23, 45.00000000000000000, #312 ) ;
#314 = CALENDAR_DATE ( 2016, 30, 12 ) ;
#315 = DATE_AND_TIME ( #314, #313 ) ;
#316 = PERSON_AND_ORGANIZATION ( #1, #302 ) ;
#317 = APPROVAL_PERSON_ORGANIZATION ( #316, #152, #243 ) ;
#318 = COORDINATED_UNIVERSAL_TIME_OFFSET ( 3, 0, .AHEAD. ) ;
#319 = LOCAL_TIME ( 13, 23, 45.00000000000000000, #318 ) ;
#320 = CALENDAR_DATE ( 2016, 30, 12 ) ;
#321 = DATE_AND_TIME ( #320, #319 ) ;
#322 = APPROVAL_DATE_TIME ( #321, #152 ) ;
#323 = PERSON_AND_ORGANIZATION ( #1, #302 ) ;
#324 = PERSON_AND_ORGANIZATION ( #1, #302 ) ;
#325 = PERSON_AND_ORGANIZATION ( #1, #302 ) ;
#326 = COORDINATED_UNIVERSAL_TIME_OFFSET ( 3, 0, .AHEAD. ) ;
#327 = LOCAL_TIME ( 13, 23, 45.00000000000000000, #326 ) ;
#328 = CALENDAR_DATE ( 2016, 30, 12 ) ;
#329 = DATE_AND_TIME ( #328, #327 ) ;
#330 = PERSON_AND_ORGANIZATION ( #1, #302 ) ;
#331 = APPROVAL_PERSON_ORGANIZATION ( #330, #159, #173 ) ;
#332 = COORDINATED_UNIVERSAL_TIME_OFFSET ( 3, 0, .AHEAD. ) ;
#333 = LOCAL_TIME ( 13, 23, 45.00000000000000000, #332 ) ;
#334 = CALENDAR_DATE ( 2016, 30, 12 ) ;
#335 = DATE_AND_TIME ( #334, #333 ) ;
#336 = APPROVAL_DATE_TIME ( #335, #159 ) ;
#337 = CARTESIAN_POINT ( 'NONE',  ( 0.0000000000000000000, 0.0000000000000000000, 83.50000000000001400 ) ) ;
#338 = DIRECTION ( 'NONE',  ( 0.0000000000000000000, 0.0000000000000000000, 1.000000000000000000 ) ) ;
#339 = CARTESIAN_POINT ( 'NONE',  ( 0.0000000000000000000, 0.0000000000000000000, 0.0000000000000000000 ) ) ;
#340 = DIRECTION ( 'NONE',  ( 1.000000000000000000, 0.0000000000000000000, 0.0000000000000000000 ) ) ;
#341 = CARTESIAN_POINT ( 'NONE',  ( 0.0000000000000000000, 0.0000000000000000000, 0.0000000000000000000 ) ) ;
#342 = DIRECTION ( 'NONE',  ( 0.0000000000000000000, 0.0000000000000000000, 1.000000000000000000 ) ) ;
#343 = DIRECTION ( 'NONE',  ( 1.000000000000000000, 0.0000000000000000000, 0.0000000000000000000 ) ) ;
#344 = DIRECTION ( 'NONE',  ( 0.0000000000000000000, 0.0000000000000000000, 1.000000000000000000 ) ) ;
#345 = LINE ( 'NONE', #118, #347 ) ;
#346 = CIRCLE ( 'NONE', #132, 10.00000000000000000 ) ;
#347 = VECTOR ( 'NONE', #124, 1000.000000000000000 ) ;
#348 = LINE ( 'NONE', #227, #296 ) ;
#349 = EDGE_CURVE ( 'NONE', #5, #4, #299, .T. ) ;
ENDSEC;
END-ISO-10303-21;
