ISO-10303-21;
HEADER;
FILE_DESCRIPTION (( 'STEP AP203' ),
    '1' );
FILE_NAME ('Ñîåäèíèòåëüíàÿ íàêëàäêà CGB_37352.STEP',
    '2012-11-09T08:54:43',
    ( 'Àñååâ' ),
    ( '' ),
    'SwSTEP 2.0',
    'SolidWorks 2012',
    '' );
FILE_SCHEMA (( 'CONFIG_CONTROL_DESIGN' ));
ENDSEC;

DATA;
#1 = PRODUCT_DEFINITION_SHAPE ( 'NONE', 'NONE',  #129 ) ;
#2 = DESIGN_CONTEXT ( 'detailed design', #18, 'design' ) ;
#3 = DIRECTION ( 'NONE',  ( -1.000000000000000000, 0.0000000000000000000, 0.0000000000000000000 ) ) ;
#4 = DIRECTION ( 'NONE',  ( 0.0000000000000000000, 0.0000000000000000000, 1.000000000000000000 ) ) ;
#5 = DIRECTION ( 'NONE',  ( 5.162867488026211000E-018, 1.000000000000000000, 0.0000000000000000000 ) ) ;
#6 = DIRECTION ( 'NONE',  ( 1.000000000000000000, -8.673617379884035500E-015, 0.0000000000000000000 ) ) ;
#7 = DIRECTION ( 'NONE',  ( 8.673617379884035500E-015, 1.000000000000000000, 0.0000000000000000000 ) ) ;
#8 = CARTESIAN_POINT ( 'NONE',  ( -3.889109440367007500E-014, -9.199999999999999300, -17.50000000000000000 ) ) ;
#9 = PLANE ( 'NONE',  #86 ) ;
#10 =( LENGTH_UNIT ( ) NAMED_UNIT ( * ) SI_UNIT ( .MILLI., .METRE. ) );
#11 =( NAMED_UNIT ( * ) PLANE_ANGLE_UNIT ( ) SI_UNIT ( $, .RADIAN. ) );
#12 =( NAMED_UNIT ( * ) SI_UNIT ( $, .STERADIAN. ) SOLID_ANGLE_UNIT ( ) );
#13 = APPLICATION_PROTOCOL_DEFINITION ( 'international standard', 'config_control_design', 1994, #14 ) ;
#14 = APPLICATION_CONTEXT ( 'configuration controlled 3d designs of mechanical parts and assemblies' ) ;
#15 = DIRECTION ( 'NONE',  ( 1.000000000000000000, 0.0000000000000000000, 0.0000000000000000000 ) ) ;
#16 = MECHANICAL_CONTEXT ( 'NONE', #14, 'mechanical' ) ;
#17 = PERSON_AND_ORGANIZATION_ROLE ( 'design_owner' ) ;
#18 = APPLICATION_CONTEXT ( 'configuration controlled 3d designs of mechanical parts and assemblies' ) ;
#19 = APPLICATION_PROTOCOL_DEFINITION ( 'international standard', 'config_control_design', 1994, #18 ) ;
#20 = APPROVAL_STATUS ( 'not_yet_approved' ) ;
#21 = APPROVAL_ROLE ( '' ) ;
#22 = PERSON_AND_ORGANIZATION_ROLE ( 'creator' ) ;
#23 = DATE_TIME_ROLE ( 'creation_date' ) ;
#24 = APPROVAL_ROLE ( '' ) ;
#25 = PERSON_AND_ORGANIZATION_ROLE ( 'creator' ) ;
#26 = PERSON_AND_ORGANIZATION_ROLE ( 'design_supplier' ) ;
#27 = SECURITY_CLASSIFICATION_LEVEL ( 'unclassified' ) ;
#28 = APPROVAL_STATUS ( 'not_yet_approved' ) ;
#29 = PERSON_AND_ORGANIZATION_ROLE ( 'classification_officer' ) ;
#30 = DATE_TIME_ROLE ( 'classification_date' ) ;
#31 = APPROVAL_STATUS ( 'not_yet_approved' ) ;
#32 = APPROVAL_ROLE ( '' ) ;
#33 = DIRECTION ( 'NONE',  ( 1.000000000000000000, 0.0000000000000000000, -0.0000000000000000000 ) ) ;
#34 = CARTESIAN_POINT ( 'NONE',  ( -47.00000000000000000, 0.0000000000000000000, -65.00000000000000000 ) ) ;
#35 = CARTESIAN_POINT ( 'NONE',  ( 47.00000000000000000, 0.0000000000000000000, -65.00000000000000000 ) ) ;
#36 = DIRECTION ( 'NONE',  ( 1.614769193063517100E-017, 1.000000000000000000, -0.0000000000000000000 ) ) ;
#37 = CARTESIAN_POINT ( 'NONE',  ( -47.00000000000000000, 0.8000000000000016000, -65.00000000000000000 ) ) ;
#38 = DIRECTION ( 'NONE',  ( 0.0000000000000000000, -1.000000000000000000, 0.0000000000000000000 ) ) ;
#39 = PLANE ( 'NONE',  #84 ) ;
#40 = DIRECTION ( 'NONE',  ( -1.000000000000000000, 1.614769193063517100E-017, 0.0000000000000000000 ) ) ;
#41 = CARTESIAN_POINT ( 'NONE',  ( -47.00000000000000000, 0.0000000000000000000, -65.00000000000000000 ) ) ;
#42 = DIRECTION ( 'NONE',  ( -1.000000000000000000, 0.0000000000000000000, 0.0000000000000000000 ) ) ;
#43 = PLANE ( 'NONE',  #76 ) ;
#44 = CARTESIAN_POINT ( 'NONE',  ( -47.00000000000000000, 0.0000000000000000000, 0.0000000000000000000 ) ) ;
#45 = DIRECTION ( 'NONE',  ( 0.0000000000000000000, -0.0000000000000000000, -1.000000000000000000 ) ) ;
#46 = DIRECTION ( 'NONE',  ( 1.000000000000000000, 0.0000000000000000000, -0.0000000000000000000 ) ) ;
#47 = PLANE ( 'NONE',  #80 ) ;
#48 = CARTESIAN_POINT ( 'NONE',  ( -47.00000000000000000, 0.8000000000000016000, 0.0000000000000000000 ) ) ;
#49 = CARTESIAN_POINT ( 'NONE',  ( -3.889109440367007500E-014, -9.199999999999999300, -47.50000000000000000 ) ) ;
#50 = DIRECTION ( 'NONE',  ( 5.162867488026211000E-018, 1.000000000000000000, 0.0000000000000000000 ) ) ;
#51 = CARTESIAN_POINT ( 'NONE',  ( -3.884359602278023100E-014, 0.0000000000000000000, -50.00000000000000000 ) ) ;
#52 = CARTESIAN_POINT ( 'NONE',  ( 2.499999999999960900, 0.8000000000000008200, -47.50000000000000000 ) ) ;
#53 = CARTESIAN_POINT ( 'NONE',  ( 2.499999999999960900, 0.8000000000000008200, -17.50000000000000000 ) ) ;
#54 = CARTESIAN_POINT ( 'NONE',  ( -3.884359602278023100E-014, 0.0000000000000000000, -20.00000000000000000 ) ) ;
#55 = DIRECTION ( 'NONE',  ( 0.0000000000000000000, 0.0000000000000000000, 1.000000000000000000 ) ) ;
#56 = PLANE ( 'NONE',  #83 ) ;
#57 = CARTESIAN_POINT ( 'NONE',  ( 0.0000000000000000000, 0.0000000000000000000, 0.0000000000000000000 ) ) ;
#58 = DIRECTION ( 'NONE',  ( 0.0000000000000000000, 0.0000000000000000000, 1.000000000000000000 ) ) ;
#59 = DIRECTION ( 'NONE',  ( 0.0000000000000000000, 0.0000000000000000000, 1.000000000000000000 ) ) ;
#60 = DIRECTION ( 'NONE',  ( -1.000000000000000000, 0.0000000000000000000, 0.0000000000000000000 ) ) ;
#61 = EDGE_CURVE ( 'NONE', #91, #98, #162, .T. ) ;
#62 = EDGE_CURVE ( 'NONE', #94, #91, #159, .T. ) ;
#63 = EDGE_CURVE ( 'NONE', #100, #110, #163, .T. ) ;
#64 = EDGE_CURVE ( 'NONE', #268, #268, #160, .T. ) ;
#65 = EDGE_CURVE ( 'NONE', #281, #281, #153, .T. ) ;
#66 = EDGE_CURVE ( 'NONE', #105, #100, #155, .T. ) ;
#67 = EDGE_CURVE ( 'NONE', #100, #109, #154, .T. ) ;
#68 = EDGE_CURVE ( 'NONE', #98, #110, #157, .T. ) ;
#69 = EDGE_CURVE ( 'NONE', #110, #103, #149, .T. ) ;
#70 = EDGE_CURVE ( 'NONE', #94, #105, #147, .T. ) ;
#71 = EDGE_CURVE ( 'NONE', #253, #253, #150, .T. ) ;
#72 = EDGE_CURVE ( 'NONE', #109, #94, #143, .T. ) ;
#73 = AXIS2_PLACEMENT_3D ( 'NONE', #237, #229, #228 ) ;
#74 = AXIS2_PLACEMENT_3D ( 'NONE', #219, #236, #244 ) ;
#75 = AXIS2_PLACEMENT_3D ( 'NONE', #232, #218, #225 ) ;
#76 = AXIS2_PLACEMENT_3D ( 'NONE', #41, #38, #45 ) ;
#77 = EDGE_CURVE ( 'NONE', #109, #103, #144, .T. ) ;
#78 = AXIS2_PLACEMENT_3D ( 'NONE', #49, #50, #42 ) ;
#79 =( GEOMETRIC_REPRESENTATION_CONTEXT ( 3 ) GLOBAL_UNCERTAINTY_ASSIGNED_CONTEXT ( ( #112 ) ) GLOBAL_UNIT_ASSIGNED_CONTEXT ( ( #10, #11, #12 ) ) REPRESENTATION_CONTEXT ( 'NONE', 'WORKASPACE' ) );
#80 = AXIS2_PLACEMENT_3D ( 'NONE', #44, #59, #46 ) ;
#81 = EDGE_CURVE ( 'NONE', #105, #98, #139, .T. ) ;
#82 = EDGE_CURVE ( 'NONE', #103, #91, #138, .T. ) ;
#83 = AXIS2_PLACEMENT_3D ( 'NONE', #34, #3, #4 ) ;
#84 = AXIS2_PLACEMENT_3D ( 'NONE', #37, #36, #40 ) ;
#85 = AXIS2_PLACEMENT_3D ( 'NONE', #8, #5, #60 ) ;
#86 = AXIS2_PLACEMENT_3D ( 'NONE', #35, #6, #7 ) ;
#87 = AXIS2_PLACEMENT_3D ( 'NONE', #249, #55, #33 ) ;
#88 = EDGE_CURVE ( 'NONE', #266, #266, #136, .T. ) ;
#89 = AXIS2_PLACEMENT_3D ( 'NONE', #248, #246, #213 ) ;
#90 = ORIENTED_EDGE ( 'NONE', *, *, #70, .F. ) ;
#91 = VERTEX_POINT ( 'NONE', #210 ) ;
#92 = ORIENTED_EDGE ( 'NONE', *, *, #77, .T. ) ;
#93 = ORIENTED_EDGE ( 'NONE', *, *, #88, .F. ) ;
#94 = VERTEX_POINT ( 'NONE', #251 ) ;
#95 = ORIENTED_EDGE ( 'NONE', *, *, #68, .T. ) ;
#96 = CLOSED_SHELL ( 'NONE', ( #205, #204, #201, #202, #200, #206, #203, #207 ) ) ;
#97 = ORIENTED_EDGE ( 'NONE', *, *, #69, .T. ) ;
#98 = VERTEX_POINT ( 'NONE', #242 ) ;
#99 = ORIENTED_EDGE ( 'NONE', *, *, #64, .F. ) ;
#100 = VERTEX_POINT ( 'NONE', #233 ) ;
#101 = ORIENTED_EDGE ( 'NONE', *, *, #66, .F. ) ;
#102 = ORIENTED_EDGE ( 'NONE', *, *, #62, .F. ) ;
#103 = VERTEX_POINT ( 'NONE', #223 ) ;
#104 = ORIENTED_EDGE ( 'NONE', *, *, #67, .T. ) ;
#105 = VERTEX_POINT ( 'NONE', #230 ) ;
#106 = ORIENTED_EDGE ( 'NONE', *, *, #67, .F. ) ;
#107 = ORIENTED_EDGE ( 'NONE', *, *, #72, .F. ) ;
#108 = ORIENTED_EDGE ( 'NONE', *, *, #61, .F. ) ;
#109 = VERTEX_POINT ( 'NONE', #235 ) ;
#110 = VERTEX_POINT ( 'NONE', #48 ) ;
#111 = MANIFOLD_SOLID_BREP ( 'Çåðêàëüíîå îòðàæåíèå1', #96 ) ;
#112 = UNCERTAINTY_MEASURE_WITH_UNIT (LENGTH_MEASURE( 1.000000000000000100E-005 ), #10, 'distance_accuracy_value', 'NONE');
#113 = ADVANCED_BREP_SHAPE_REPRESENTATION ( 'Tþõôøýøªõû¹ýð  ýðúûðôúð CGB_37352', ( #111, #127 ), #79 ) ;
#114 = CC_DESIGN_DATE_AND_TIME_ASSIGNMENT ( #290, #23, ( #129 ) ) ;
#115 = PRODUCT_DEFINITION_FORMATION_WITH_SPECIFIED_SOURCE ( 'ANY', '', #199, .NOT_KNOWN. ) ;
#116 = APPROVAL ( #28, 'UNSPECIFIED' ) ;
#117 = CC_DESIGN_APPROVAL ( #116, ( #115 ) ) ;
#118 = CC_DESIGN_PERSON_AND_ORGANIZATION_ASSIGNMENT ( #302, #25, ( #115 ) ) ;
#119 = CC_DESIGN_PERSON_AND_ORGANIZATION_ASSIGNMENT ( #301, #26, ( #115 ) ) ;
#120 = CC_DESIGN_PERSON_AND_ORGANIZATION_ASSIGNMENT ( #288, #29, ( #121 ) ) ;
#121 = SECURITY_CLASSIFICATION ( '', '', #27 ) ;
#122 = CC_DESIGN_DATE_AND_TIME_ASSIGNMENT ( #298, #30, ( #121 ) ) ;
#123 = APPROVAL ( #31, 'UNSPECIFIED' ) ;
#124 = CC_DESIGN_SECURITY_CLASSIFICATION ( #121, ( #115 ) ) ;
#125 = CC_DESIGN_APPROVAL ( #123, ( #121 ) ) ;
#126 = PRODUCT_RELATED_PRODUCT_CATEGORY ( 'detail', '', ( #199 ) ) ;
#127 = AXIS2_PLACEMENT_3D ( 'NONE', #57, #58, #15 ) ;
#128 = CC_DESIGN_PERSON_AND_ORGANIZATION_ASSIGNMENT ( #294, #17, ( #199 ) ) ;
#129 = PRODUCT_DEFINITION ( 'UNKNOWN', '', #115, #2 ) ;
#130 = APPROVAL ( #20, 'UNSPECIFIED' ) ;
#131 = CC_DESIGN_APPROVAL ( #130, ( #129 ) ) ;
#132 = CC_DESIGN_PERSON_AND_ORGANIZATION_ASSIGNMENT ( #262, #22, ( #129 ) ) ;
#133 = APPROVAL_DATE_TIME ( #134, #123 ) ;
#134 = DATE_AND_TIME ( #135, #257 ) ;
#135 = CALENDAR_DATE ( 2012, 9, 11 ) ;
#136 = CIRCLE ( 'NONE', #89, 2.500000000000002200 ) ;
#137 = VECTOR ( 'NONE', #239, 1000.000000000000000 ) ;
#138 = LINE ( 'NONE', #240, #140 ) ;
#139 = LINE ( 'NONE', #247, #137 ) ;
#140 = VECTOR ( 'NONE', #212, 1000.000000000000000 ) ;
#141 = VECTOR ( 'NONE', #208, 1000.000000000000000 ) ;
#142 = VECTOR ( 'NONE', #243, 1000.000000000000000 ) ;
#143 = LINE ( 'NONE', #221, #141 ) ;
#144 = LINE ( 'NONE', #252, #142 ) ;
#145 = VECTOR ( 'NONE', #224, 1000.000000000000000 ) ;
#146 = VECTOR ( 'NONE', #241, 1000.000000000000000 ) ;
#147 = LINE ( 'NONE', #220, #145 ) ;
#148 = VECTOR ( 'NONE', #222, 1000.000000000000000 ) ;
#149 = LINE ( 'NONE', #226, #146 ) ;
#150 = CIRCLE ( 'NONE', #75, 2.499999999999998700 ) ;
#151 = VECTOR ( 'NONE', #227, 1000.000000000000000 ) ;
#152 = VECTOR ( 'NONE', #238, 1000.000000000000000 ) ;
#153 = CIRCLE ( 'NONE', #74, 2.500000000000000000 ) ;
#154 = LINE ( 'NONE', #234, #152 ) ;
#155 = LINE ( 'NONE', #211, #151 ) ;
#156 = VECTOR ( 'NONE', #216, 1000.000000000000000 ) ;
#157 = LINE ( 'NONE', #250, #148 ) ;
#158 = VECTOR ( 'NONE', #215, 1000.000000000000000 ) ;
#159 = LINE ( 'NONE', #214, #158 ) ;
#160 = CIRCLE ( 'NONE', #73, 2.500000000000000000 ) ;
#161 = VECTOR ( 'NONE', #217, 1000.000000000000000 ) ;
#162 = LINE ( 'NONE', #231, #161 ) ;
#163 = LINE ( 'NONE', #209, #156 ) ;
#164 = EDGE_LOOP ( 'NONE', ( #194 ) ) ;
#165 = EDGE_LOOP ( 'NONE', ( #183, #184, #185, #192 ) ) ;
#166 = EDGE_LOOP ( 'NONE', ( #93 ) ) ;
#167 = EDGE_LOOP ( 'NONE', ( #186, #191, #104, #92 ) ) ;
#168 = EDGE_LOOP ( 'NONE', ( #108, #102, #178, #180 ) ) ;
#169 = EDGE_LOOP ( 'NONE', ( #179, #197, #95, #97 ) ) ;
#170 = EDGE_LOOP ( 'NONE', ( #181 ) ) ;
#171 = EDGE_LOOP ( 'NONE', ( #193 ) ) ;
#172 = EDGE_LOOP ( 'NONE', ( #99 ) ) ;
#173 = EDGE_LOOP ( 'NONE', ( #107, #106, #101, #90 ) ) ;
#174 = EDGE_LOOP ( 'NONE', ( #190, #182, #189, #188 ) ) ;
#175 = EDGE_LOOP ( 'NONE', ( #196 ) ) ;
#176 = EDGE_LOOP ( 'NONE', ( #187 ) ) ;
#177 = EDGE_LOOP ( 'NONE', ( #195 ) ) ;
#178 = ORIENTED_EDGE ( 'NONE', *, *, #70, .T. ) ;
#179 = ORIENTED_EDGE ( 'NONE', *, *, #82, .T. ) ;
#180 = ORIENTED_EDGE ( 'NONE', *, *, #81, .T. ) ;
#181 = ORIENTED_EDGE ( 'NONE', *, *, #88, .T. ) ;
#182 = ORIENTED_EDGE ( 'NONE', *, *, #81, .F. ) ;
#183 = ORIENTED_EDGE ( 'NONE', *, *, #82, .F. ) ;
#184 = ORIENTED_EDGE ( 'NONE', *, *, #77, .F. ) ;
#185 = ORIENTED_EDGE ( 'NONE', *, *, #72, .T. ) ;
#186 = ORIENTED_EDGE ( 'NONE', *, *, #69, .F. ) ;
#187 = ORIENTED_EDGE ( 'NONE', *, *, #64, .T. ) ;
#188 = ORIENTED_EDGE ( 'NONE', *, *, #63, .T. ) ;
#189 = ORIENTED_EDGE ( 'NONE', *, *, #66, .T. ) ;
#190 = ORIENTED_EDGE ( 'NONE', *, *, #68, .F. ) ;
#191 = ORIENTED_EDGE ( 'NONE', *, *, #63, .F. ) ;
#192 = ORIENTED_EDGE ( 'NONE', *, *, #62, .T. ) ;
#193 = ORIENTED_EDGE ( 'NONE', *, *, #71, .T. ) ;
#194 = ORIENTED_EDGE ( 'NONE', *, *, #65, .F. ) ;
#195 = ORIENTED_EDGE ( 'NONE', *, *, #65, .T. ) ;
#196 = ORIENTED_EDGE ( 'NONE', *, *, #71, .F. ) ;
#197 = ORIENTED_EDGE ( 'NONE', *, *, #61, .T. ) ;
#198 = PERSON ( 'UNSPECIFIED', 'UNSPECIFIED', 'UNSPECIFIED', ('UNSPECIFIED'), ('UNSPECIFIED'), ('UNSPECIFIED') ) ;
#199 = PRODUCT ( 'Ñîåäèíèòåëüíàÿ íàêëàäêà CGB_37352', 'Ñîåäèíèòåëüíàÿ íàêëàäêà CGB_37352', '', ( #16 ) ) ;
#200 = ADVANCED_FACE ( 'NONE', ( #286 ), #245, .F. ) ;
#201 = ADVANCED_FACE ( 'NONE', ( #300 ), #56, .T. ) ;
#202 = ADVANCED_FACE ( 'NONE', ( #256 ), #9, .T. ) ;
#203 = ADVANCED_FACE ( 'NONE', ( #297, #270 ), #284, .F. ) ;
#204 = ADVANCED_FACE ( 'NONE', ( #271, #254, #285 ), #39, .T. ) ;
#205 = ADVANCED_FACE ( 'NONE', ( #255, #283, #296 ), #43, .T. ) ;
#206 = ADVANCED_FACE ( 'NONE', ( #295 ), #47, .T. ) ;
#207 = ADVANCED_FACE ( 'NONE', ( #269, #282 ), #267, .F. ) ;
#208 = DIRECTION ( 'NONE',  ( 1.000000000000000000, 0.0000000000000000000, 0.0000000000000000000 ) ) ;
#209 = CARTESIAN_POINT ( 'NONE',  ( -47.00000000000000000, 0.8000000000000016000, -65.00000000000000000 ) ) ;
#210 = CARTESIAN_POINT ( 'NONE',  ( 47.00000000000000000, 0.0000000000000000000, 0.0000000000000000000 ) ) ;
#211 = CARTESIAN_POINT ( 'NONE',  ( -47.00000000000000000, 0.8000000000000016000, -65.00000000000000000 ) ) ;
#212 = DIRECTION ( 'NONE',  ( 1.000000000000000000, 0.0000000000000000000, 0.0000000000000000000 ) ) ;
#213 = DIRECTION ( 'NONE',  ( 0.0000000000000000000, 0.0000000000000000000, -1.000000000000000000 ) ) ;
#214 = CARTESIAN_POINT ( 'NONE',  ( 47.00000000000000000, 0.0000000000000000000, -65.00000000000000000 ) ) ;
#215 = DIRECTION ( 'NONE',  ( 0.0000000000000000000, 0.0000000000000000000, 1.000000000000000000 ) ) ;
#216 = DIRECTION ( 'NONE',  ( 0.0000000000000000000, 0.0000000000000000000, 1.000000000000000000 ) ) ;
#217 = DIRECTION ( 'NONE',  ( 8.673617379884035500E-015, 1.000000000000000000, 0.0000000000000000000 ) ) ;
#218 = DIRECTION ( 'NONE',  ( -0.0000000000000000000, 1.000000000000000000, -0.0000000000000000000 ) ) ;
#219 = CARTESIAN_POINT ( 'NONE',  ( -3.883946572878981300E-014, 0.8000000000000008200, -47.50000000000000000 ) ) ;
#220 = CARTESIAN_POINT ( 'NONE',  ( 47.00000000000000000, 0.0000000000000000000, -65.00000000000000000 ) ) ;
#221 = CARTESIAN_POINT ( 'NONE',  ( -47.00000000000000000, 0.0000000000000000000, -65.00000000000000000 ) ) ;
#222 = DIRECTION ( 'NONE',  ( -1.000000000000000000, 1.614769193063517100E-017, -0.0000000000000000000 ) ) ;
#223 = CARTESIAN_POINT ( 'NONE',  ( -47.00000000000000000, 0.0000000000000000000, 0.0000000000000000000 ) ) ;
#224 = DIRECTION ( 'NONE',  ( 8.673617379884035500E-015, 1.000000000000000000, 0.0000000000000000000 ) ) ;
#225 = DIRECTION ( 'NONE',  ( 0.0000000000000000000, 0.0000000000000000000, -1.000000000000000000 ) ) ;
#226 = CARTESIAN_POINT ( 'NONE',  ( -47.00000000000000000, 0.0000000000000000000, 0.0000000000000000000 ) ) ;
#227 = DIRECTION ( 'NONE',  ( -1.000000000000000000, 1.614769193063517100E-017, -0.0000000000000000000 ) ) ;
#228 = DIRECTION ( 'NONE',  ( 1.000000000000000000, 0.0000000000000000000, 0.0000000000000000000 ) ) ;
#229 = DIRECTION ( 'NONE',  ( -5.162867488026211000E-018, -1.000000000000000000, 0.0000000000000000000 ) ) ;
#230 = CARTESIAN_POINT ( 'NONE',  ( 47.00000000000000700, 0.8000000000000000400, -65.00000000000000000 ) ) ;
#231 = CARTESIAN_POINT ( 'NONE',  ( 47.00000000000000000, 0.0000000000000000000, 0.0000000000000000000 ) ) ;
#232 = CARTESIAN_POINT ( 'NONE',  ( -3.884359602278023100E-014, 0.0000000000000000000, -17.50000000000000000 ) ) ;
#233 = CARTESIAN_POINT ( 'NONE',  ( -47.00000000000000000, 0.8000000000000016000, -65.00000000000000000 ) ) ;
#234 = CARTESIAN_POINT ( 'NONE',  ( -47.00000000000000000, 0.0000000000000000000, -65.00000000000000000 ) ) ;
#235 = CARTESIAN_POINT ( 'NONE',  ( -47.00000000000000000, 0.0000000000000000000, -65.00000000000000000 ) ) ;
#236 = DIRECTION ( 'NONE',  ( 5.162867488026211000E-018, 1.000000000000000000, 0.0000000000000000000 ) ) ;
#237 = CARTESIAN_POINT ( 'NONE',  ( -3.883946572878981300E-014, 0.8000000000000008200, -17.50000000000000000 ) ) ;
#238 = DIRECTION ( 'NONE',  ( -0.0000000000000000000, -1.000000000000000000, -0.0000000000000000000 ) ) ;
#239 = DIRECTION ( 'NONE',  ( 0.0000000000000000000, 0.0000000000000000000, 1.000000000000000000 ) ) ;
#240 = CARTESIAN_POINT ( 'NONE',  ( -47.00000000000000000, 0.0000000000000000000, 0.0000000000000000000 ) ) ;
#241 = DIRECTION ( 'NONE',  ( -0.0000000000000000000, -1.000000000000000000, -0.0000000000000000000 ) ) ;
#242 = CARTESIAN_POINT ( 'NONE',  ( 47.00000000000000700, 0.8000000000000000400, 0.0000000000000000000 ) ) ;
#243 = DIRECTION ( 'NONE',  ( 0.0000000000000000000, 0.0000000000000000000, 1.000000000000000000 ) ) ;
#244 = DIRECTION ( 'NONE',  ( 1.000000000000000000, 0.0000000000000000000, 0.0000000000000000000 ) ) ;
#245 = PLANE ( 'NONE',  #87 ) ;
#246 = DIRECTION ( 'NONE',  ( 0.0000000000000000000, -1.000000000000000000, 0.0000000000000000000 ) ) ;
#247 = CARTESIAN_POINT ( 'NONE',  ( 47.00000000000000700, 0.8000000000000000400, -65.00000000000000000 ) ) ;
#248 = CARTESIAN_POINT ( 'NONE',  ( -3.884359602278023100E-014, 0.0000000000000000000, -47.50000000000000000 ) ) ;
#249 = CARTESIAN_POINT ( 'NONE',  ( -47.00000000000000000, 0.0000000000000000000, -65.00000000000000000 ) ) ;
#250 = CARTESIAN_POINT ( 'NONE',  ( -47.00000000000000000, 0.8000000000000016000, 0.0000000000000000000 ) ) ;
#251 = CARTESIAN_POINT ( 'NONE',  ( 47.00000000000000000, 0.0000000000000000000, -65.00000000000000000 ) ) ;
#252 = CARTESIAN_POINT ( 'NONE',  ( -47.00000000000000000, 0.0000000000000000000, -65.00000000000000000 ) ) ;
#253 = VERTEX_POINT ( 'NONE', #54 ) ;
#254 = FACE_OUTER_BOUND ( 'NONE', #174, .T. ) ;
#255 = FACE_BOUND ( 'NONE', #166, .T. ) ;
#256 = FACE_OUTER_BOUND ( 'NONE', #168, .T. ) ;
#257 = LOCAL_TIME ( 12, 54, 43.00000000000000000, #303 ) ;
#258 = LOCAL_TIME ( 12, 54, 43.00000000000000000, #273 ) ;
#259 = APPROVAL_DATE_TIME ( #274, #116 ) ;
#260 = APPROVAL_PERSON_ORGANIZATION ( #275, #116, #24 ) ;
#261 = CALENDAR_DATE ( 2012, 9, 11 ) ;
#262 = PERSON_AND_ORGANIZATION ( #198, #265 ) ;
#263 = CALENDAR_DATE ( 2012, 9, 11 ) ;
#264 = APPROVAL_PERSON_ORGANIZATION ( #279, #130, #21 ) ;
#265 = ORGANIZATION ( 'UNSPECIFIED', 'UNSPECIFIED', '' ) ;
#266 = VERTEX_POINT ( 'NONE', #51 ) ;
#267 = CYLINDRICAL_SURFACE ( 'NONE', #78, 2.500000000000000000 ) ;
#268 = VERTEX_POINT ( 'NONE', #53 ) ;
#269 = FACE_OUTER_BOUND ( 'NONE', #170, .T. ) ;
#270 = FACE_OUTER_BOUND ( 'NONE', #172, .T. ) ;
#271 = FACE_BOUND ( 'NONE', #164, .T. ) ;
#272 = APPROVAL_PERSON_ORGANIZATION ( #287, #123, #32 ) ;
#273 = COORDINATED_UNIVERSAL_TIME_OFFSET ( 4, 0, .AHEAD. ) ;
#274 = DATE_AND_TIME ( #289, #304 ) ;
#275 = PERSON_AND_ORGANIZATION ( #198, #265 ) ;
#276 = LOCAL_TIME ( 12, 54, 43.00000000000000000, #291 ) ;
#277 = APPROVAL_DATE_TIME ( #292, #130 ) ;
#278 = LOCAL_TIME ( 12, 54, 43.00000000000000000, #293 ) ;
#279 = PERSON_AND_ORGANIZATION ( #198, #265 ) ;
#280 = SHAPE_DEFINITION_REPRESENTATION ( #1, #113 ) ;
#281 = VERTEX_POINT ( 'NONE', #52 ) ;
#282 = FACE_OUTER_BOUND ( 'NONE', #177, .T. ) ;
#283 = FACE_OUTER_BOUND ( 'NONE', #165, .T. ) ;
#284 = CYLINDRICAL_SURFACE ( 'NONE', #85, 2.500000000000000000 ) ;
#285 = FACE_BOUND ( 'NONE', #176, .T. ) ;
#286 = FACE_OUTER_BOUND ( 'NONE', #173, .T. ) ;
#287 = PERSON_AND_ORGANIZATION ( #198, #265 ) ;
#288 = PERSON_AND_ORGANIZATION ( #198, #265 ) ;
#289 = CALENDAR_DATE ( 2012, 9, 11 ) ;
#290 = DATE_AND_TIME ( #261, #276 ) ;
#291 = COORDINATED_UNIVERSAL_TIME_OFFSET ( 4, 0, .AHEAD. ) ;
#292 = DATE_AND_TIME ( #263, #278 ) ;
#293 = COORDINATED_UNIVERSAL_TIME_OFFSET ( 4, 0, .AHEAD. ) ;
#294 = PERSON_AND_ORGANIZATION ( #198, #265 ) ;
#295 = FACE_OUTER_BOUND ( 'NONE', #169, .T. ) ;
#296 = FACE_BOUND ( 'NONE', #171, .T. ) ;
#297 = FACE_OUTER_BOUND ( 'NONE', #175, .T. ) ;
#298 = DATE_AND_TIME ( #299, #258 ) ;
#299 = CALENDAR_DATE ( 2012, 9, 11 ) ;
#300 = FACE_OUTER_BOUND ( 'NONE', #167, .T. ) ;
#301 = PERSON_AND_ORGANIZATION ( #198, #265 ) ;
#302 = PERSON_AND_ORGANIZATION ( #198, #265 ) ;
#303 = COORDINATED_UNIVERSAL_TIME_OFFSET ( 4, 0, .AHEAD. ) ;
#304 = LOCAL_TIME ( 12, 54, 43.00000000000000000, #305 ) ;
#305 = COORDINATED_UNIVERSAL_TIME_OFFSET ( 4, 0, .AHEAD. ) ;
ENDSEC;
END-ISO-10303-21;
