  0
SECTION
  2
HEADER
  9
$ACADVER
  1
AC1015
  9
$ACADMAINTVER
 70
     6
  9
$DWGCODEPAGE
  3
ANSI_1251
  9
$INSBASE
 10
0.0
 20
0.0
 30
0.0
  9
$EXTMIN
 10
0.0
 20
0.0
 30
0.0
  9
$EXTMAX
 10
2000.0
 20
2000.0
 30
0.0
  9
$LIMMIN
 10
0.0
 20
0.0
  9
$LIMMAX
 10
2000.0
 20
2000.0
  9
$ORTHOMODE
 70
     0
  9
$REGENMODE
 70
     1
  9
$FILLMODE
 70
     1
  9
$QTEXTMODE
 70
     0
  9
$MIRRTEXT
 70
     1
  9
$LTSCALE
 40
1.0
  9
$ATTMODE
 70
     1
  9
$TEXTSIZE
 40
5.0
  9
$TRACEWID
 40
1.0
  9
$TEXTSTYLE
  7
Standard
  9
$CLAYER
  8
0
  9
$CELTYPE
  6
ByLayer
  9
$CECOLOR
 62
   256
  9
$CELTSCALE
 40
1.0
  9
$DISPSILH
 70
     0
  9
$DIMSCALE
 40
1.0
  9
$DIMASZ
 40
5.0
  9
$DIMEXO
 40
0.0
  9
$DIMDLI
 40
3.75
  9
$DIMRND
 40
0.0
  9
$DIMDLE
 40
0.0
  9
$DIMEXE
 40
1.0
  9
$DIMTP
 40
0.0
  9
$DIMTM
 40
0.0
  9
$DIMTXT
 40
3.5
  9
$DIMCEN
 40
2.5
  9
$DIMTSZ
 40
0.0
  9
$DIMTOL
 70
     0
  9
$DIMLIM
 70
     0
  9
$DIMTIH
 70
     1
  9
$DIMTOH
 70
     1
  9
$DIMSE1
 70
     0
  9
$DIMSE2
 70
     0
  9
$DIMTAD
 70
     1
  9
$DIMZIN
 70
     0
  9
$DIMBLK
  1

  9
$DIMASO
 70
     1
  9
$DIMSHO
 70
     1
  9
$DIMPOST
  1

  9
$DIMAPOST
  1

  9
$DIMALT
 70
     0
  9
$DIMALTD
 70
     3
  9
$DIMALTF
 40
0.0393700787
  9
$DIMLFAC
 40
1.0
  9
$DIMTOFL
 70
     1
  9
$DIMTVP
 40
0.0
  9
$DIMTIX
 70
     0
  9
$DIMSOXD
 70
     0
  9
$DIMSAH
 70
     0
  9
$DIMBLK1
  1

  9
$DIMBLK2
  1

  9
$DIMSTYLE
  2
ISO-25
  9
$DIMCLRD
 70
     0
  9
$DIMCLRE
 70
     0
  9
$DIMCLRT
 70
     0
  9
$DIMTFAC
 40
1.0
  9
$DIMGAP
 40
1.5
  9
$DIMJUST
 70
     0
  9
$DIMSD1
 70
     0
  9
$DIMSD2
 70
     0
  9
$DIMTOLJ
 70
     0
  9
$DIMTZIN
 70
     0
  9
$DIMALTZ
 70
     0
  9
$DIMALTTZ
 70
     0
  9
$DIMUPT
 70
     0
  9
$DIMDEC
 70
     1
  9
$DIMTDEC
 70
     1
  9
$DIMALTU
 70
     2
  9
$DIMALTTD
 70
     3
  9
$DIMTXSTY
  7
Standard
  9
$DIMAUNIT
 70
     0
  9
$DIMADEC
 70
     2
  9
$DIMALTRND
 40
0.0
  9
$DIMAZIN
 70
     0
  9
$DIMDSEP
 70
    44
  9
$DIMATFIT
 70
     3
  9
$DIMFRAC
 70
     0
  9
$DIMLDRBLK
  1

  9
$DIMLUNIT
 70
     2
  9
$DIMLWD
 70
    -2
  9
$DIMLWE
 70
    -2
  9
$DIMTMOVE
 70
     0
  9
$LUNITS
 70
     2
  9
$LUPREC
 70
     1
  9
$SKETCHINC
 40
1.0
  9
$FILLETRAD
 40
0.0
  9
$AUNITS
 70
     0
  9
$AUPREC
 70
     2
  9
$MENU
  1
.
  9
$ELEVATION
 40
0.0
  9
$PELEVATION
 40
0.0
  9
$THICKNESS
 40
0.0
  9
$LIMCHECK
 70
     0
  9
$CHAMFERA
 40
0.0
  9
$CHAMFERB
 40
0.0
  9
$CHAMFERC
 40
0.0
  9
$CHAMFERD
 40
0.0
  9
$SKPOLY
 70
     0
  9
$TDCREATE
 40
2460213.62601272
  9
$TDUCREATE
 40
2460213.50101272
  9
$TDUPDATE
 40
2460213.626013287
  9
$TDUUPDATE
 40
2460213.501013287
  9
$TDINDWG
 40
0.0000000116
  9
$TDUSRTIMER
 40
0.0000000116
  9
$USRTIMER
 70
     1
  9
$ANGBASE
 50
0.0
  9
$ANGDIR
 70
     0
  9
$PDMODE
 70
     0
  9
$PDSIZE
 40
-1.0
  9
$PLINEWID
 40
0.0
  9
$SPLFRAME
 70
     0
  9
$SPLINETYPE
 70
     6
  9
$SPLINESEGS
 70
     8
  9
$HANDSEED
  5
4EC
  9
$SURFTAB1
 70
     6
  9
$SURFTAB2
 70
     6
  9
$SURFTYPE
 70
     6
  9
$SURFU
 70
     6
  9
$SURFV
 70
     6
  9
$UCSBASE
  2

  9
$UCSNAME
  2

  9
$UCSORG
 10
0.0
 20
0.0
 30
0.0
  9
$UCSXDIR
 10
1.0
 20
0.0
 30
0.0
  9
$UCSYDIR
 10
0.0
 20
1.0
 30
0.0
  9
$UCSORTHOREF
  2

  9
$UCSORTHOVIEW
 70
     0
  9
$UCSORGTOP
 10
0.0
 20
0.0
 30
0.0
  9
$UCSORGBOTTOM
 10
0.0
 20
0.0
 30
0.0
  9
$UCSORGLEFT
 10
0.0
 20
0.0
 30
0.0
  9
$UCSORGRIGHT
 10
0.0
 20
0.0
 30
0.0
  9
$UCSORGFRONT
 10
0.0
 20
0.0
 30
0.0
  9
$UCSORGBACK
 10
0.0
 20
0.0
 30
0.0
  9
$PUCSBASE
  2

  9
$PUCSNAME
  2

  9
$PUCSORG
 10
0.0
 20
0.0
 30
0.0
  9
$PUCSXDIR
 10
1.0
 20
0.0
 30
0.0
  9
$PUCSYDIR
 10
0.0
 20
1.0
 30
0.0
  9
$PUCSORTHOREF
  2

  9
$PUCSORTHOVIEW
 70
     0
  9
$PUCSORGTOP
 10
0.0
 20
0.0
 30
0.0
  9
$PUCSORGBOTTOM
 10
0.0
 20
0.0
 30
0.0
  9
$PUCSORGLEFT
 10
0.0
 20
0.0
 30
0.0
  9
$PUCSORGRIGHT
 10
0.0
 20
0.0
 30
0.0
  9
$PUCSORGFRONT
 10
0.0
 20
0.0
 30
0.0
  9
$PUCSORGBACK
 10
0.0
 20
0.0
 30
0.0
  9
$USERI1
 70
     0
  9
$USERI2
 70
     0
  9
$USERI3
 70
     0
  9
$USERI4
 70
     0
  9
$USERI5
 70
     0
  9
$USERR1
 40
0.0
  9
$USERR2
 40
0.0
  9
$USERR3
 40
0.0
  9
$USERR4
 40
0.0
  9
$USERR5
 40
0.0
  9
$WORLDVIEW
 70
     1
  9
$SHADEDGE
 70
     3
  9
$SHADEDIF
 70
    70
  9
$TILEMODE
 70
     1
  9
$MAXACTVP
 70
    64
  9
$PINSBASE
 10
0.0
 20
0.0
 30
0.0
  9
$PLIMCHECK
 70
     0
  9
$PEXTMIN
 10
1.0000000000E+20
 20
1.0000000000E+20
 30
1.0000000000E+20
  9
$PEXTMAX
 10
-1.0000000000E+20
 20
-1.0000000000E+20
 30
-1.0000000000E+20
  9
$PLIMMIN
 10
0.0
 20
0.0
  9
$PLIMMAX
 10
420.0
 20
297.0
  9
$UNITMODE
 70
     0
  9
$VISRETAIN
 70
     1
  9
$PLINEGEN
 70
     0
  9
$PSLTSCALE
 70
     1
  9
$TREEDEPTH
 70
  3020
  9
$CMLSTYLE
  2
Standard
  9
$CMLJUST
 70
     0
  9
$CMLSCALE
 40
20.0
  9
$PROXYGRAPHICS
 70
     1
  9
$MEASUREMENT
 70
     1
  9
$CELWEIGHT
370
    -1
  9
$ENDCAPS
280
     0
  9
$JOINSTYLE
280
     0
  9
$LWDISPLAY
290
     1
  9
$INSUNITS
 70
     4
  9
$HYPERLINKBASE
  1

  9
$STYLESHEET
  1

  9
$XEDIT
290
     1
  9
$CEPSNTYPE
380
     0
  9
$PSTYLEMODE
290
     1
  9
$FINGERPRINTGUID
  2
{23045825-15f7-4fe9-a3b2-5b3b4bcdf76b}
  9
$VERSIONGUID
  2
{FAEB1C32-E019-11D5-929B-00C0DF256EC4}
  9
$EXTNAMES
290
     1
  9
$PSVPSCALE
 40
0.0
  9
$OLESTARTUP
290
     0
  0
ENDSEC
  0
SECTION
  2
CLASSES
  0
CLASS
  1
ACDBDICTIONARYWDFLT
  2
AcDbDictionaryWithDefault
  3
ObjectDBX Classes
 90
        0
280
     0
281
     0
  0
CLASS
  1
VISUALSTYLE
  2
AcDbVisualStyle
  3
ObjectDBX Classes
 90
     4095
280
     0
281
     0
  0
CLASS
  1
MATERIAL
  2
AcDbMaterial
  3
ObjectDBX Classes
 90
     1153
280
     0
281
     0
  0
CLASS
  1
SCALE
  2
AcDbScale
  3
ObjectDBX Classes
 90
     1153
280
     0
281
     0
  0
CLASS
  1
TABLESTYLE
  2
AcDbTableStyle
  3
ObjectDBX Classes
 90
     4095
280
     0
281
     0
  0
CLASS
  1
MLEADERSTYLE
  2
AcDbMLeaderStyle
  3
ACDB_MLEADERSTYLE_CLASS
 90
     4095
280
     0
281
     0
  0
CLASS
  1
SUN
  2
AcDbSun
  3
SCENEOE
 90
     1153
280
     0
281
     0
  0
CLASS
  1
ACDBPLACEHOLDER
  2
AcDbPlaceHolder
  3
ObjectDBX Classes
 90
        0
280
     0
281
     0
  0
CLASS
  1
LAYOUT
  2
AcDbLayout
  3
ObjectDBX Classes
 90
        0
280
     0
281
     0
  0
ENDSEC
  0
SECTION
  2
TABLES
  0
TABLE
  2
VPORT
  5
8
330
0
100
AcDbSymbolTable
 70
     1
  0
VPORT
  5
29
330
8
100
AcDbSymbolTableRecord
100
AcDbViewportTableRecord
  2
*Active
 70
     0
 10
0.0
 20
0.0
 11
1.0
 21
1.0
 12
1000.0
 22
1000.0
 13
0.0
 23
0.0
 14
10.0
 24
10.0
 15
10.0
 25
10.0
 16
0.0
 26
0.0
 36
1.0
 17
0.0
 27
0.0
 37
0.0
 40
2000.0
 41
1.0
 42
50.0
 43
0.0
 44
0.0
 50
0.0
 51
0.0
 71
     0
 72
  2000
 73
     1
 74
     3
 75
     0
 76
     0
 77
     0
 78
     0
281
     0
 65
     1
110
0.0
120
0.0
130
0.0
111
1.0
121
0.0
131
0.0
112
0.0
122
1.0
132
0.0
 79
     0
146
0.0
  0
ENDTAB
  0
TABLE
  2
LTYPE
  5
5
330
0
100
AcDbSymbolTable
 70
     8
  0
LTYPE
  5
14
330
5
100
AcDbSymbolTableRecord
100
AcDbLinetypeTableRecord
  2
ByBlock
 70
     0
  3

 72
    65
 73
     0
 40
0.0
  0
LTYPE
  5
15
330
5
100
AcDbSymbolTableRecord
100
AcDbLinetypeTableRecord
  2
ByLayer
 70
     0
  3

 72
    65
 73
     0
 40
0.0
  0
LTYPE
  5
16
330
5
100
AcDbSymbolTableRecord
100
AcDbLinetypeTableRecord
  2
Continuous
 70
     0
  3
Solid line
 72
    65
 73
     0
 40
0.0
  0
LTYPE
  5
5E
330
5
100
AcDbSymbolTableRecord
100
AcDbLinetypeTableRecord
  2
SLD-Сплошная
 70
     0
  3
SolidWorks Line Style
 72
    65
 73
     0
 40
0.0
  0
LTYPE
  5
5F
330
5
100
AcDbSymbolTableRecord
100
AcDbLinetypeTableRecord
  2
SLD-Штриховая
 70
     0
  3
SolidWorks Line Style
 72
    65
 73
     2
 40
1.905
 49
1.27
 74
     0
 49
-0.635
 74
     0
  0
LTYPE
  5
60
330
5
100
AcDbSymbolTableRecord
100
AcDbLinetypeTableRecord
  2
SLD-Штрихпункт.-с-двумя-точками
 70
     0
  3
SolidWorks Line Style
 72
    65
 73
     6
 40
12.7
 49
6.35
 74
     0
 49
-1.27
 74
     0
 49
1.27
 74
     0
 49
-1.27
 74
     0
 49
1.27
 74
     0
 49
-1.27
 74
     0
  0
LTYPE
  5
61
330
5
100
AcDbSymbolTableRecord
100
AcDbLinetypeTableRecord
  2
SLD-Штрихпункт.-утолщ.
 70
     0
  3
SolidWorks Line Style
 72
    65
 73
     4
 40
10.16
 49
6.35
 74
     0
 49
-1.27
 74
     0
 49
1.27
 74
     0
 49
-1.27
 74
     0
  0
LTYPE
  5
62
330
5
100
AcDbSymbolTableRecord
100
AcDbLinetypeTableRecord
  2
SLD-Осевая
 70
     0
  3
SolidWorks Line Style
 72
    65
 73
     4
 40
19.05
 49
15.24
 74
     0
 49
-1.27
 74
     0
 49
1.27
 74
     0
 49
-1.27
 74
     0
  0
LTYPE
  5
63
330
5
100
AcDbSymbolTableRecord
100
AcDbLinetypeTableRecord
  2
SLD-Сшитая
 70
     0
  3
SolidWorks Line Style
 72
    65
 73
     2
 40
0.635
 49
0.0
 74
     0
 49
-0.635
 74
     0
  0
LTYPE
  5
64
330
5
100
AcDbSymbolTableRecord
100
AcDbLinetypeTableRecord
  2
SLD-Тонкая-Толстая
 70
     0
  3
SolidWorks Line Style
 72
    65
 73
     2
 40
5.080508
 49
0.000508
 74
     0
 49
-5.08
 74
     0
  0
ENDTAB
  0
TABLE
  2
LAYER
  5
2
330
0
100
AcDbSymbolTable
 70
     3
  0
LAYER
  5
10
330
2
100
AcDbSymbolTableRecord
100
AcDbLayerTableRecord
  2
0
 70
     0
 62
     7
  6
Continuous
370
    -3
390
F
  0
LAYER
  5
65
330
2
100
AcDbSymbolTableRecord
100
AcDbLayerTableRecord
  2
1
 70
     0
 62
     7
  6
SLD-Сплошная
370
    -1
390
F
  0
LAYER
  5
66
330
2
100
AcDbSymbolTableRecord
100
AcDbLayerTableRecord
  2
2
 70
     0
 62
     7
  6
SLD-Сплошная
370
    -3
390
F
  0
ENDTAB
  0
TABLE
  2
STYLE
  5
3
330
0
100
AcDbSymbolTable
 70
     1
  0
STYLE
  5
11
330
3
100
AcDbSymbolTableRecord
100
AcDbTextStyleTableRecord
  2
Standard
 70
     0
 40
0.0
 41
1.0
 50
0.0
 71
     0
 42
5.0
  3
txt
  4

  0
ENDTAB
  0
TABLE
  2
VIEW
  5
6
330
0
100
AcDbSymbolTable
 70
     0
  0
ENDTAB
  0
TABLE
  2
UCS
  5
7
330
0
100
AcDbSymbolTable
 70
     0
  0
ENDTAB
  0
TABLE
  2
APPID
  5
9
330
0
100
AcDbSymbolTable
 70
     1
  0
APPID
  5
12
330
9
100
AcDbSymbolTableRecord
100
AcDbRegAppTableRecord
  2
ACAD
 70
     0
  0
ENDTAB
  0
TABLE
  2
DIMSTYLE
  5
A
330
0
100
AcDbSymbolTable
 70
     1
100
AcDbDimStyleTable
  0
DIMSTYLE
105
27
330
A
100
AcDbSymbolTableRecord
100
AcDbDimStyleTableRecord
  2
ISO-25
 70
     0
 41
2.5
 42
0.625
 43
3.75
 44
1.25
 73
     0
 74
     0
 77
     1
 78
     8
140
2.5
141
2.5
143
0.0393700787
147
0.625
171
     3
172
     1
178
     0
271
     2
272
     2
274
     3
278
    44
283
     0
284
     8
340
11
  0
ENDTAB
  0
TABLE
  2
BLOCK_RECORD
  5
1
330
0
100
AcDbSymbolTable
 70
     1
  0
BLOCK_RECORD
  5
1F
330
1
100
AcDbSymbolTableRecord
100
AcDbBlockTableRecord
  2
*Model_Space
340
22
  0
BLOCK_RECORD
  5
1B
330
1
100
AcDbSymbolTableRecord
100
AcDbBlockTableRecord
  2
*Paper_Space
340
1E
  0
BLOCK_RECORD
  5
23
330
1
100
AcDbSymbolTableRecord
100
AcDbBlockTableRecord
  2
*Paper_Space0
340
26
  0
ENDTAB
  0
ENDSEC
  0
SECTION
  2
BLOCKS
  0
BLOCK
  5
20
330
1F
100
AcDbEntity
  8
0
100
AcDbBlockBegin
  2
*Model_Space
 70
     0
 10
0.0
 20
0.0
 30
0.0
  3
*Model_Space
  1

  0
ENDBLK
  5
21
330
1F
100
AcDbEntity
  8
0
100
AcDbBlockEnd
  0
BLOCK
  5
1C
330
1B
100
AcDbEntity
 67
     1
  8
0
100
AcDbBlockBegin
  2
*Paper_Space
 70
     0
 10
0.0
 20
0.0
 30
0.0
  3
*Paper_Space
  1

  0
ENDBLK
  5
1D
330
1B
100
AcDbEntity
 67
     1
  8
0
100
AcDbBlockEnd
  0
BLOCK
  5
24
330
23
100
AcDbEntity
  8
0
100
AcDbBlockBegin
  2
*Paper_Space0
 70
     0
 10
0.0
 20
0.0
 30
0.0
  3
*Paper_Space0
  1

  0
ENDBLK
  5
25
330
23
100
AcDbEntity
  8
0
100
AcDbBlockEnd
  0
ENDSEC
  0
SECTION
  2
ENTITIES
  0
ARC
  5
67
330
1F
100
AcDbEntity
  8
1
  6
SLD-Сплошная
100
AcDbCircle
 10
1069.6054271659
 20
467.0234668679
 30
0.0
 40
1.0
100
AcDbArc
 50
180.0
 51
257.5813184942
  0
ARC
  5
68
330
1F
100
AcDbEntity
  8
1
  6
SLD-Сплошная
100
AcDbCircle
 10
1084.2054271659
 20
467.0234668679
 30
0.0
 40
0.9999999999999755
100
AcDbArc
 50
282.4186815058
 51
0.0
  0
LINE
  5
69
330
1F
100
AcDbEntity
  8
1
  6
SLD-Сплошная
100
AcDbLine
 10
1068.6054271659
 20
468.2292289255
 30
0.0
 11
1068.6054271659
 21
467.0234668679
 31
0.0
  0
LINE
  5
6A
330
1F
100
AcDbEntity
  8
1
  6
SLD-Сплошная
100
AcDbLine
 10
1085.2054271659
 20
467.0234668679
 30
0.0
 11
1085.2054271659
 21
468.2292289255
 31
0.0
  0
ARC
  5
6B
330
1F
100
AcDbEntity
  8
1
  6
SLD-Сплошная
100
AcDbCircle
 10
1076.9054271659
 20
500.1742289255
 30
0.0
 40
34.94500000000006
100
AcDbArc
 50
270.0104111827
 51
282.4186815058
  0
ARC
  5
6C
330
1F
100
AcDbEntity
  8
1
  6
SLD-Сплошная
100
AcDbCircle
 10
1076.9054271659
 20
500.1742289255
 30
0.0
 40
34.94500000000006
100
AcDbArc
 50
257.5813184942
 51
270.0104111827
  0
LINE
  5
6D
330
1F
100
AcDbEntity
  8
1
  6
SLD-Сплошная
100
AcDbLine
 10
999.3971010539
 20
467.7292289255
 30
0.0
 11
988.9054271659
 21
467.7292289255
 31
0.0
  0
ARC
  5
6E
330
1F
100
AcDbEntity
  8
1
  6
SLD-Сплошная
100
AcDbCircle
 10
999.3971010539
 20
470.1292289255
 30
0.0
 40
2.400000000000039
100
AcDbArc
 50
270.0
 51
307.6584620065
  0
LINE
  5
6F
330
1F
100
AcDbEntity
  8
1
  6
SLD-Сплошная
100
AcDbLine
 10
988.9054271659
 20
467.7292289255
 30
0.0
 11
594.9054271659
 21
467.7292289255
 31
0.0
  0
LINE
  5
70
330
1F
100
AcDbEntity
  8
1
  6
SLD-Сплошная
100
AcDbLine
 10
594.9054271659
 20
467.7292289255
 30
0.0
 11
584.413753278
 21
467.7292289255
 31
0.0
  0
ARC
  5
71
330
1F
100
AcDbEntity
  8
1
  6
SLD-Сплошная
100
AcDbCircle
 10
584.413753278
 20
470.1292289255
 30
0.0
 40
2.400000000000015
100
AcDbArc
 50
232.3415379935
 51
270.0
  0
LINE
  5
72
330
1F
100
AcDbEntity
  8
1
  6
SLD-Сплошная
100
AcDbLine
 10
496.8054271659
 20
864.0292289255
 30
0.0
 11
495.3882698785
 21
866.7292289255
 31
0.0
  0
LINE
  5
73
330
1F
100
AcDbEntity
  8
1
  6
SLD-Сплошная
100
AcDbLine
 10
495.3882698785
 20
866.7292289255
 30
0.0
 11
1087.8225844534
 21
866.7292289255
 31
0.0
  0
LINE
  5
74
330
1F
100
AcDbEntity
  8
1
  6
SLD-Сплошная
100
AcDbLine
 10
1086.4054271659
 20
864.0292289256
 30
0.0
 11
1087.8225844534
 21
866.7292289255
 31
0.0
  0
LINE
  5
75
330
1F
100
AcDbEntity
  8
1
  6
SLD-Сплошная
100
AcDbLine
 10
496.8054271659
 20
864.0292289255
 30
0.0
 11
495.3882698785
 21
865.7292289255
 31
0.0
  0
LINE
  5
76
330
1F
100
AcDbEntity
  8
1
  6
SLD-Сплошная
100
AcDbLine
 10
495.3882698785
 20
866.7292289255
 30
0.0
 11
495.3882698785
 21
865.7292289255
 31
0.0
  0
LINE
  5
77
330
1F
100
AcDbEntity
  8
1
  6
SLD-Сплошная
100
AcDbLine
 10
494.1054271659
 20
865.446386213
 30
0.0
 11
496.8054271659
 21
864.0292289255
 31
0.0
  0
LINE
  5
78
330
1F
100
AcDbEntity
  8
1
  6
SLD-Сплошная
100
AcDbLine
 10
494.1054271659
 20
865.446386213
 30
0.0
 11
495.1054271659
 21
865.446386213
 31
0.0
  0
LINE
  5
79
330
1F
100
AcDbEntity
  8
1
  6
SLD-Сплошная
100
AcDbLine
 10
495.1054271659
 20
865.446386213
 30
0.0
 11
496.8054271659
 21
864.0292289255
 31
0.0
  0
LINE
  5
7A
330
1F
100
AcDbEntity
  8
1
  6
SLD-Сплошная
100
AcDbLine
 10
494.1054271659
 20
471.012071638
 30
0.0
 11
496.8054271659
 21
472.4292289255
 31
0.0
  0
LINE
  5
7B
330
1F
100
AcDbEntity
  8
1
  6
SLD-Сплошная
100
AcDbLine
 10
494.1054271659
 20
865.446386213
 30
0.0
 11
494.1054271659
 21
471.012071638
 31
0.0
  0
CIRCLE
  5
7C
330
1F
100
AcDbEntity
  8
1
  6
SLD-Сплошная
100
AcDbCircle
 10
1029.105427166
 20
509.7292289255
 30
0.0
 40
0.5
  0
CIRCLE
  5
7D
330
1F
100
AcDbEntity
  8
1
  6
SLD-Сплошная
100
AcDbCircle
 10
1029.1054271659
 20
826.7292289255
 30
0.0
 40
0.5
  0
CIRCLE
  5
7E
330
1F
100
AcDbEntity
  8
1
  6
SLD-Сплошная
100
AcDbCircle
 10
549.1054271659
 20
806.7292289255
 30
0.0
 40
0.5
  0
CIRCLE
  5
7F
330
1F
100
AcDbEntity
  8
1
  6
SLD-Сплошная
100
AcDbCircle
 10
549.1054271659
 20
529.7292289255
 30
0.0
 40
0.5000000000001137
  0
LINE
  5
80
330
1F
100
AcDbEntity
  8
1
  6
SLD-Сплошная
100
AcDbLine
 10
495.1054271659
 20
471.012071638
 30
0.0
 11
496.8054271659
 21
472.4292289255
 31
0.0
  0
LINE
  5
81
330
1F
100
AcDbEntity
  8
1
  6
SLD-Сплошная
100
AcDbLine
 10
494.1054271659
 20
471.012071638
 30
0.0
 11
495.1054271659
 21
471.012071638
 31
0.0
  0
LINE
  5
82
330
1F
100
AcDbEntity
  8
1
  6
SLD-Сплошная
100
AcDbLine
 10
496.8054271659
 20
472.4292289255
 30
0.0
 11
495.3882698785
 21
470.7292289255
 31
0.0
  0
LINE
  5
83
330
1F
100
AcDbEntity
  8
1
  6
SLD-Сплошная
100
AcDbLine
 10
496.8054271659
 20
472.4292289255
 30
0.0
 11
495.3882698785
 21
469.7292289255
 31
0.0
  0
LINE
  5
84
330
1F
100
AcDbEntity
  8
1
  6
SLD-Сплошная
100
AcDbLine
 10
495.3882698785
 20
469.7292289255
 30
0.0
 11
495.3882698785
 21
470.7292289255
 31
0.0
  0
LINE
  5
85
330
1F
100
AcDbEntity
  8
1
  6
SLD-Сплошная
100
AcDbLine
 10
495.3882698785
 20
469.7292289255
 30
0.0
 11
1087.8225844534
 21
469.7292289255
 31
0.0
  0
LINE
  5
86
330
1F
100
AcDbEntity
  8
1
  6
SLD-Сплошная
100
AcDbLine
 10
1086.405427166
 20
472.4292289255
 30
0.0
 11
1087.8225844534
 21
469.7292289255
 31
0.0
  0
LINE
  5
87
330
1F
100
AcDbEntity
  8
1
  6
SLD-Сплошная
100
AcDbLine
 10
1089.1054271659
 20
865.4463862131
 30
0.0
 11
1086.4054271659
 21
864.0292289256
 31
0.0
  0
LINE
  5
88
330
1F
100
AcDbEntity
  8
1
  6
SLD-Сплошная
100
AcDbLine
 10
1089.1054271659
 20
865.4463862131
 30
0.0
 11
1089.105427166
 21
471.012071638
 31
0.0
  0
LINE
  5
89
330
1F
100
AcDbEntity
  8
1
  6
SLD-Сплошная
100
AcDbLine
 10
1089.105427166
 20
471.012071638
 30
0.0
 11
1086.405427166
 21
472.4292289255
 31
0.0
  0
LINE
  5
8A
330
1F
100
AcDbEntity
  8
1
  6
SLD-Сплошная
100
AcDbLine
 10
1088.1054271659
 20
865.4463862131
 30
0.0
 11
1086.4054271659
 21
864.0292289256
 31
0.0
  0
LINE
  5
8B
330
1F
100
AcDbEntity
  8
1
  6
SLD-Сплошная
100
AcDbLine
 10
1089.1054271659
 20
865.4463862131
 30
0.0
 11
1088.1054271659
 21
865.4463862131
 31
0.0
  0
LINE
  5
8C
330
1F
100
AcDbEntity
  8
1
  6
SLD-Сплошная
100
AcDbLine
 10
1086.4054271659
 20
864.0292289255
 30
0.0
 11
1087.8225844534
 21
865.7292289255
 31
0.0
  0
LINE
  5
8D
330
1F
100
AcDbEntity
  8
1
  6
SLD-Сплошная
100
AcDbLine
 10
1087.8225844534
 20
866.7292289255
 30
0.0
 11
1087.8225844534
 21
865.7292289255
 31
0.0
  0
LINE
  5
8E
330
1F
100
AcDbEntity
  8
1
  6
SLD-Сплошная
100
AcDbLine
 10
1089.105427166
 20
471.012071638
 30
0.0
 11
1088.105427166
 21
471.012071638
 31
0.0
  0
LINE
  5
8F
330
1F
100
AcDbEntity
  8
1
  6
SLD-Сплошная
100
AcDbLine
 10
1088.105427166
 20
471.012071638
 30
0.0
 11
1086.4054271659
 21
472.4292289255
 31
0.0
  0
LINE
  5
90
330
1F
100
AcDbEntity
  8
1
  6
SLD-Сплошная
100
AcDbLine
 10
1086.4054271659
 20
472.4292289255
 30
0.0
 11
1087.8225844534
 21
470.7292289255
 31
0.0
  0
LINE
  5
91
330
1F
100
AcDbEntity
  8
1
  6
SLD-Сплошная
100
AcDbLine
 10
1087.8225844534
 20
469.7292289255
 30
0.0
 11
1087.8225844534
 21
470.7292289255
 31
0.0
  0
LINE
  5
92
330
1F
100
AcDbEntity
  8
1
  6
SLD-Сплошная
100
AcDbLine
 10
1089.9054271659
 20
470.2999396036
 30
0.0
 11
1089.105427166
 21
471.0999396035
 31
0.0
  0
LINE
  5
93
330
1F
100
AcDbEntity
  8
1
  6
SLD-Сплошная
100
AcDbLine
 10
1089.9054271659
 20
866.1585182475
 30
0.0
 11
1089.1054271659
 21
865.3585182475
 31
0.0
  0
LINE
  5
94
330
1F
100
AcDbEntity
  8
1
  6
SLD-Сплошная
100
AcDbLine
 10
494.6175592003
 20
471.012071638
 30
0.0
 11
493.9054271659
 21
470.2999396036
 31
0.0
  0
LINE
  5
95
330
1F
100
AcDbEntity
  8
1
  6
SLD-Сплошная
100
AcDbLine
 10
494.6175592004
 20
865.446386213
 30
0.0
 11
493.9054271659
 21
866.1585182474
 31
0.0
  0
LINE
  5
96
330
1F
100
AcDbEntity
  8
1
  6
SLD-Сплошная
100
AcDbLine
 10
1089.0518737754
 20
865.4463862131
 30
0.0
 11
1089.8347164879
 21
866.2292289255
 31
0.0
  0
LINE
  5
97
330
1F
100
AcDbEntity
  8
1
  6
SLD-Сплошная
100
AcDbLine
 10
493.9761378441
 20
866.2292289255
 30
0.0
 11
494.7589805566
 21
865.446386213
 31
0.0
  0
LINE
  5
98
330
1F
100
AcDbEntity
  8
1
  6
SLD-Сплошная
100
AcDbLine
 10
1089.0518737753
 20
471.012071638
 30
0.0
 11
1089.8347164879
 21
470.2292289255
 31
0.0
  0
LINE
  5
99
330
1F
100
AcDbEntity
  8
1
  6
SLD-Сплошная
100
AcDbLine
 10
493.9761378441
 20
470.2292289255
 30
0.0
 11
494.7589805565
 21
471.012071638
 31
0.0
  0
ELLIPSE
  5
9A
330
1F
100
AcDbEntity
  8
1
  6
SLD-Сплошная
100
AcDbEllipse
 10
493.9054271659
 20
470.2292289255
 30
0.0
 11
0.0
 21
2.0
 31
0.0
210
0.0
220
0.0
230
1.0
 40
0.0353553391
 41
3.141592653584163
 42
4.712388980384434
  0
LINE
  5
9B
330
1F
100
AcDbEntity
  8
1
  6
SLD-Сплошная
100
AcDbLine
 10
493.9054271659
 20
468.2292289255
 30
0.0
 11
493.9054271659
 21
468.5588996167
 31
0.0
  0
LINE
  5
9C
330
1F
100
AcDbEntity
  8
1
  6
SLD-Сплошная
100
AcDbLine
 10
493.9054271659
 20
468.5588996167
 30
0.0
 11
493.9054271659
 21
469.2292289255
 31
0.0
  0
ELLIPSE
  5
9D
330
1F
100
AcDbEntity
  8
1
  6
SLD-Сплошная
100
AcDbEllipse
 10
493.9054271659
 20
470.2292289255
 30
0.0
 11
0.0
 21
1.0
 31
0.0
210
0.0
220
0.0
230
1.0
 40
0.0707106781
 41
3.141592653584164
 42
4.712388980384634
  0
LINE
  5
9E
330
1F
100
AcDbEntity
  8
1
  6
SLD-Сплошная
100
AcDbLine
 10
493.9054271659
 20
868.2292289255
 30
0.0
 11
1089.9054271659
 21
868.2292289255
 31
0.0
  0
ELLIPSE
  5
9F
330
1F
100
AcDbEntity
  8
1
  6
SLD-Сплошная
100
AcDbEllipse
 10
1089.905427166
 20
866.2292289255
 30
0.0
 11
0.0
 21
2.0
 31
0.0
210
0.0
220
0.0
230
1.0
 40
0.035355339
 41
0.0
 42
1.57079632679484
  0
ELLIPSE
  5
A0
330
1F
100
AcDbEntity
  8
1
  6
SLD-Сплошная
100
AcDbEllipse
 10
493.9054271659
 20
866.2292289255
 30
0.0
 11
0.0
 21
2.0
 31
0.0
210
0.0
220
0.0
230
1.0
 40
0.0353553391
 41
4.712388980384917
 42
6.283185307179586
  0
ELLIPSE
  5
A1
330
1F
100
AcDbEntity
  8
1
  6
SLD-Сплошная
100
AcDbEllipse
 10
1089.9054271659
 20
470.2292289255
 30
0.0
 11
2.0
 21
0.0
 31
0.0
210
0.0
220
0.0
230
1.0
 40
0.035355339
 41
0.0
 42
1.570796326794783
  0
LINE
  5
A2
330
1F
100
AcDbEntity
  8
1
  6
SLD-Сплошная
100
AcDbLine
 10
1091.9054271659
 20
470.2292289255
 30
0.0
 11
1090.9054271659
 21
470.2292289255
 31
0.0
  0
ELLIPSE
  5
A3
330
1F
100
AcDbEntity
  8
1
  6
SLD-Сплошная
100
AcDbEllipse
 10
1089.9054271659
 20
470.2292289255
 30
0.0
 11
1.0
 21
0.0
 31
0.0
210
0.0
220
0.0
230
1.0
 40
0.070710678
 41
0.0
 42
1.570796326794897
  0
ELLIPSE
  5
A4
330
1F
100
AcDbEntity
  8
1
  6
SLD-Сплошная
100
AcDbEllipse
 10
1089.9054271659
 20
866.2292289255
 30
0.0
 11
1.0
 21
0.0
 31
0.0
210
0.0
220
0.0
230
1.0
 40
0.070710678
 41
4.712388980384691
 42
6.283185307179586
  0
LINE
  5
A5
330
1F
100
AcDbEntity
  8
1
  6
SLD-Сплошная
100
AcDbLine
 10
1091.9054271659
 20
866.2292289255
 30
0.0
 11
1090.9054271659
 21
866.2292289255
 31
0.0
  0
ELLIPSE
  5
A6
330
1F
100
AcDbEntity
  8
1
  6
SLD-Сплошная
100
AcDbEllipse
 10
1089.9054271659
 20
866.2292289255
 30
0.0
 11
2.0
 21
0.0
 31
0.0
210
0.0
220
0.0
230
1.0
 40
0.035355339
 41
4.712388980384803
 42
6.283185307179586
  0
LINE
  5
A7
330
1F
100
AcDbEntity
  8
1
  6
SLD-Сплошная
100
AcDbLine
 10
1091.9054271659
 20
866.2292289255
 30
0.0
 11
1091.9054271659
 21
470.2292289255
 31
0.0
  0
ELLIPSE
  5
A8
330
1F
100
AcDbEntity
  8
1
  6
SLD-Сплошная
100
AcDbEllipse
 10
493.9054271659
 20
866.2292289255
 30
0.0
 11
0.0
 21
1.0
 31
0.0
210
0.0
220
0.0
230
1.0
 40
0.0707106781
 41
4.712388980384691
 42
6.283185307179586
  0
LINE
  5
A9
330
1F
100
AcDbEntity
  8
1
  6
SLD-Сплошная
100
AcDbLine
 10
493.9054271659
 20
868.2292289255
 30
0.0
 11
493.9054271659
 21
867.2292289255
 31
0.0
  0
ELLIPSE
  5
AA
330
1F
100
AcDbEntity
  8
1
  6
SLD-Сплошная
100
AcDbEllipse
 10
493.9054271659
 20
866.2292289255
 30
0.0
 11
2.0
 21
0.0
 31
0.0
210
0.0
220
0.0
230
1.0
 40
0.035355339
 41
3.141592653536733
 42
4.712388980384633
  0
ELLIPSE
  5
AB
330
1F
100
AcDbEntity
  8
1
  6
SLD-Сплошная
100
AcDbEllipse
 10
493.9054271659
 20
470.2292289255
 30
0.0
 11
2.0
 21
0.0
 31
0.0
210
0.0
220
0.0
230
1.0
 40
0.035355339
 41
1.570796326794953
 42
3.141592653640836
  0
LINE
  5
AC
330
1F
100
AcDbEntity
  8
1
  6
SLD-Сплошная
100
AcDbLine
 10
491.9054271659
 20
470.2292289255
 30
0.0
 11
491.9054271659
 21
866.2292289255
 31
0.0
  0
ELLIPSE
  5
AD
330
1F
100
AcDbEntity
  8
1
  6
SLD-Сплошная
100
AcDbEllipse
 10
1089.905427166
 20
470.2292289255
 30
0.0
 11
0.0
 21
2.0
 31
0.0
210
0.0
220
0.0
230
1.0
 40
0.035355339
 41
1.570796326794953
 42
3.141592653541557
  0
ELLIPSE
  5
AE
330
1F
100
AcDbEntity
  8
1
  6
SLD-Сплошная
100
AcDbEllipse
 10
1089.905427166
 20
470.2292289255
 30
0.0
 11
0.0
 21
1.0
 31
0.0
210
0.0
220
0.0
230
1.0
 40
0.0707106781
 41
1.57079632679501
 42
3.141592653541558
  0
LINE
  5
AF
330
1F
100
AcDbEntity
  8
1
  6
SLD-Сплошная
100
AcDbLine
 10
1089.9054271659
 20
469.2292289255
 30
0.0
 11
1089.9054271659
 21
468.2292289255
 31
0.0
  0
LINE
  5
B0
330
1F
100
AcDbEntity
  8
1
  6
SLD-Сплошная
100
AcDbLine
 10
495.0054271659
 20
468.2292289255
 30
0.0
 11
1089.9054271659
 21
468.2292289255
 31
0.0
  0
LINE
  5
B1
330
1F
100
AcDbEntity
  8
1
  6
SLD-Сплошная
100
AcDbLine
 10
493.9054271659
 20
468.2292289255
 30
0.0
 11
495.0054271659
 21
468.2292289255
 31
0.0
  0
ELLIPSE
  5
B2
330
1F
100
AcDbEntity
  8
1
  6
SLD-Сплошная
100
AcDbEllipse
 10
1089.905427166
 20
866.2292289255
 30
0.0
 11
0.0
 21
1.0
 31
0.0
210
0.0
220
0.0
230
1.0
 40
0.0707106781
 41
0.0
 42
1.570796326794897
  0
LINE
  5
B3
330
1F
100
AcDbEntity
  8
1
  6
SLD-Сплошная
100
AcDbLine
 10
1089.9054271659
 20
867.2292289255
 30
0.0
 11
1089.9054271659
 21
868.2292289255
 31
0.0
  0
ELLIPSE
  5
B4
330
1F
100
AcDbEntity
  8
1
  6
SLD-Сплошная
100
AcDbEllipse
 10
493.9054271659
 20
470.2292289255
 30
0.0
 11
1.0
 21
0.0
 31
0.0
210
0.0
220
0.0
230
1.0
 40
0.0707106781
 41
1.570796326794953
 42
3.141592653640637
  0
LINE
  5
B5
330
1F
100
AcDbEntity
  8
1
  6
SLD-Сплошная
100
AcDbLine
 10
492.9054271659
 20
470.2292289255
 30
0.0
 11
491.9054271659
 21
470.2292289255
 31
0.0
  0
ELLIPSE
  5
B6
330
1F
100
AcDbEntity
  8
1
  6
SLD-Сплошная
100
AcDbEllipse
 10
493.9054271659
 20
866.2292289255
 30
0.0
 11
1.0
 21
0.0
 31
0.0
210
0.0
220
0.0
230
1.0
 40
0.0707106781
 41
3.141592653538343
 42
4.712388980384634
  0
LINE
  5
B7
330
1F
100
AcDbEntity
  8
1
  6
SLD-Сплошная
100
AcDbLine
 10
492.9054271659
 20
866.2292289255
 30
0.0
 11
491.9054271659
 21
866.2292289255
 31
0.0
  0
LINE
  5
B8
330
1F
100
AcDbEntity
  8
1
  6
SLD-Сплошная
100
AcDbLine
 10
494.0054271659
 20
470.2585182474
 30
0.0
 11
494.0054271659
 21
470.3999396036
 31
0.0
  0
LINE
  5
B9
330
1F
100
AcDbEntity
  8
1
  6
SLD-Сплошная
100
AcDbLine
 10
493.0054271659
 20
470.2292289255
 30
0.0
 11
493.0054271659
 21
470.2600509955
 31
0.0
  0
ARC
  5
BA
330
1F
100
AcDbEntity
  8
1
  6
SLD-Сплошная
100
AcDbCircle
 10
495.0054271659
 20
470.2292289255
 30
0.0
 40
2.000000000000004
100
AcDbArc
 50
180.0
 51
236.6329870308
  0
ARC
  5
BB
330
1F
100
AcDbEntity
  8
1
  6
SLD-Сплошная
100
AcDbCircle
 10
493.9054271659
 20
866.2292289255
 30
0.0
 40
1.000000000007844
100
AcDbArc
 50
90.0
 51
180.0
  0
ARC
  5
BC
330
1F
100
AcDbEntity
  8
1
  6
SLD-Сплошная
100
AcDbCircle
 10
493.9054271659
 20
866.2292289255
 30
0.0
 40
2.000000000007844
100
AcDbArc
 50
90.0
 51
180.0
  0
ARC
  5
BD
330
1F
100
AcDbEntity
  8
1
  6
SLD-Сплошная
100
AcDbCircle
 10
1089.9054271659
 20
470.2292289255
 30
0.0
 40
2.0
100
AcDbArc
 50
270.0
 51
0.0
  0
ARC
  5
BE
330
1F
100
AcDbEntity
  8
1
  6
SLD-Сплошная
100
AcDbCircle
 10
1089.9054271659
 20
470.2292289255
 30
0.0
 40
1.0
100
AcDbArc
 50
270.0
 51
0.0
  0
ARC
  5
BF
330
1F
100
AcDbEntity
  8
1
  6
SLD-Сплошная
100
AcDbCircle
 10
1089.9054271659
 20
866.2292289255
 30
0.0
 40
1.0
100
AcDbArc
 50
0.0
 51
90.0
  0
ARC
  5
C0
330
1F
100
AcDbEntity
  8
1
  6
SLD-Сплошная
100
AcDbCircle
 10
1089.9054271659
 20
866.2292289255
 30
0.0
 40
2.0
100
AcDbArc
 50
0.0
 51
90.0
  0
LINE
  5
C1
330
1F
100
AcDbEntity
  8
1
  6
SLD-Сплошная
100
AcDbLine
 10
493.9054271659
 20
867.2292289255
 30
0.0
 11
493.9054271659
 21
866.2999396036
 31
0.0
  0
LINE
  5
C2
330
1F
100
AcDbEntity
  8
1
  6
SLD-Сплошная
100
AcDbLine
 10
1089.9054271659
 20
866.2999396036
 30
0.0
 11
1089.9054271659
 21
867.2292289255
 31
0.0
  0
LINE
  5
C3
330
1F
100
AcDbEntity
  8
1
  6
SLD-Сплошная
100
AcDbLine
 10
1090.9054271659
 20
470.2292289255
 30
0.0
 11
1089.976137844
 21
470.2292289255
 31
0.0
  0
LINE
  5
C4
330
1F
100
AcDbEntity
  8
1
  6
SLD-Сплошная
100
AcDbLine
 10
1090.9054271659
 20
866.2292289255
 30
0.0
 11
1089.976137844
 21
866.2292289255
 31
0.0
  0
LINE
  5
C5
330
1F
100
AcDbEntity
  8
1
  6
SLD-Сплошная
100
AcDbLine
 10
493.0054271659
 20
470.2292289255
 30
0.0
 11
492.9054271659
 21
470.2292289255
 31
0.0
  0
LINE
  5
C6
330
1F
100
AcDbEntity
  8
1
  6
SLD-Сплошная
100
AcDbLine
 10
493.8347164878
 20
866.2292289255
 30
0.0
 11
492.9054271659
 21
866.2292289255
 31
0.0
  0
LINE
  5
C7
330
1F
100
AcDbEntity
  8
1
  6
SLD-Сплошная
100
AcDbLine
 10
1089.9054271659
 20
470.1585182474
 30
0.0
 11
1089.9054271659
 21
469.2292289255
 31
0.0
  0
CIRCLE
  5
C8
330
1F
100
AcDbEntity
  8
1
  6
SLD-Сплошная
100
AcDbCircle
 10
549.1054271659
 20
668.2292289255
 30
0.0
 40
14.0
  0
CIRCLE
  5
C9
330
1F
100
AcDbEntity
  8
1
  6
SLD-Сплошная
100
AcDbCircle
 10
549.1054271659
 20
668.2292289255
 30
0.0
 40
11.0
  0
CIRCLE
  5
CA
330
1F
100
AcDbEntity
  8
1
  6
SLD-Сплошная
100
AcDbCircle
 10
549.1054271659
 20
668.2292289255
 30
0.0
 40
8.0
  0
ARC
  5
CB
330
1F
100
AcDbEntity
  8
1
  6
SLD-Сплошная
100
AcDbCircle
 10
550.9921785119
 20
664.9612797331
 30
0.0
 40
1.0
100
AcDbArc
 50
240.0
 51
0.0
  0
LINE
  5
CC
330
1F
100
AcDbEntity
  8
1
  6
SLD-Сплошная
100
AcDbLine
 10
544.831924474
 20
667.3632035217
 30
0.0
 11
550.4921785119
 21
664.0952543293
 31
0.0
  0
ARC
  5
CD
330
1F
100
AcDbEntity
  8
1
  6
SLD-Сплошная
100
AcDbCircle
 10
545.331924474
 20
668.2292289255
 30
0.0
 40
1.000000000000097
100
AcDbArc
 50
120.0
 51
240.0
  0
LINE
  5
CE
330
1F
100
AcDbEntity
  8
1
  6
SLD-Сплошная
100
AcDbLine
 10
550.4921785119
 20
672.3632035217
 30
0.0
 11
544.831924474
 21
669.0952543293
 31
0.0
  0
ARC
  5
CF
330
1F
100
AcDbEntity
  8
1
  6
SLD-Сплошная
100
AcDbCircle
 10
550.9921785119
 20
671.4971781179
 30
0.0
 40
1.00000000000004
100
AcDbArc
 50
0.0
 51
120.0
  0
LINE
  5
D0
330
1F
100
AcDbEntity
  8
1
  6
SLD-Сплошная
100
AcDbLine
 10
551.9921785119
 20
664.9612797331
 30
0.0
 11
551.9921785119
 21
671.4971781179
 31
0.0
  0
LINE
  5
D1
330
1F
100
AcDbEntity
  8
1
  6
SLD-Сплошная
100
AcDbLine
 10
1607.4938707055
 20
865.448911213
 30
0.0
 11
1607.4938707055
 21
471.009546638
 31
0.0
  0
ARC
  5
D2
330
1F
100
AcDbEntity
  8
1
  6
SLD-Сплошная
100
AcDbCircle
 10
1601.5592467442
 20
553.3792289255
 30
0.0
 40
0.2000000000001592
100
AcDbArc
 50
270.0
 51
338.1849373759
  0
ARC
  5
D3
330
1F
100
AcDbEntity
  8
1
  6
SLD-Сплошная
100
AcDbCircle
 10
1601.5592467442
 20
563.0792289255
 30
0.0
 40
0.1999999999999318
100
AcDbArc
 50
21.8150626241
 51
90.0
  0
LINE
  5
D4
330
1F
100
AcDbEntity
  8
1
  6
SLD-Сплошная
100
AcDbLine
 10
1600.3938707055
 20
553.1792289255
 30
0.0
 11
1601.5592467442
 21
553.1792289255
 31
0.0
  0
LINE
  5
D5
330
1F
100
AcDbEntity
  8
1
  6
SLD-Сплошная
100
AcDbLine
 10
1601.5592467442
 20
563.2792289255
 30
0.0
 11
1600.3938707055
 21
563.2792289255
 31
0.0
  0
ARC
  5
D6
330
1F
100
AcDbEntity
  8
1
  6
SLD-Сплошная
100
AcDbCircle
 10
1589.4426207055
 20
558.2292289255
 30
0.0
 40
13.25125000000003
100
AcDbArc
 50
338.1849373759
 51
0.0
  0
ARC
  5
D7
330
1F
100
AcDbEntity
  8
1
  6
SLD-Сплошная
100
AcDbCircle
 10
1589.4426207055
 20
558.2292289255
 30
0.0
 40
13.25125000000003
100
AcDbArc
 50
0.0
 51
21.8150626241
  0
LINE
  5
D8
330
1F
100
AcDbEntity
  8
1
  6
SLD-Сплошная
100
AcDbLine
 10
1600.3938707055
 20
773.1792289255
 30
0.0
 11
1601.5592467442
 21
773.1792289255
 31
0.0
  0
LINE
  5
D9
330
1F
100
AcDbEntity
  8
1
  6
SLD-Сплошная
100
AcDbLine
 10
1601.5592467442
 20
783.2792289255
 30
0.0
 11
1600.3938707055
 21
783.2792289255
 31
0.0
  0
ARC
  5
DA
330
1F
100
AcDbEntity
  8
1
  6
SLD-Сплошная
100
AcDbCircle
 10
1601.5592467442
 20
773.3792289255
 30
0.0
 40
0.1999999999999514
100
AcDbArc
 50
270.0
 51
338.1849373759
  0
ARC
  5
DB
330
1F
100
AcDbEntity
  8
1
  6
SLD-Сплошная
100
AcDbCircle
 10
1601.5592467442
 20
783.0792289255
 30
0.0
 40
0.2000000000000455
100
AcDbArc
 50
21.8150626241
 51
90.0
  0
ARC
  5
DC
330
1F
100
AcDbEntity
  8
1
  6
SLD-Сплошная
100
AcDbCircle
 10
1589.4426207055
 20
778.2292289255
 30
0.0
 40
13.25125000000003
100
AcDbArc
 50
338.1849373759
 51
0.0
  0
ARC
  5
DD
330
1F
100
AcDbEntity
  8
1
  6
SLD-Сплошная
100
AcDbCircle
 10
1589.4426207055
 20
778.2292289255
 30
0.0
 40
13.25125000000003
100
AcDbArc
 50
0.0
 51
21.8150626241
  0
ARC
  5
DE
330
1F
100
AcDbEntity
  8
1
  6
SLD-Сплошная
100
AcDbCircle
 10
1578.0938707055
 20
467.0234668679
 30
0.0
 40
1.0
100
AcDbArc
 50
180.0
 51
257.5813184942
  0
ARC
  5
DF
330
1F
100
AcDbEntity
  8
1
  6
SLD-Сплошная
100
AcDbCircle
 10
1592.6938707055
 20
467.0234668679
 30
0.0
 40
0.9999999999999755
100
AcDbArc
 50
282.4186815058
 51
0.0
  0
LINE
  5
E0
330
1F
100
AcDbEntity
  8
1
  6
SLD-Сплошная
100
AcDbLine
 10
1577.0938707055
 20
468.2292289255
 30
0.0
 11
1577.0938707055
 21
467.0234668679
 31
0.0
  0
LINE
  5
E1
330
1F
100
AcDbEntity
  8
1
  6
SLD-Сплошная
100
AcDbLine
 10
1593.6938707055
 20
467.0234668679
 30
0.0
 11
1593.6938707055
 21
468.2292289255
 31
0.0
  0
ARC
  5
E2
330
1F
100
AcDbEntity
  8
1
  6
SLD-Сплошная
100
AcDbCircle
 10
1585.3938707055
 20
500.1742289255
 30
0.0
 40
34.94500000000006
100
AcDbArc
 50
270.0104111827
 51
282.4186815058
  0
ARC
  5
E3
330
1F
100
AcDbEntity
  8
1
  6
SLD-Сплошная
100
AcDbCircle
 10
1585.3938707055
 20
500.1742289255
 30
0.0
 40
34.94500000000006
100
AcDbArc
 50
257.5813184942
 51
270.0104111827
  0
LINE
  5
E4
330
1F
100
AcDbEntity
  8
1
  6
SLD-Сплошная
100
AcDbLine
 10
1627.4938707055
 20
654.2292289255
 30
0.0
 11
1630.4938707055
 21
657.2292289255
 31
0.0
  0
LINE
  5
E5
330
1F
100
AcDbEntity
  8
1
  6
SLD-Сплошная
100
AcDbLine
 10
1630.4938707055
 20
679.2292289255
 30
0.0
 11
1627.4938707055
 21
682.2292289255
 31
0.0
  0
LINE
  5
E6
330
1F
100
AcDbEntity
  8
1
  6
SLD-Сплошная
100
AcDbLine
 10
1626.4938707055
 20
654.2292289255
 30
0.0
 11
1627.4938707055
 21
654.2292289255
 31
0.0
  0
LINE
  5
E7
330
1F
100
AcDbEntity
  8
1
  6
SLD-Сплошная
100
AcDbLine
 10
1627.4938707055
 20
682.2292289255
 30
0.0
 11
1626.4938707055
 21
682.2292289255
 31
0.0
  0
LINE
  5
E8
330
1F
100
AcDbEntity
  8
1
  6
SLD-Сплошная
100
AcDbLine
 10
1478.6438707055
 20
467.7292289255
 30
0.0
 11
1468.1521968176
 21
467.7292289255
 31
0.0
  0
ARC
  5
E9
330
1F
100
AcDbEntity
  8
1
  6
SLD-Сплошная
100
AcDbCircle
 10
1468.1521968176
 20
470.1292289255
 30
0.0
 40
2.399999999999977
100
AcDbArc
 50
232.3415379935
 51
270.0
  0
LINE
  5
EA
330
1F
100
AcDbEntity
  8
1
  6
SLD-Сплошная
100
AcDbLine
 10
1547.6438707055
 20
467.7292289255
 30
0.0
 11
1478.6438707055
 21
467.7292289255
 31
0.0
  0
LINE
  5
EB
330
1F
100
AcDbEntity
  8
1
  6
SLD-Сплошная
100
AcDbLine
 10
1558.1355445934
 20
467.7292289255
 30
0.0
 11
1547.6438707055
 21
467.7292289255
 31
0.0
  0
ARC
  5
EC
330
1F
100
AcDbEntity
  8
1
  6
SLD-Сплошная
100
AcDbCircle
 10
1558.1355445934
 20
470.1292289255
 30
0.0
 40
2.400000000000189
100
AcDbArc
 50
270.0
 51
307.6584620063
  0
SPLINE
  5
ED
330
1F
100
AcDbEntity
  8
1
  6
SLD-Сплошная
100
AcDbSpline
210
0.0
220
0.0
230
1.0
 70
     8
 71
     3
 72
    11
 73
     7
 74
     0
 42
0.00000001
 43
0.00000001
 40
0.0
 40
0.0
 40
0.0
 40
0.0
 40
0.2499999999999991
 40
0.4999999999999902
 40
0.7499999999999857
 40
0.9999999999999999
 40
0.9999999999999999
 40
0.9999999999999999
 40
0.9999999999999999
 10
1608.543870705483
 20
865.4463862129862
 30
0.0
 10
1608.406281809486
 20
865.4422195463195
 30
0.0
 10
1608.131104017493
 20
865.4338862129861
 30
0.0
 10
1607.784031833541
 20
865.4213862129861
 30
0.0
 10
1607.541220159763
 20
865.4088862129862
 30
0.0
 10
1607.509653856909
 20
865.4005528796529
 30
0.0
 10
1607.493870705483
 20
865.3963862129862
 30
0.0
  0
SPLINE
  5
EE
330
1F
100
AcDbEntity
  8
1
  6
SLD-Сплошная
100
AcDbSpline
210
0.0
220
0.0
230
1.0
 70
     8
 71
     3
 72
    11
 73
     7
 74
     0
 42
0.00000001
 43
0.00000001
 40
0.0
 40
0.0
 40
0.0
 40
0.0
 40
0.2500000000000184
 40
0.50000000000001
 40
0.7500000000000006
 40
1.0
 40
1.0
 40
1.0
 40
1.0
 10
1607.493870705483
 20
471.0620716380135
 30
0.0
 10
1607.509653856908
 20
471.0579049713468
 30
0.0
 10
1607.541220159761
 20
471.0495716380134
 30
0.0
 10
1607.784031833539
 20
471.0370716380135
 30
0.0
 10
1608.131104017491
 20
471.0245716380134
 30
0.0
 10
1608.406281809486
 20
471.0162383046801
 30
0.0
 10
1608.543870705483
 20
471.0120716380135
 30
0.0
  0
LINE
  5
EF
330
1F
100
AcDbEntity
  8
1
  6
SLD-Сплошная
100
AcDbLine
 10
1608.5438707055
 20
471.012071638
 30
0.0
 11
1623.7938707055
 21
471.012071638
 31
0.0
  0
LINE
  5
F0
330
1F
100
AcDbEntity
  8
1
  6
SLD-Сплошная
100
AcDbLine
 10
1608.5438707055
 20
865.446386213
 30
0.0
 11
1623.7938707055
 21
865.446386213
 31
0.0
  0
ELLIPSE
  5
F1
330
1F
100
AcDbEntity
  8
1
  6
SLD-Сплошная
100
AcDbEllipse
 10
1623.7938707055
 20
864.0292289255
 30
0.0
 11
2.700000000000045
 21
0.0
 31
0.0
210
0.0
220
0.0
230
1.0
 40
0.5248730694
 41
0.0
 42
1.570796326794897
  0
LINE
  5
F2
330
1F
100
AcDbEntity
  8
1
  6
SLD-Сплошная
100
AcDbLine
 10
1626.4938707055
 20
864.0292289255
 30
0.0
 11
1626.4938707055
 21
472.4292289255
 31
0.0
  0
ELLIPSE
  5
F3
330
1F
100
AcDbEntity
  8
1
  6
SLD-Сплошная
100
AcDbEllipse
 10
1623.7938707055
 20
472.4292289255
 30
0.0
 11
2.700000000000045
 21
0.0
 31
0.0
210
0.0
220
0.0
230
1.0
 40
0.5248730694
 41
4.712388980384697
 42
6.283185307179586
  0
LINE
  5
F4
330
1F
100
AcDbEntity
  8
1
  6
SLD-Сплошная
100
AcDbLine
 10
1623.7938707055
 20
866.7292289255
 30
0.0
 11
1608.5438707055
 21
866.7292289255
 31
0.0
  0
LINE
  5
F5
330
1F
100
AcDbEntity
  8
1
  6
SLD-Сплошная
100
AcDbLine
 10
1623.7938707055
 20
865.7292289255
 30
0.0
 11
1608.5438707055
 21
865.7292289255
 31
0.0
  0
LINE
  5
F6
330
1F
100
AcDbEntity
  8
1
  6
SLD-Сплошная
100
AcDbLine
 10
1608.5438707055
 20
866.7292289255
 30
0.0
 11
1608.5438707055
 21
865.7292289255
 31
0.0
  0
LINE
  5
F7
330
1F
100
AcDbEntity
  8
1
  6
SLD-Сплошная
100
AcDbLine
 10
1608.4938707055
 20
865.6792289255
 30
0.0
 11
1607.4938707055
 21
865.6792289255
 31
0.0
  0
SPLINE
  5
F8
330
1F
100
AcDbEntity
  8
1
  6
SLD-Сплошная
100
AcDbSpline
210
0.0
220
0.0
230
1.0
 70
     8
 71
     3
 72
    11
 73
     7
 74
     0
 42
0.00000001
 43
0.00000001
 40
0.0
 40
0.0
 40
0.0
 40
0.0
 40
0.2500000000000079
 40
0.500000000000003
 40
0.7500000000000016
 40
1.0
 40
1.0
 40
1.0
 40
1.0
 10
1607.493870705483
 20
865.6792289254998
 30
0.0
 10
1607.509653856909
 20
865.8168178214964
 30
0.0
 10
1607.541220159763
 20
866.0919956134896
 30
0.0
 10
1607.784031833541
 20
866.4390677974415
 30
0.0
 10
1608.131104017493
 20
866.68187947122
 30
0.0
 10
1608.406281809486
 20
866.7134457740734
 30
0.0
 10
1608.543870705483
 20
866.7292289255001
 30
0.0
  0
SPLINE
  5
F9
330
1F
100
AcDbEntity
  8
1
  6
SLD-Сплошная
100
AcDbSpline
210
0.0
220
0.0
230
1.0
 70
     8
 71
     3
 72
    11
 73
     7
 74
     0
 42
0.00000001
 43
0.00000001
 40
0.0
 40
0.0
 40
0.0
 40
0.0
 40
0.2499999999998797
 40
0.5000000000000181
 40
0.7499999999999905
 40
1.0
 40
1.0
 40
1.0
 40
1.0
 10
1608.493870705483
 20
865.6792289255001
 30
0.0
 10
1608.494622284122
 20
865.6857807776903
 30
0.0
 10
1608.496125441401
 20
865.698884482071
 30
0.0
 10
1608.507687902057
 20
865.7154117289258
 30
0.0
 10
1608.524215148912
 20
865.726974189582
 30
0.0
 10
1608.537318853292
 20
865.7284773468607
 30
0.0
 10
1608.543870705483
 20
865.7292289255001
 30
0.0
  0
LINE
  5
FA
330
1F
100
AcDbEntity
  8
1
  6
SLD-Сплошная
100
AcDbLine
 10
1623.7938707055
 20
470.7292289255
 30
0.0
 11
1608.5438707055
 21
470.7292289255
 31
0.0
  0
LINE
  5
FB
330
1F
100
AcDbEntity
  8
1
  6
SLD-Сплошная
100
AcDbLine
 10
1623.7938707055
 20
469.7292289255
 30
0.0
 11
1608.5438707055
 21
469.7292289255
 31
0.0
  0
LINE
  5
FC
330
1F
100
AcDbEntity
  8
1
  6
SLD-Сплошная
100
AcDbLine
 10
1608.5438707055
 20
469.7292289255
 30
0.0
 11
1608.5438707055
 21
470.7292289255
 31
0.0
  0
SPLINE
  5
FD
330
1F
100
AcDbEntity
  8
1
  6
SLD-Сплошная
100
AcDbSpline
210
0.0
220
0.0
230
1.0
 70
     8
 71
     3
 72
    11
 73
     7
 74
     0
 42
0.00000001
 43
0.00000001
 40
0.0
 40
0.0
 40
0.0
 40
0.0
 40
0.249999999999996
 40
0.500000000000001
 40
0.7499999999999896
 40
0.9999999999999999
 40
0.9999999999999999
 40
0.9999999999999999
 40
0.9999999999999999
 10
1608.543870705483
 20
469.7292289254999
 30
0.0
 10
1608.406281809486
 20
469.7450120769266
 30
0.0
 10
1608.131104017493
 20
469.7765783797799
 30
0.0
 10
1607.784031833541
 20
470.0193900535585
 30
0.0
 10
1607.541220159763
 20
470.3664622375102
 30
0.0
 10
1607.509653856909
 20
470.6416400295034
 30
0.0
 10
1607.493870705483
 20
470.7792289254999
 30
0.0
  0
LINE
  5
FE
330
1F
100
AcDbEntity
  8
1
  6
SLD-Сплошная
100
AcDbLine
 10
1608.4938707055
 20
470.7792289255
 30
0.0
 11
1607.4938707055
 21
470.7792289255
 31
0.0
  0
SPLINE
  5
FF
330
1F
100
AcDbEntity
  8
1
  6
SLD-Сплошная
100
AcDbSpline
210
0.0
220
0.0
230
1.0
 70
     8
 71
     3
 72
    11
 73
     7
 74
     0
 42
0.00000001
 43
0.00000001
 40
0.0
 40
0.0
 40
0.0
 40
0.0
 40
0.249999999999904
 40
0.4999999999998018
 40
0.7499999999998657
 40
1.0
 40
1.0
 40
1.0
 40
1.0
 10
1608.543870705483
 20
470.7292289254999
 30
0.0
 10
1608.537318853292
 20
470.7299805041393
 30
0.0
 10
1608.524215148911
 20
470.731483661418
 30
0.0
 10
1608.507687902057
 20
470.7430461220742
 30
0.0
 10
1608.496125441401
 20
470.759573368929
 30
0.0
 10
1608.494622284122
 20
470.7726770733096
 30
0.0
 10
1608.493870705483
 20
470.7792289254999
 30
0.0
  0
ARC
  5
100
330
1F
100
AcDbEntity
  8
1
  6
SLD-Сплошная
100
AcDbCircle
 10
1623.7938707055
 20
864.0292289255
 30
0.0
 40
2.700000000000045
100
AcDbArc
 50
0.0000000005
 51
90.0
  0
ARC
  5
101
330
1F
100
AcDbEntity
  8
1
  6
SLD-Сплошная
100
AcDbCircle
 10
1623.7938707055
 20
864.0292289255
 30
0.0
 40
1.699999999999865
100
AcDbArc
 50
49.5408896291
 51
90.0
  0
ARC
  5
102
330
1F
100
AcDbEntity
  8
1
  6
SLD-Сплошная
100
AcDbCircle
 10
1623.7938707055
 20
472.4292289255
 30
0.0
 40
1.700000000000102
100
AcDbArc
 50
270.0
 51
310.4591103703
  0
ARC
  5
103
330
1F
100
AcDbEntity
  8
1
  6
SLD-Сплошная
100
AcDbCircle
 10
1623.7938707055
 20
472.4292289255
 30
0.0
 40
2.700000000000102
100
AcDbArc
 50
270.0
 51
359.9999999995
  0
LINE
  5
104
330
1F
100
AcDbEntity
  8
1
  6
SLD-Сплошная
100
AcDbLine
 10
1608.5438707055
 20
865.446386213
 30
0.0
 11
1608.5438707055
 21
865.6292289255
 31
0.0
  0
LINE
  5
105
330
1F
100
AcDbEntity
  8
1
  6
SLD-Сплошная
100
AcDbLine
 10
1607.5620472562
 20
865.35506107
 30
0.0
 11
1607.4938707055
 21
865.6792289255
 31
0.0
  0
SPLINE
  5
106
330
1F
100
AcDbEntity
  8
1
  6
SLD-Сплошная
100
AcDbSpline
210
0.0
220
0.0
230
1.0
 70
     8
 71
     3
 72
    10
 73
     6
 74
     0
 42
0.00000001
 43
0.00000001
 40
0.0
 40
0.0
 40
0.0
 40
0.0
 40
0.3585486610857283
 40
0.5969690045994505
 40
1.0
 40
1.0
 40
1.0
 40
1.0
 10
1608.543870705483
 20
865.6292289255001
 30
0.0
 10
1608.528444512951
 20
865.6351459684925
 30
0.0
 10
1608.502760526927
 20
865.6449976055188
 30
0.0
 10
1608.49686895304
 20
865.6618976277266
 30
0.0
 10
1608.495027629499
 20
865.6725413540939
 30
0.0
 10
1608.493870705483
 20
865.6792289255001
 30
0.0
  0
LINE
  5
107
330
1F
100
AcDbEntity
  8
1
  6
SLD-Сплошная
100
AcDbLine
 10
1608.5438707055
 20
471.012071638
 30
0.0
 11
1608.5438707055
 21
470.8292289255
 31
0.0
  0
SPLINE
  5
108
330
1F
100
AcDbEntity
  8
1
  6
SLD-Сплошная
100
AcDbSpline
210
0.0
220
0.0
230
1.0
 70
     8
 71
     3
 72
    10
 73
     6
 74
     0
 42
0.00000001
 43
0.00000001
 40
0.0
 40
0.0
 40
0.0
 40
0.0
 40
0.4215647020396936
 40
0.6406677011955219
 40
1.0
 40
1.0
 40
1.0
 40
1.0
 10
1608.493870705483
 20
470.7792289254999
 30
0.0
 10
1608.495210745409
 20
470.7864836745097
 30
0.0
 10
1608.497247254385
 20
470.7975089888882
 30
0.0
 10
1608.503369259418
 20
470.8135988065134
 30
0.0
 10
1608.528351425685
 20
470.8232398013232
 30
0.0
 10
1608.543870705483
 20
470.8292289255
 30
0.0
  0
LINE
  5
109
330
1F
100
AcDbEntity
  8
1
  6
SLD-Сплошная
100
AcDbLine
 10
1607.4938707055
 20
470.7792289255
 30
0.0
 11
1607.5507363187
 21
471.0314702876
 31
0.0
  0
LINE
  5
10A
330
1F
100
AcDbEntity
  8
1
  6
SLD-Сплошная
100
AcDbLine
 10
1623.3838707055
 20
865.6292289255
 30
0.0
 11
1608.5438707055
 21
865.6292289255
 31
0.0
  0
LINE
  5
10B
330
1F
100
AcDbEntity
  8
1
  6
SLD-Сплошная
100
AcDbLine
 10
1623.3838707055
 20
865.446386213
 30
0.0
 11
1623.3838707055
 21
865.6292289255
 31
0.0
  0
LINE
  5
10C
330
1F
100
AcDbEntity
  8
1
  6
SLD-Сплошная
100
AcDbLine
 10
1623.3838707055
 20
470.8292289255
 30
0.0
 11
1608.5438707055
 21
470.8292289255
 31
0.0
  0
LINE
  5
10D
330
1F
100
AcDbEntity
  8
1
  6
SLD-Сплошная
100
AcDbLine
 10
1623.3838707055
 20
471.0120716381
 30
0.0
 11
1623.3838707055
 21
470.8292289255
 31
0.0
  0
ARC
  5
10E
330
1F
100
AcDbEntity
  8
1
  6
SLD-Сплошная
100
AcDbCircle
 10
1623.3838707055
 20
863.6192289255
 30
0.0
 40
2.009999999999991
100
AcDbArc
 50
63.9069487141
 51
90.0
  0
ARC
  5
10F
330
1F
100
AcDbEntity
  8
1
  6
SLD-Сплошная
100
AcDbCircle
 10
1623.3838707055
 20
472.8392289255
 30
0.0
 40
2.009999999999991
100
AcDbArc
 50
270.0
 51
296.0930512909
  0
LINE
  5
110
330
1F
100
AcDbEntity
  8
1
  6
SLD-Сплошная
100
AcDbLine
 10
1428.8938707055
 20
470.2292289255
 30
0.0
 11
1598.3938707055
 21
470.2292289255
 31
0.0
  0
CIRCLE
  5
111
330
1F
100
AcDbEntity
  8
1
  6
SLD-Сплошная
100
AcDbCircle
 10
1560.3938707055
 20
518.2292289255
 30
0.0
 40
0.5000000000001137
  0
CIRCLE
  5
112
330
1F
100
AcDbEntity
  8
1
  6
SLD-Сплошная
100
AcDbCircle
 10
1560.3938707055
 20
818.2292289255
 30
0.0
 40
0.5
  0
CIRCLE
  5
113
330
1F
100
AcDbEntity
  8
1
  6
SLD-Сплошная
100
AcDbCircle
 10
1510.3938707055
 20
828.2292289255
 30
0.0
 40
0.5
  0
ELLIPSE
  5
114
330
1F
100
AcDbEntity
  8
1
  6
SLD-Сплошная
100
AcDbEllipse
 10
1428.8938707055
 20
865.6585182474
 30
0.0
 11
2.499999999999773
 21
0.0
 31
0.0
210
0.0
220
0.0
230
1.0
 40
0.6
 41
2.75128409526791
 42
3.141592653589793
  0
LINE
  5
115
330
1F
100
AcDbEntity
  8
1
  6
SLD-Сплошная
100
AcDbLine
 10
1426.5818914417
 20
866.2292289255
 30
0.0
 11
1428.8938707055
 21
866.2292289255
 31
0.0
  0
LINE
  5
116
330
1F
100
AcDbEntity
  8
1
  6
SLD-Сплошная
100
AcDbLine
 10
1426.5818914417
 20
470.2292289255
 30
0.0
 11
1428.8938707055
 21
470.2292289255
 31
0.0
  0
ELLIPSE
  5
117
330
1F
100
AcDbEntity
  8
1
  6
SLD-Сплошная
100
AcDbEllipse
 10
1428.8938707055
 20
470.7999396036
 30
0.0
 11
2.499999999999773
 21
0.0
 31
0.0
210
0.0
220
0.0
230
1.0
 40
0.6
 41
3.141592653589793
 42
3.531901211911641
  0
LINE
  5
118
330
1F
100
AcDbEntity
  8
1
  6
SLD-Сплошная
100
AcDbLine
 10
1426.3938707055
 20
470.7999396036
 30
0.0
 11
1426.3938707055
 21
865.6585182474
 31
0.0
  0
LINE
  5
119
330
1F
100
AcDbEntity
  8
1
  6
SLD-Сплошная
100
AcDbLine
 10
1428.8938707055
 20
868.2292289255
 30
0.0
 11
1598.3938707055
 21
868.2292289255
 31
0.0
  0
LINE
  5
11A
330
1F
100
AcDbEntity
  8
1
  6
SLD-Сплошная
100
AcDbLine
 10
1598.3938707055
 20
866.2292289255
 30
0.0
 11
1598.3938707055
 21
868.2292289255
 31
0.0
  0
LINE
  5
11B
330
1F
100
AcDbEntity
  8
1
  6
SLD-Сплошная
100
AcDbLine
 10
1428.8938707055
 20
866.2292289255
 30
0.0
 11
1428.8938707055
 21
868.2292289255
 31
0.0
  0
LINE
  5
11C
330
1F
100
AcDbEntity
  8
1
  6
SLD-Сплошная
100
AcDbLine
 10
1600.3938707055
 20
470.2999396036
 30
0.0
 11
1598.3938707055
 21
470.2292289255
 31
0.0
  0
LINE
  5
11D
330
1F
100
AcDbEntity
  8
1
  6
SLD-Сплошная
100
AcDbLine
 10
1600.3938707055
 20
866.1585182474
 30
0.0
 11
1598.3938707055
 21
866.2292289255
 31
0.0
  0
LINE
  5
11E
330
1F
100
AcDbEntity
  8
1
  6
SLD-Сплошная
100
AcDbLine
 10
1600.3938707055
 20
866.1585182474
 30
0.0
 11
1600.3938707055
 21
470.2999396036
 31
0.0
  0
LINE
  5
11F
330
1F
100
AcDbEntity
  8
1
  6
SLD-Сплошная
100
AcDbLine
 10
1598.3938707055
 20
470.2292289255
 30
0.0
 11
1598.3938707055
 21
468.5588996167
 31
0.0
  0
LINE
  5
120
330
1F
100
AcDbEntity
  8
1
  6
SLD-Сплошная
100
AcDbLine
 10
1598.3938707055
 20
468.2292289255
 30
0.0
 11
1428.8938707055
 21
468.2292289255
 31
0.0
  0
LINE
  5
121
330
1F
100
AcDbEntity
  8
1
  6
SLD-Сплошная
100
AcDbLine
 10
1428.8938707055
 20
468.5588996167
 30
0.0
 11
1428.8938707055
 21
470.2292289255
 31
0.0
  0
ARC
  5
122
330
1F
100
AcDbEntity
  8
1
  6
SLD-Сплошная
100
AcDbCircle
 10
1428.8938707055
 20
865.7292289255
 30
0.0
 40
1.500000000000197
100
AcDbArc
 50
90.0
 51
157.6369669006
  0
LINE
  5
123
330
1F
100
AcDbEntity
  8
1
  6
SLD-Сплошная
100
AcDbLine
 10
1426.5818914417
 20
866.680413389
 30
0.0
 11
1427.5066831472
 21
866.2999396036
 31
0.0
  0
ARC
  5
124
330
1F
100
AcDbEntity
  8
1
  6
SLD-Сплошная
100
AcDbCircle
 10
1428.8938707055
 20
865.7292289255
 30
0.0
 40
2.500000000000328
100
AcDbArc
 50
90.0
 51
157.6369669006
  0
LINE
  5
125
330
1F
100
AcDbEntity
  8
1
  6
SLD-Сплошная
100
AcDbLine
 10
1426.5818914417
 20
469.778044462
 30
0.0
 11
1427.5066831472
 21
470.1585182474
 31
0.0
  0
ARC
  5
126
330
1F
100
AcDbEntity
  8
1
  6
SLD-Сплошная
100
AcDbCircle
 10
1428.8938707055
 20
470.7292289255
 30
0.0
 40
1.500000000000197
100
AcDbArc
 50
202.3630330994
 51
270.0
  0
LINE
  5
127
330
1F
100
AcDbEntity
  8
1
  6
SLD-Сплошная
100
AcDbLine
 10
1428.8938707055
 20
468.5588996167
 30
0.0
 11
1428.8938707055
 21
468.2292289255
 31
0.0
  0
ARC
  5
128
330
1F
100
AcDbEntity
  8
1
  6
SLD-Сплошная
100
AcDbCircle
 10
1428.8938707055
 20
470.7292289255
 30
0.0
 40
2.500000000000328
100
AcDbArc
 50
202.3630330994
 51
270.0
  0
LINE
  5
129
330
1F
100
AcDbEntity
  8
1
  6
SLD-Сплошная
100
AcDbLine
 10
1426.3938707055
 20
470.7292289255
 30
0.0
 11
1426.3966500282
 21
470.7292289255
 31
0.0
  0
ARC
  5
12A
330
1F
100
AcDbEntity
  8
1
  6
SLD-Сплошная
100
AcDbCircle
 10
1428.8938707055
 20
470.7292289255
 30
0.0
 40
2.500000000000328
100
AcDbArc
 50
180.0
 51
202.3630330994
  0
LINE
  5
12B
330
1F
100
AcDbEntity
  8
1
  6
SLD-Сплошная
100
AcDbLine
 10
1426.3938707055
 20
865.7292289255
 30
0.0
 11
1426.3966500282
 21
865.7292289255
 31
0.0
  0
ARC
  5
12C
330
1F
100
AcDbEntity
  8
1
  6
SLD-Сплошная
100
AcDbCircle
 10
1428.8938707055
 20
865.7292289255
 30
0.0
 40
2.500000000000328
100
AcDbArc
 50
157.6369669006
 51
180.0
  0
ARC
  5
12D
330
1F
100
AcDbEntity
  8
1
  6
SLD-Сплошная
100
AcDbCircle
 10
1598.3938707055
 20
470.2292289255
 30
0.0
 40
2.0
100
AcDbArc
 50
270.0
 51
360.0
  0
LINE
  5
12E
330
1F
100
AcDbEntity
  8
1
  6
SLD-Сплошная
100
AcDbLine
 10
1598.3938707055
 20
468.2292289255
 30
0.0
 11
1598.3938707055
 21
468.5588996167
 31
0.0
  0
LINE
  5
12F
330
1F
100
AcDbEntity
  8
1
  6
SLD-Сплошная
100
AcDbLine
 10
1599.3938707055
 20
470.2292289255
 30
0.0
 11
1600.3938707055
 21
470.2292289255
 31
0.0
  0
ARC
  5
130
330
1F
100
AcDbEntity
  8
1
  6
SLD-Сплошная
100
AcDbCircle
 10
1598.3938707055
 20
470.2292289255
 30
0.0
 40
1.0
100
AcDbArc
 50
270.0
 51
360.0
  0
LINE
  5
131
330
1F
100
AcDbEntity
  8
1
  6
SLD-Сплошная
100
AcDbLine
 10
1599.3938707055
 20
866.2292289255
 30
0.0
 11
1600.3938707055
 21
866.2292289255
 31
0.0
  0
ARC
  5
132
330
1F
100
AcDbEntity
  8
1
  6
SLD-Сплошная
100
AcDbCircle
 10
1598.3938707055
 20
866.2292289255
 30
0.0
 40
1.0
100
AcDbArc
 50
0.0
 51
90.0
  0
ARC
  5
133
330
1F
100
AcDbEntity
  8
1
  6
SLD-Сплошная
100
AcDbCircle
 10
1598.3938707055
 20
866.2292289255
 30
0.0
 40
2.0
100
AcDbArc
 50
0.0
 51
90.0
  0
LINE
  5
134
330
1F
100
AcDbEntity
  8
1
  6
SLD-Сплошная
100
AcDbLine
 10
1599.3938707055
 20
866.2292289255
 30
0.0
 11
1599.3938707055
 21
866.1938735865
 31
0.0
  0
LINE
  5
135
330
1F
100
AcDbEntity
  8
1
  6
SLD-Сплошная
100
AcDbLine
 10
1600.3938707055
 20
866.2292289255
 30
0.0
 11
1600.3938707055
 21
866.1585182475
 31
0.0
  0
LINE
  5
136
330
1F
100
AcDbEntity
  8
1
  6
SLD-Сплошная
100
AcDbLine
 10
1599.3938707055
 20
470.2292289255
 30
0.0
 11
1599.3938707055
 21
470.2645842645
 31
0.0
  0
LINE
  5
137
330
1F
100
AcDbEntity
  8
1
  6
SLD-Сплошная
100
AcDbLine
 10
1600.3938707055
 20
470.2292289255
 30
0.0
 11
1600.3938707055
 21
470.2999396036
 31
0.0
  0
LINE
  5
138
330
1F
100
AcDbEntity
  8
1
  6
SLD-Сплошная
100
AcDbLine
 10
1426.3938707055
 20
865.7292289255
 30
0.0
 11
1426.3938707055
 21
865.6585182475
 31
0.0
  0
LINE
  5
139
330
1F
100
AcDbEntity
  8
1
  6
SLD-Сплошная
100
AcDbLine
 10
1426.3938707055
 20
470.7292289255
 30
0.0
 11
1426.3938707055
 21
470.7999396035
 31
0.0
  0
ELLIPSE
  5
13A
330
1F
100
AcDbEntity
  8
1
  6
SLD-Сплошная
100
AcDbEllipse
 10
1601.3938707055
 20
849.1585182474
 30
0.0
 11
0.0
 21
1.999999999999886
 31
0.0
210
0.0
220
0.0
230
1.0
 40
0.5
 41
1.570796326794897
 42
3.141592653589793
  0
ELLIPSE
  5
13B
330
1F
100
AcDbEntity
  8
1
  6
SLD-Сплошная
100
AcDbEllipse
 10
1601.3938707055
 20
487.2999396036
 30
0.0
 11
0.0
 21
1.999999999999886
 31
0.0
210
0.0
220
0.0
230
1.0
 40
0.5
 41
0.0
 42
1.570796326794953
  0
ARC
  5
13C
330
1F
100
AcDbEntity
  8
1
  6
SLD-Сплошная
100
AcDbCircle
 10
1601.3938707055
 20
487.2292289255
 30
0.0
 40
1.0
100
AcDbArc
 50
90.0
 51
180.0
  0
ARC
  5
13D
330
1F
100
AcDbEntity
  8
1
  6
SLD-Сплошная
100
AcDbCircle
 10
1601.3938707055
 20
487.2292289255
 30
0.0
 40
2.000000000000079
100
AcDbArc
 50
90.0
 51
98.7004774906
  0
ARC
  5
13E
330
1F
100
AcDbEntity
  8
1
  6
SLD-Сплошная
100
AcDbCircle
 10
1601.3938707055
 20
849.2292289255
 30
0.0
 40
2.0
100
AcDbArc
 50
261.2995225094
 51
270.0
  0
ARC
  5
13F
330
1F
100
AcDbEntity
  8
1
  6
SLD-Сплошная
100
AcDbCircle
 10
1601.3938707055
 20
849.2292289255
 30
0.0
 40
1.0
100
AcDbArc
 50
180.0
 51
270.0
  0
LINE
  5
140
330
1F
100
AcDbEntity
  8
1
  6
SLD-Сплошная
100
AcDbLine
 10
1601.3938707055
 20
847.1585182475
 30
0.0
 11
1607.4938707055
 21
847.1585182475
 31
0.0
  0
LINE
  5
141
330
1F
100
AcDbEntity
  8
1
  6
SLD-Сплошная
100
AcDbLine
 10
1601.3938707055
 20
489.2999396036
 30
0.0
 11
1607.4938707055
 21
489.2999396036
 31
0.0
  0
LINE
  5
142
330
1F
100
AcDbEntity
  8
1
  6
SLD-Сплошная
100
AcDbLine
 10
1607.4938707055
 20
488.2292289255
 30
0.0
 11
1601.3938707055
 21
488.2292289255
 31
0.0
  0
LINE
  5
143
330
1F
100
AcDbEntity
  8
1
  6
SLD-Сплошная
100
AcDbLine
 10
1607.4938707055
 20
489.2292289255
 30
0.0
 11
1601.3938707055
 21
489.2292289255
 31
0.0
  0
LINE
  5
144
330
1F
100
AcDbEntity
  8
1
  6
SLD-Сплошная
100
AcDbLine
 10
1607.4938707055
 20
848.2292289255
 30
0.0
 11
1601.3938707055
 21
848.2292289255
 31
0.0
  0
LINE
  5
145
330
1F
100
AcDbEntity
  8
1
  6
SLD-Сплошная
100
AcDbLine
 10
1607.4938707055
 20
847.2292289255
 30
0.0
 11
1601.3938707055
 21
847.2292289255
 31
0.0
  0
LINE
  5
146
330
1F
100
AcDbEntity
  8
1
  6
SLD-Сплошная
100
AcDbLine
 10
1600.3938707055
 20
672.0053185888
 30
0.0
 11
1600.5214428222
 21
671.7128838287
 31
0.0
  0
ELLIPSE
  5
147
330
1F
100
AcDbEntity
  8
1
  6
SLD-Сплошная
100
AcDbEllipse
 10
1596.8363872324
 20
669.7034170773
 30
0.0
 11
-2.273736754432321E-13
 21
4.58393935390643
 31
-6.346567715809215E-11
210
-7.678146254339348E-25
220
1.384522618171349E-11
230
1.0
 40
0.894427191
 41
4.718019941382515
 42
5.166174585903249
  0
LINE
  5
148
330
1F
100
AcDbEntity
  8
1
  6
SLD-Сплошная
100
AcDbLine
 10
1600.9363872324
 20
666.7292289255
 30
0.0
 11
1600.9363872324
 21
669.7292289255
 31
0.0
  0
ELLIPSE
  5
149
330
1F
100
AcDbEntity
  8
1
  6
SLD-Сплошная
100
AcDbEllipse
 10
1596.8363872324
 20
666.7550407737
 30
0.0
 11
-2.273736754432321E-13
 21
4.58393935390643
 31
6.400568963726982E-11
210
1.161521632205861E-24
220
-1.396303150972628E-11
230
1.0
 40
0.894427191
 41
4.258603374866176
 42
4.70675801938695
  0
LINE
  5
14A
330
1F
100
AcDbEntity
  8
1
  6
SLD-Сплошная
100
AcDbLine
 10
1600.5214428222
 20
664.7455740224
 30
0.0
 11
1600.3938707055
 21
664.4531392623
 31
0.0
  0
LINE
  5
14B
330
1F
100
AcDbEntity
  8
1
  6
SLD-Сплошная
100
AcDbLine
 10
1600.5214428222
 20
676.7292289244
 30
0.0
 11
1600.3938707055
 21
676.7292289244
 31
0.0
  0
LINE
  5
14C
330
1F
100
AcDbEntity
  8
1
  6
SLD-Сплошная
100
AcDbLine
 10
1600.3938707055
 20
659.7292289266
 30
0.0
 11
1600.5214428222
 21
659.7292289266
 31
0.0
  0
LINE
  5
14D
330
1F
100
AcDbEntity
  8
1
  6
SLD-Сплошная
100
AcDbLine
 10
1600.9363872324
 20
666.7292289255
 30
0.0
 11
1600.9363872324
 21
660.7580795195
 31
0.0
  0
LINE
  5
14E
330
1F
100
AcDbEntity
  8
1
  6
SLD-Сплошная
100
AcDbLine
 10
1600.8247664971
 20
659.7292289266
 30
0.0
 11
1600.5214428222
 21
659.7292289266
 31
0.0
  0
LINE
  5
14F
330
1F
100
AcDbEntity
  8
1
  6
SLD-Сплошная
100
AcDbLine
 10
1600.9363872324
 20
675.7003783315
 30
0.0
 11
1600.9363872324
 21
669.7292289255
 31
0.0
  0
LINE
  5
150
330
1F
100
AcDbEntity
  8
1
  6
SLD-Сплошная
100
AcDbLine
 10
1600.5214428222
 20
676.7292289244
 30
0.0
 11
1600.8247664971
 21
676.7292289244
 31
0.0
  0
LINE
  5
151
330
1F
100
AcDbEntity
  8
1
  6
SLD-Сплошная
100
AcDbLine
 10
1627.4938707055
 20
654.2292289255
 30
0.0
 11
1627.4938707055
 21
682.2292289255
 31
0.0
  0
LINE
  5
152
330
1F
100
AcDbEntity
  8
1
  6
SLD-Сплошная
100
AcDbLine
 10
1630.4938707055
 20
657.2292289255
 30
0.0
 11
1630.4938707055
 21
679.2292289255
 31
0.0
  0
LINE
  5
153
330
1F
100
AcDbEntity
  8
1
  6
SLD-Сплошная
100
AcDbLine
 10
1635.0982928108
 20
945.7365227138
 30
0.0
 11
1635.0982928107
 21
1267.8123617036
 31
0.0
  0
LINE
  5
154
330
1F
100
AcDbEntity
  8
1
  6
SLD-Сплошная
100
AcDbLine
 10
1634.410390929
 20
1269.0037934455
 30
0.0
 11
1215.4924987962
 21
1510.8399449464
 31
0.0
  0
LINE
  5
155
330
1F
100
AcDbEntity
  8
1
  6
SLD-Сплошная
100
AcDbLine
 10
1203.1295035087
 20
1180.092042502
 30
0.0
 11
1621.456934143
 21
938.5967571686
 31
0.0
  0
LINE
  5
156
330
1F
100
AcDbEntity
  8
1
  6
SLD-Сплошная
100
AcDbLine
 10
1202.4880300211
 20
1502.5969098453
 30
0.0
 11
1202.4880300211
 21
1181.2030469819
 31
0.0
  0
LINE
  5
157
330
1F
100
AcDbEntity
  8
1
  6
SLD-Сплошная
100
AcDbLine
 10
1764.5346202055
 20
1017.8821446243
 30
0.0
 11
1764.5346202055
 21
1341.232306131
 31
0.0
  0
LINE
  5
158
330
1F
100
AcDbEntity
  8
1
  6
SLD-Сплошная
100
AcDbLine
 10
1763.6380720119
 20
1342.7850558531
 30
0.0
 11
1342.2024304247
 21
1586.0746731763
 31
0.0
  0
LINE
  5
159
330
1F
100
AcDbEntity
  8
1
  6
SLD-Сплошная
100
AcDbLine
 10
1643.5334929176
 20
946.7553573946
 30
0.0
 11
1763.3880923287
 21
1015.9459448716
 31
0.0
  0
LINE
  5
15A
330
1F
100
AcDbEntity
  8
1
  6
SLD-Сплошная
100
AcDbLine
 10
1635.0982928108
 20
950.4704131704
 30
0.0
 11
1641.4983029865
 21
946.7757659387
 31
0.0
  0
LINE
  5
15B
330
1F
100
AcDbEntity
  8
1
  6
SLD-Сплошная
100
AcDbLine
 10
1219.0979325978
 20
1515.0864069087
 30
0.0
 11
1219.0979325978
 21
1508.7585723161
 31
0.0
  0
LINE
  5
15C
330
1F
100
AcDbEntity
  8
1
  6
SLD-Сплошная
100
AcDbLine
 10
1339.9526132763
 20
1586.049919151
 30
0.0
 11
1220.0980138652
 21
1516.859331674
 31
0.0
  0
LINE
  5
15D
330
1F
100
AcDbEntity
  8
1
  6
SLD-Сплошная
100
AcDbLine
 10
1229.6539246501
 20
1324.7554080653
 30
0.0
 11
1229.6539246501
 21
1322.3061837299
 31
0.0
  0
LINE
  5
15E
330
1F
100
AcDbEntity
  8
1
  6
SLD-Сплошная
100
AcDbLine
 10
1237.4308350711
 20
1308.8347200938
 30
0.0
 11
1239.5518106404
 21
1307.6099088921
 31
0.0
  0
LINE
  5
15F
330
1F
100
AcDbEntity
  8
1
  6
SLD-Сплошная
100
AcDbLine
 10
1233.2610952395
 20
1331.5734394118
 30
0.0
 11
1232.5539884583
 21
1331.1652353559
 31
0.0
  0
LINE
  5
160
330
1F
100
AcDbEntity
  8
1
  6
SLD-Сплошная
100
AcDbLine
 10
1246.5528507152
 20
1306.9158672093
 30
0.0
 11
1247.2599574964
 21
1307.3240712652
 31
0.0
  0
LINE
  5
161
330
1F
100
AcDbEntity
  8
1
  6
SLD-Сплошная
100
AcDbLine
 10
1241.3875136242
 20
1314.7359089815
 30
0.0
 11
1243.0113600511
 21
1315.6733355701
 31
0.0
  0
LINE
  5
162
330
1F
100
AcDbEntity
  8
1
  6
SLD-Сплошная
100
AcDbLine
 10
1238.082247153
 20
1322.426648983
 30
0.0
 11
1236.3851908782
 21
1321.4469592488
 31
0.0
  0
LINE
  5
163
330
1F
100
AcDbEntity
  8
1
  6
SLD-Сплошная
100
AcDbLine
 10
1637.8766386681
 20
995.7478061077
 30
0.0
 11
1639.2908522305
 21
996.5642142195
 31
0.0
  0
LINE
  5
164
330
1F
100
AcDbEntity
  8
1
  6
SLD-Сплошная
100
AcDbLine
 10
1635.6409991146
 20
1198.0392206928
 30
0.0
 11
1635.9238418271
 21
1198.2025023152
 31
0.0
  0
LINE
  5
165
330
1F
100
AcDbEntity
  8
1
  6
SLD-Сплошная
100
AcDbLine
 10
1636.8767199355
 20
1200.3085884249
 30
0.0
 11
1636.8767199355
 21
1200.3902292361
 31
0.0
  0
LINE
  5
166
330
1F
100
AcDbEntity
  8
1
  6
SLD-Сплошная
100
AcDbLine
 10
1635.287445724
 20
1018.1961400499
 30
0.0
 11
1635.5702884365
 21
1018.3594216723
 31
0.0
  0
LINE
  5
167
330
1F
100
AcDbEntity
  8
1
  6
SLD-Сплошная
100
AcDbLine
 10
1636.5231665449
 20
1020.465507782
 30
0.0
 11
1636.5231665449
 21
1021.788854557
 31
0.0
  0
LINE
  5
168
330
1F
100
AcDbEntity
  8
1
  6
SLD-Сплошная
100
AcDbLine
 10
1636.5231665449
 20
1021.3343119437
 30
0.0
 11
1636.5781665175
 21
1021.3660627521
 31
0.0
  0
LINE
  5
169
330
1F
100
AcDbEntity
  8
1
  6
SLD-Сплошная
100
AcDbLine
 10
1638.2301920587
 20
1175.5908867506
 30
0.0
 11
1639.2908522305
 21
1176.2031928345
 31
0.0
  0
ELLIPSE
  5
16A
330
1F
100
AcDbEntity
  8
1
  6
SLD-Сплошная
100
AcDbEllipse
 10
1622.0981882087
 20
1261.1015580156
 30
0.0
 11
2.691140751009016
 21
0.8754882017481124
 31
0.0
210
0.0
220
0.0
230
1.0
 40
0.2496252376
 41
3.845959967500387
 42
5.416756294295078
  0
ELLIPSE
  5
16B
330
1F
100
AcDbEntity
  8
1
  6
SLD-Сплошная
100
AcDbEllipse
 10
1622.0981882087
 20
941.344176081
 30
0.0
 11
2.34649690741935
 21
-1.886933551485299
 31
0.0
210
0.0
220
0.0
230
1.0
 40
0.7078398481
 41
4.444461987434845
 42
6.015258314229739
  0
ELLIPSE
  5
16C
330
1F
100
AcDbEntity
  8
1
  6
SLD-Сплошная
100
AcDbEllipse
 10
1622.0981882087
 20
1261.1015580156
 30
0.0
 11
1.698791117367364
 21
0.8238102184845958
 31
0.0
210
0.0
220
0.0
230
1.0
 40
0.0778085159
 41
3.889276317776523
 42
5.460072644557303
  0
LINE
  5
16D
330
1F
100
AcDbEntity
  8
1
  6
SLD-Сплошная
100
AcDbLine
 10
1620.1889998995
 20
1259.9994070646
 30
0.0
 11
1620.8961066807
 21
1260.4076111205
 31
0.0
  0
ELLIPSE
  5
16E
330
1F
100
AcDbEntity
  8
1
  6
SLD-Сплошная
100
AcDbEllipse
 10
1622.0981882087
 20
1261.1015580155
 30
0.0
 11
1.562801634033804
 21
1.059350639200602
 31
0.0
210
0.0
220
0.0
230
1.0
 40
0.0779476132
 41
0.8230997739055675
 42
2.393896100701341
  0
ELLIPSE
  5
16F
330
1F
100
AcDbEntity
  8
1
  6
SLD-Сплошная
100
AcDbEllipse
 10
1622.0981882087
 20
1261.1015580155
 30
0.0
 11
2.103726216599853
 21
1.892910169520746
 31
0.0
210
0.0
220
0.0
230
1.0
 40
0.2497537726
 41
0.8663954412340956
 42
2.437191768026759
  0
ELLIPSE
  5
170
330
1F
100
AcDbEntity
  8
1
  6
SLD-Сплошная
100
AcDbEllipse
 10
1205.1880300211
 20
1501.7786693808
 30
0.0
 11
-0.4612130826678822
 21
2.975579473082689
 31
0.0
210
0.0
220
0.0
230
1.0
 40
0.7078581484
 41
0.2677802285250856
 42
1.838576555308768
  0
LINE
  5
171
330
1F
100
AcDbEntity
  8
1
  6
SLD-Сплошная
100
AcDbLine
 10
1634.790754931
 20
945.3099702207
 30
0.0
 11
1624.0073765179
 21
939.084858368
 31
0.0
  0
LINE
  5
172
330
1F
100
AcDbEntity
  8
1
  6
SLD-Сплошная
100
AcDbLine
 10
1634.790754931
 20
1267.3816856793
 30
0.0
 11
1624.0073765179
 21
1261.1565738267
 31
0.0
  0
LINE
  5
173
330
1F
100
AcDbEntity
  8
1
  6
SLD-Сплошная
100
AcDbLine
 10
1634.0836481498
 20
1267.7898897352
 30
0.0
 11
1623.3002697367
 21
1261.5647778826
 31
0.0
  0
LINE
  5
174
330
1F
100
AcDbEntity
  8
1
  6
SLD-Сплошная
100
AcDbLine
 10
1634.790754931
 20
1267.3816856793
 30
0.0
 11
1634.0836481498
 21
1267.7898897352
 31
0.0
  0
LINE
  5
175
330
1F
100
AcDbEntity
  8
1
  6
SLD-Сплошная
100
AcDbLine
 10
1623.1002697366
 20
1261.9111880431
 30
0.0
 11
1633.8836481497
 21
1268.1362998958
 31
0.0
  0
LINE
  5
176
330
1F
100
AcDbEntity
  8
1
  6
SLD-Сплошная
100
AcDbLine
 10
1623.1002697366
 20
1262.727728855
 30
0.0
 11
1633.8836481497
 21
1268.9528407077
 31
0.0
  0
LINE
  5
177
330
1F
100
AcDbEntity
  8
1
  6
SLD-Сплошная
100
AcDbLine
 10
1633.8836481497
 20
1268.9528407077
 30
0.0
 11
1633.8836481497
 21
1268.1362998958
 31
0.0
  0
LINE
  5
178
330
1F
100
AcDbEntity
  8
1
  6
SLD-Сплошная
100
AcDbLine
 10
1204.1859484931
 20
1504.5618189255
 30
0.0
 11
1214.9693269062
 21
1510.7869307782
 31
0.0
  0
LWPOLYLINE
  5
179
330
1F
100
AcDbEntity
  8
1
  6
SLD-Сплошная
100
AcDbPolyline
 90
       17
 70
   128
 43
0.0
 10
1579.3182279469
 20
994.2931918451
 10
1579.3451405963
 20
994.4338938236
 10
1579.4217813375
 20
994.5221025178
 10
1579.5364823125
 20
994.5443889535
 10
1579.6717813375
 20
994.4973602231
 10
1579.8070803625
 20
994.3881760243
 10
1579.9217813375
 20
994.2334586617
 10
1579.9984220787
 20
994.0567624513
 10
1580.0253347281
 20
993.8849877892
 10
1579.9984220787
 20
993.7442858107
 10
1579.9217813375
 20
993.6560771165
 10
1579.8070803625
 20
993.6337906808
 10
1579.6717813375
 20
993.6808194112
 10
1579.5364823125
 20
993.79000361
 10
1579.4217813375
 20
993.9447209726
 10
1579.3451405963
 20
994.121417183
 10
1579.3182279469
 20
994.2931918451
  0
LWPOLYLINE
  5
17A
330
1F
100
AcDbEntity
  8
1
  6
SLD-Сплошная
100
AcDbPolyline
 90
       17
 70
   128
 43
0.0
 10
1580.0253347281
 20
1252.728425157
 10
1579.9984220787
 20
1252.5877231785
 10
1579.9217813375
 20
1252.4995144843
 10
1579.8070803625
 20
1252.4772280486
 10
1579.6717813375
 20
1252.524256779
 10
1579.5364823125
 20
1252.6334409778
 10
1579.4217813375
 20
1252.7881583404
 10
1579.3451405963
 20
1252.9648545508
 10
1579.3182279469
 20
1253.1366292129
 10
1579.3451405963
 20
1253.2773311914
 10
1579.4217813375
 20
1253.3655398856
 10
1579.5364823125
 20
1253.3878263213
 10
1579.6717813375
 20
1253.3407975909
 10
1579.8070803625
 20
1253.2316133921
 10
1579.9217813375
 20
1253.0768960295
 10
1579.9984220787
 20
1252.9001998191
 10
1580.0253347281
 20
1252.728425157
  0
LWPOLYLINE
  5
17B
330
1F
100
AcDbEntity
  8
1
  6
SLD-Сплошная
100
AcDbPolyline
 90
       17
 70
   128
 43
0.0
 10
1239.9069729773
 20
1432.7437598126
 10
1239.9338856267
 20
1432.8844617911
 10
1240.0105263679
 20
1432.9726704853
 10
1240.1252273429
 20
1432.9949569211
 10
1240.2605263679
 20
1432.9479281906
 10
1240.395825393
 20
1432.8387439918
 10
1240.5105263679
 20
1432.6840266292
 10
1240.5871671091
 20
1432.5073304188
 10
1240.6140797585
 20
1432.3355557567
 10
1240.5871671091
 20
1432.1948537782
 10
1240.5105263679
 20
1432.106645084
 10
1240.395825393
 20
1432.0843586483
 10
1240.2605263679
 20
1432.1313873787
 10
1240.1252273429
 20
1432.2405715775
 10
1240.0105263679
 20
1432.3952889401
 10
1239.9338856267
 20
1432.5719851506
 10
1239.9069729773
 20
1432.7437598126
  0
LWPOLYLINE
  5
17C
330
1F
100
AcDbEntity
  8
1
  6
SLD-Сплошная
100
AcDbPolyline
 90
       17
 70
   128
 43
0.0
 10
1240.6140797585
 20
1206.1537508644
 10
1240.5871671092
 20
1206.0130488859
 10
1240.5105263679
 20
1205.9248401917
 10
1240.395825393
 20
1205.9025537559
 10
1240.2605263679
 20
1205.9495824864
 10
1240.1252273429
 20
1206.0587666851
 10
1240.0105263679
 20
1206.2134840477
 10
1239.9338856267
 20
1206.3901802582
 10
1239.9069729773
 20
1206.5619549203
 10
1239.9338856267
 20
1206.7026568988
 10
1240.0105263679
 20
1206.7908655929
 10
1240.1252273429
 20
1206.8131520287
 10
1240.2605263679
 20
1206.7661232982
 10
1240.395825393
 20
1206.6569390995
 10
1240.5105263679
 20
1206.5022217369
 10
1240.5871671092
 20
1206.3255255264
 10
1240.6140797585
 20
1206.1537508644
  0
LINE
  5
17D
330
1F
100
AcDbEntity
  8
1
  6
SLD-Сплошная
100
AcDbLine
 10
1623.0569225301
 20
1261.8860182634
 30
0.0
 11
1623.1003329401
 21
1261.9110785597
 31
0.0
  0
SPLINE
  5
17E
330
1F
100
AcDbEntity
  8
1
  6
SLD-Сплошная
100
AcDbSpline
210
0.0
220
0.0
230
1.0
 70
     8
 71
     3
 72
     9
 73
     5
 74
     0
 42
0.00000001
 43
0.00000001
 40
0.0
 40
0.0
 40
0.0
 40
0.0
 40
0.5000000000000057
 40
0.9999999999999999
 40
0.9999999999999999
 40
0.9999999999999999
 40
0.9999999999999999
 10
1634.790754931008
 20
945.3099702206517
 30
0.0
 10
1634.878932468807
 20
945.3759795658565
 30
0.0
 10
1635.055287544406
 20
945.5079982562659
 30
0.0
 10
1635.083957721977
 20
945.6753314185269
 30
0.0
 10
1635.098292810762
 20
945.7589979996575
 30
0.0
  0
SPLINE
  5
17F
330
1F
100
AcDbEntity
  8
1
  6
SLD-Сплошная
100
AcDbSpline
210
0.0
220
0.0
230
1.0
 70
     8
 71
     3
 72
    11
 73
     7
 74
     0
 42
0.00000001
 43
0.00000001
 40
0.0
 40
0.0
 40
0.0
 40
0.0
 40
0.2499999999999746
 40
0.499999999999993
 40
0.7499999999999902
 40
1.0
 40
1.0
 40
1.0
 40
1.0
 10
1634.790754930981
 20
1268.198087156134
 30
0.0
 10
1634.876884598954
 20
1268.138882317695
 30
0.0
 10
1635.049143934899
 20
1268.020472640818
 30
0.0
 10
1635.122867248653
 20
1267.789886417725
 30
0.0
 10
1635.049143934899
 20
1267.559300194631
 30
0.0
 10
1634.876884598954
 20
1267.440890517754
 30
0.0
 10
1634.790754930981
 20
1267.381685679315
 30
0.0
  0
SPLINE
  5
180
330
1F
100
AcDbEntity
  8
1
  6
SLD-Сплошная
100
AcDbSpline
210
0.0
220
0.0
230
1.0
 70
     8
 71
     3
 72
    12
 73
     8
 74
     0
 42
0.00000001
 43
0.00000001
 40
0.0
 40
0.0
 40
0.0
 40
0.0
 40
0.0768349934723356
 40
0.1653464171664203
 40
0.3824629150552422
 40
0.6595554638265793
 40
1.0
 40
1.0
 40
1.0
 40
1.0
 10
1633.305830690489
 20
1267.340719303654
 30
0.0
 10
1633.342885696286
 20
1267.365916550812
 30
0.0
 10
1633.4226268685
 20
1267.420140210523
 30
0.0
 10
1633.626696967671
 20
1267.562566989518
 30
0.0
 10
1633.95439518276
 20
1267.772599896687
 30
0.0
 10
1634.41320160324
 20
1268.017382630202
 30
0.0
 10
1634.656581200807
 20
1268.133868942382
 30
0.0
 10
1634.790754930981
 20
1268.198087156134
 30
0.0
  0
SPLINE
  5
181
330
1F
100
AcDbEntity
  8
1
  6
SLD-Сплошная
100
AcDbSpline
210
0.0
220
0.0
230
1.0
 70
     8
 71
     3
 72
    11
 73
     7
 74
     0
 42
0.00000001
 43
0.00000001
 40
0.0
 40
0.0
 40
0.0
 40
0.0
 40
0.2499999999995566
 40
0.5000000000000121
 40
0.7500000000003015
 40
1.0
 40
1.0
 40
1.0
 40
1.0
 10
1634.083648149794
 20
1267.789883100223
 30
0.0
 10
1634.087749562555
 20
1267.790304063519
 30
0.0
 10
1634.095952388076
 20
1267.791145990111
 30
0.0
 10
1634.099463022064
 20
1267.789886417724
 30
0.0
 10
1634.095952388076
 20
1267.788626845338
 30
0.0
 10
1634.087749562555
 20
1267.78946877193
 30
0.0
 10
1634.083648149794
 20
1267.789889735226
 30
0.0
  0
LINE
  5
182
330
1F
100
AcDbEntity
  8
1
  6
SLD-Сплошная
100
AcDbLine
 10
1634.0836481498
 20
1267.7898831002
 30
0.0
 11
1634.790754931
 21
1268.1980871561
 31
0.0
  0
SPLINE
  5
183
330
1F
100
AcDbEntity
  8
1
  6
SLD-Сплошная
100
AcDbSpline
210
0.0
220
0.0
230
1.0
 70
     8
 71
     3
 72
    11
 73
     7
 74
     0
 42
0.00000001
 43
0.00000001
 40
0.0
 40
0.0
 40
0.0
 40
0.0
 40
0.2499999999999985
 40
0.500000000000005
 40
0.750000000000007
 40
1.0
 40
1.0
 40
1.0
 40
1.0
 10
1633.883648149715
 20
1268.952840707686
 30
0.0
 10
1633.977991912835
 20
1268.997818316034
 30
0.0
 10
1634.166679439076
 20
1269.087773532727
 30
0.0
 10
1634.403257699144
 20
1269.036286715367
 30
0.0
 10
1634.56611264546
 20
1268.857107373258
 30
0.0
 10
1634.582540835754
 20
1268.648700668892
 30
0.0
 10
1634.590754930902
 20
1268.544497316709
 30
0.0
  0
LINE
  5
184
330
1F
100
AcDbEntity
  8
1
  6
SLD-Сплошная
100
AcDbLine
 10
1633.8836481497
 20
1268.1362932608
 30
0.0
 11
1634.5907549309
 21
1268.5444973167
 31
0.0
  0
SPLINE
  5
185
330
1F
100
AcDbEntity
  8
1
  6
SLD-Сплошная
100
AcDbSpline
210
0.0
220
0.0
230
1.0
 70
     8
 71
     3
 72
    11
 73
     7
 74
     0
 42
0.00000001
 43
0.00000001
 40
0.0
 40
0.0
 40
0.0
 40
0.0
 40
0.249999999999904
 40
0.500000000000125
 40
0.7500000000001888
 40
1.0
 40
1.0
 40
1.0
 40
1.0
 10
1633.883648149715
 20
1268.136299895801
 30
0.0
 10
1633.885334730573
 20
1268.140061544039
 30
0.0
 10
1633.88870789229
 20
1268.147584840516
 30
0.0
 10
1633.89155558585
 20
1268.149992659402
 30
0.0
 10
1633.890892645423
 20
1268.146319881872
 30
0.0
 10
1633.886062981618
 20
1268.139635467822
 30
0.0
 10
1633.883648149715
 20
1268.136293260797
 30
0.0
  0
SPLINE
  5
186
330
1F
100
AcDbEntity
  8
1
  6
SLD-Сплошная
100
AcDbSpline
210
0.0
220
0.0
230
1.0
 70
     8
 71
     3
 72
    13
 73
     9
 74
     0
 42
0.00000001
 43
0.00000001
 40
0.0
 40
0.0
 40
0.0
 40
0.0
 40
0.3220863391065377
 40
0.49960339538872
 40
0.6100900277566098
 40
0.7293891021647382
 40
0.8589773926228178
 40
1.0
 40
1.0
 40
1.0
 40
1.0
 10
1634.590754930902
 20
1268.544497316709
 30
0.0
 10
1634.472147662633
 20
1268.471126051784
 30
0.0
 10
1634.288170303926
 20
1268.35731640316
 30
0.0
 10
1633.976596471765
 20
1268.194260375177
 30
0.0
 10
1633.760756898768
 20
1268.053076684293
 30
0.0
 10
1633.561918989392
 20
1267.921685849141
 30
0.0
 10
1633.339058152825
 20
1267.78626100735
 30
0.0
 10
1633.185732701411
 20
1267.72109120084
 30
0.0
 10
1633.10583069041
 20
1267.687129464229
 30
0.0
  0
SPLINE
  5
187
330
1F
100
AcDbEntity
  8
1
  6
SLD-Сплошная
100
AcDbSpline
210
0.0
220
0.0
230
1.0
 70
     8
 71
     3
 72
     9
 73
     5
 74
     0
 42
0.00000001
 43
0.00000001
 40
0.0
 40
0.0
 40
0.0
 40
0.0
 40
0.4999489266172055
 40
1.0
 40
1.0
 40
1.0
 40
1.0
 10
1215.511953566644
 20
1510.82869509818
 30
0.0
 10
1215.432337163251
 20
1510.858119356685
 30
0.0
 10
1215.273088089687
 20
1510.916973885494
 30
0.0
 10
1215.07058752897
 20
1510.830281432397
 30
0.0
 10
1214.969326906222
 20
1510.786930778171
 30
0.0
  0
ELLIPSE
  5
188
330
1F
100
AcDbEntity
  8
1
  6
SLD-Сплошная
100
AcDbEllipse
 10
1622.0981882087
 20
941.3441760811
 30
0.0
 11
-0.4612130826678822
 21
2.975579473082803
 31
0.0
210
0.0
220
0.0
230
1.0
 40
0.7078581484
 41
1.838576555330889
 42
3.409372882114921
  0
ELLIPSE
  5
189
330
1F
100
AcDbEntity
  8
1
  6
SLD-Сплошная
100
AcDbEllipse
 10
1205.1880300211
 20
1182.0212874464
 30
0.0
 11
2.103726216600081
 21
1.892910169520746
 31
0.0
210
0.0
220
0.0
230
1.0
 40
0.2497537726
 41
2.437191768039898
 42
3.222671195489315
  0
LINE
  5
18A
330
1F
100
AcDbEntity
  8
1
  6
SLD-Сплошная
100
AcDbLine
 10
1623.1002697366
 20
938.5610265364
 30
0.0
 11
1624.0074502271
 21
939.0847306861
 31
0.0
  0
ELLIPSE
  5
18B
330
1F
100
AcDbEntity
  8
1
  6
SLD-Сплошная
100
AcDbEllipse
 10
1205.1880300211
 20
1501.7786693809
 30
0.0
 11
2.34649690741935
 21
-1.886933551485299
 31
0.0
210
0.0
220
0.0
230
1.0
 40
0.7078398481
 41
2.873665660639864
 42
4.444461987434756
  0
ELLIPSE
  5
18C
330
1F
100
AcDbEntity
  8
1
  6
SLD-Сплошная
100
AcDbEllipse
 10
1205.1880300211
 20
1182.0212874464
 30
0.0
 11
2.691140751008788
 21
0.8754882017481123
 31
0.0
210
0.0
220
0.0
230
1.0
 40
0.2496252376
 41
3.060561804101135
 42
3.845959967500415
  0
LINE
  5
18D
330
1F
100
AcDbEntity
  8
1
  6
SLD-Сплошная
100
AcDbLine
 10
1204.1667858069
 20
1504.550586309
 30
0.0
 11
1203.2788417119
 21
1504.0379870939
 31
0.0
  0
ELLIPSE
  5
18E
330
1F
100
AcDbEntity
  8
1
  6
SLD-Сплошная
100
AcDbEllipse
 10
1642.533574185
 20
948.4874551194
 30
0.0
 11
1.999729017872369
 21
-0.05915489557617093
 31
0.0
210
0.0
220
0.0
230
0.9999999999999999
 40
0.5565381198
 41
3.943452537645527
 42
5.51424886444152
  0
ELLIPSE
  5
18F
330
1F
100
AcDbEntity
  8
1
  6
SLD-Сплошная
100
AcDbEllipse
 10
1642.533574185
 20
1271.8376166261
 30
0.0
 11
1.999640479969685
 21
0.0634847250362327
 31
0.0
210
0.0
220
0.0
230
1.0
 40
0.5973141191
 41
3.908029519506293
 42
5.478825846300368
  0
ELLIPSE
  5
190
330
1F
100
AcDbEntity
  8
1
  6
SLD-Сплошная
100
AcDbEllipse
 10
1642.533574185
 20
1271.8376166261
 30
0.0
 11
0.9991743340499397
 21
0.06590621735017521
 31
0.0
210
0.0
220
0.0
230
1.0
 40
0.616454653
 41
3.886351437173238
 42
5.457147763967266
  0
LINE
  5
191
330
1F
100
AcDbEntity
  8
1
  6
SLD-Сплошная
100
AcDbLine
 10
1643.9477877474
 20
1271.0212085143
 30
0.0
 11
1643.2406809662
 21
1271.4294125702
 31
0.0
  0
LINE
  5
192
330
1F
100
AcDbEntity
  8
1
  6
SLD-Сплошная
100
AcDbLine
 10
1641.8264674038
 20
1271.3716744157
 30
0.0
 11
1641.1193606226
 21
1270.9634703598
 31
0.0
  0
ELLIPSE
  5
193
330
1F
100
AcDbEntity
  8
1
  6
SLD-Сплошная
100
AcDbEllipse
 10
1642.533574185
 20
1271.8376166261
 30
0.0
 11
1.054720450885043
 21
1.70004609921557
 31
0.0
210
0.0
220
0.0
230
1.0
 40
0.5974079498
 41
0.8042814001591015
 42
2.375077726950285
  0
ELLIPSE
  5
194
330
1F
100
AcDbEntity
  8
1
  6
SLD-Сплошная
100
AcDbEllipse
 10
1221.0979325978
 20
1515.1272339493
 30
0.0
 11
0.9485527510412338
 21
1.761437681474945
 31
0.0
210
0.0
220
0.0
230
1.0
 40
0.5566319546
 41
0.7688525864771639
 42
2.339648913271389
  0
ARC
  5
195
330
1F
100
AcDbEntity
  8
1
  6
SLD-Сплошная
100
AcDbCircle
 10
1760.7319549558
 20
1340.0720742868
 30
0.0
 40
3.073609615128175
100
AcDbArc
 50
2.6054784854
 51
57.3945216601
  0
ARC
  5
196
330
1F
100
AcDbEntity
  8
1
  6
SLD-Сплошная
100
AcDbCircle
 10
1640.8773555446
 20
1270.8814868098
 30
0.0
 40
3.073609615146026
100
AcDbArc
 50
2.6054784857
 51
57.39452166
  0
ARC
  5
197
330
1F
100
AcDbEntity
  8
1
  6
SLD-Сплошная
100
AcDbCircle
 10
1641.7054648648
 20
1271.3595517179
 30
0.0
 40
1.536804807572982
100
AcDbArc
 50
2.6054784857
 51
57.39452166
  0
LINE
  5
198
330
1F
100
AcDbEntity
  8
1
  6
SLD-Сплошная
100
AcDbLine
 10
1642.533574185
 20
1272.654157438
 30
0.0
 11
1642.533574185
 21
1273.4706982499
 31
0.0
  0
ELLIPSE
  5
199
330
1F
100
AcDbEntity
  8
1
  6
SLD-Сплошная
100
AcDbEllipse
 10
1642.533574185
 20
1271.8376166261
 30
0.0
 11
0.5566258153232867
 21
0.832382309830564
 31
0.0
210
0.0
220
0.0
230
1.0
 40
0.6165484624
 41
0.8259634570345735
 42
2.396759783822672
  0
LINE
  5
19A
330
1F
100
AcDbEntity
  8
1
  6
SLD-Сплошная
100
AcDbLine
 10
1641.7764674038
 20
1271.4582769558
 30
0.0
 11
1641.0693606226
 21
1271.0500728999
 31
0.0
  0
LWPOLYLINE
  5
19B
330
1F
100
AcDbEntity
  8
1
  6
SLD-Сплошная
100
AcDbPolyline
 90
       17
 70
   128
 43
0.0
 10
1706.1731844918
 20
1014.2132843734
 10
1706.0378854667
 20
1014.166255643
 10
1705.9231844918
 20
1014.1885420788
 10
1705.8465437506
 20
1014.2767507729
 10
1705.8196311012
 20
1014.4174527514
 10
1705.8465437506
 20
1014.5892274135
 10
1705.9231844918
 20
1014.765923624
 10
1706.0378854667
 20
1014.9206409865
 10
1706.1731844918
 20
1015.0298251853
 10
1706.3084835168
 20
1015.0768539158
 10
1706.4231844918
 20
1015.05456748
 10
1706.499825233
 20
1014.9663587858
 10
1706.5267378824
 20
1014.8256568073
 10
1706.499825233
 20
1014.6538821453
 10
1706.4231844918
 20
1014.4771859348
 10
1706.3084835168
 20
1014.3224685722
 10
1706.1731844918
 20
1014.2132843734
  0
LWPOLYLINE
  5
19C
330
1F
100
AcDbEntity
  8
1
  6
SLD-Сплошная
100
AcDbPolyline
 90
       17
 70
   128
 43
0.0
 10
1670.8178454324
 20
1001.9684896967
 10
1670.6825464074
 20
1001.9214609663
 10
1670.5678454324
 20
1001.9437474021
 10
1670.4912046912
 20
1002.0319560962
 10
1670.4642920419
 20
1002.1726580747
 10
1670.4912046912
 20
1002.3444327368
 10
1670.5678454324
 20
1002.5211289473
 10
1670.6825464074
 20
1002.6758463098
 10
1670.8178454324
 20
1002.7850305086
 10
1670.9531444575
 20
1002.8320592391
 10
1671.0678454324
 20
1002.8097728033
 10
1671.1444861737
 20
1002.7215641091
 10
1671.171398823
 20
1002.5808621306
 10
1671.1444861737
 20
1002.4090874686
 10
1671.0678454324
 20
1002.2323912581
 10
1670.9531444575
 20
1002.0776738955
 10
1670.8178454324
 20
1001.9684896967
  0
LWPOLYLINE
  5
19D
330
1F
100
AcDbEntity
  8
1
  6
SLD-Сплошная
100
AcDbPolyline
 90
       17
 70
   128
 43
0.0
 10
1670.8178454324
 20
1247.7472740743
 10
1670.9531444575
 20
1247.7943028048
 10
1671.0678454324
 20
1247.772016369
 10
1671.1444861737
 20
1247.6838076749
 10
1671.171398823
 20
1247.5431056964
 10
1671.1444861737
 20
1247.3713310343
 10
1671.0678454324
 20
1247.1946348238
 10
1670.9531444575
 20
1247.0399174612
 10
1670.8178454324
 20
1246.9307332625
 10
1670.6825464074
 20
1246.883704532
 10
1670.5678454324
 20
1246.9059909678
 10
1670.4912046912
 20
1246.994199662
 10
1670.4642920419
 20
1247.1349016404
 10
1670.4912046912
 20
1247.3066763025
 10
1670.5678454324
 20
1247.483372513
 10
1670.6825464074
 20
1247.6380898756
 10
1670.8178454324
 20
1247.7472740743
  0
LINE
  5
19E
330
1F
100
AcDbEntity
  8
1
  6
SLD-Сплошная
100
AcDbLine
 10
1636.5231665449
 20
1021.2444997973
 30
0.0
 11
1636.6020806632
 21
1021.4310271012
 31
0.0
  0
LINE
  5
19F
330
1F
100
AcDbEntity
  8
1
  6
SLD-Сплошная
100
AcDbLine
 10
1641.1193606226
 20
947.728785162
 30
0.0
 11
1635.0982928108
 21
958.1575804973
 31
0.0
  0
LINE
  5
1A0
330
1F
100
AcDbEntity
  8
1
  6
SLD-Сплошная
100
AcDbLine
 10
1641.1193606226
 20
1270.9634703598
 30
0.0
 11
1635.0982928107
 21
1267.4864519473
 31
0.0
  0
LINE
  5
1A1
330
1F
100
AcDbEntity
  8
1
  6
SLD-Сплошная
100
AcDbLine
 10
1635.0982928107
 20
1267.6019282563
 30
0.0
 11
1641.0693606226
 21
1271.0500728999
 31
0.0
  0
LINE
  5
1A2
330
1F
100
AcDbEntity
  8
1
  6
SLD-Сплошная
100
AcDbLine
 10
1219.7337190354
 20
1514.2819614519
 30
0.0
 11
1224.8346967881
 21
1505.4468088419
 31
0.0
  0
LINE
  5
1A3
330
1F
100
AcDbEntity
  8
1
  6
SLD-Сплошная
100
AcDbLine
 10
1635.0982928107
 20
1267.6017955562
 30
0.0
 11
1641.7764674038
 21
1271.4582769558
 31
0.0
  0
LINE
  5
1A4
330
1F
100
AcDbEntity
  8
1
  6
SLD-Сплошная
100
AcDbLine
 10
1635.4219798077
 20
1267.7885708571
 30
0.0
 11
1635.4218534008
 21
1267.7886438303
 31
0.0
  0
LINE
  5
1A5
330
1F
100
AcDbEntity
  8
1
  6
SLD-Сплошная
100
AcDbLine
 10
1634.7148730265
 20
1267.3803668012
 30
0.0
 11
1635.4219798077
 21
1267.7885708571
 31
0.0
  0
LINE
  5
1A6
330
1F
100
AcDbEntity
  8
1
  6
SLD-Сплошная
100
AcDbLine
 10
1635.0982928107
 20
1267.6016495861
 30
0.0
 11
1635.4219798077
 21
1267.7885708571
 31
0.0
  0
LINE
  5
1A7
330
1F
100
AcDbEntity
  8
1
  6
SLD-Сплошная
100
AcDbLine
 10
1626.9272249989
 20
1263.7000112923
 30
0.0
 11
1622.397061377
 21
1261.0848034996
 31
0.0
  0
ELLIPSE
  5
1A8
330
1F
100
AcDbEntity
  8
1
  6
SLD-Сплошная
100
AcDbEllipse
 10
1628.3414385613
 20
1263.7001439924
 30
0.0
 11
1.580529840018926
 21
0.1927335649925226
 31
0.0
210
0.0
220
0.0
230
0.9999999999999999
 40
0.2276700627
 41
2.329626122918375
 42
2.650189545573359
  0
LWPOLYLINE
  5
1A9
330
1F
100
AcDbEntity
  8
1
  6
SLD-Сплошная
100
AcDbPolyline
 90
        3
 70
   128
 43
0.0
 10
1763.5194614467
 20
1341.3551022819
 10
1763.4889015374
 20
1341.444466872
 10
1763.4190633253
 20
1341.5655953051
  0
LINE
  5
1AA
330
1F
100
AcDbEntity
  8
1
  6
SLD-Сплошная
100
AcDbLine
 10
1764.3420254052
 20
1341.7877880879
 30
0.0
 11
1763.4190633253
 21
1341.5655953051
 31
0.0
  0
LWPOLYLINE
  5
1AB
330
1F
100
AcDbEntity
  8
1
  6
SLD-Сплошная
100
AcDbPolyline
 90
        9
 70
   128
 43
0.0
 10
1763.8023871585
 20
1340.2117959913
 10
1764.0430839549
 20
1340.3729278362
 10
1764.2401272757
 20
1340.5527380613
 10
1764.3892344317
 20
1340.7473185346
 10
1764.4871646149
 20
1340.9524400965
 10
1764.5317893362
 20
1341.1636444793
 10
1764.5221386882
 20
1341.3763412065
 10
1764.4584224253
 20
1341.585907366
 10
1764.3420254052
 20
1341.7877880879
  0
ELLIPSE
  5
1AC
330
1F
100
AcDbEntity
  8
1
  6
SLD-Сплошная
100
AcDbEllipse
 10
1762.0346202055
 20
1340.7662975707
 30
0.0
 11
2.493080340725328
 21
0.9065865826364644
 31
0.0
210
0.0
220
0.0
230
0.9999999999999999
 40
0.2050299685
 41
0.3206699639403874
 42
0.7109785221995883
  0
ARC
  5
1AD
330
1F
100
AcDbEntity
  8
1
  6
SLD-Сплошная
100
AcDbCircle
 10
1763.3005178705
 20
1017.9946838518
 30
0.0
 40
1.239223002906163
100
AcDbArc
 50
293.8903166263
 51
354.7895424159
  0
ELLIPSE
  5
1AE
330
1F
100
AcDbEntity
  8
1
  6
SLD-Сплошная
100
AcDbEllipse
 10
1761.9846202056
 20
1340.8529001107
 30
0.0
 11
2.031629674499754
 21
1.705837126210326
 31
0.0
210
0.0
220
0.0
230
0.9999999999999998
 40
0.2051618287
 41
5.572177975264855
 42
5.962486533549388
  0
LWPOLYLINE
  5
1AF
330
1F
100
AcDbEntity
  8
1
  6
SLD-Сплошная
100
AcDbPolyline
 90
        9
 70
   128
 43
0.0
 10
1764.0229898115
 20
1342.3403739439
 10
1763.9063355422
 20
1342.5421498948
 10
1763.7566843889
 20
1342.7021469399
 10
1763.5772889831
 20
1342.8168875818
 10
1763.372048441
 20
1342.8838779604
 10
1763.1454236161
 20
1342.9016620559
 10
1762.9023401445
 20
1342.8698533353
 10
1762.6480813869
 20
1342.7891431535
 10
1762.3881735961
 20
1342.6612857269
  0
ARC
  5
1B0
330
1F
100
AcDbEntity
  8
1
  6
SLD-Сплошная
100
AcDbCircle
 10
1341.6827664496
 20
1584.9495602594
 30
0.0
 40
1.23932631812049
100
AcDbArc
 50
65.2088626954
 51
126.1015957337
  0
LINE
  5
1B1
330
1F
100
AcDbEntity
  8
1
  6
SLD-Сплошная
100
AcDbLine
 10
1764.0229898115
 20
1342.3403739439
 30
0.0
 11
1763.3690633254
 21
1341.6521978452
 31
0.0
  0
LWPOLYLINE
  5
1B2
330
1F
100
AcDbEntity
  8
1
  6
SLD-Сплошная
100
AcDbPolyline
 90
        3
 70
   128
 43
0.0
 10
1763.3690633254
 20
1341.6521978452
 10
1763.2990707638
 20
1341.7732634157
 10
1763.2370332133
 20
1341.8443460029
  0
ELLIPSE
  5
1B3
330
1F
100
AcDbEntity
  8
1
  6
SLD-Сплошная
100
AcDbEllipse
 10
1761.9846202056
 20
1340.8529001107
 30
0.0
 11
1.500000002573415
 21
0.8660723250047797
 31
0.0
210
0.0
220
0.0
230
1.0
 40
0.0000703729
 41
5.497746511050233
 42
5.888055068336178
  0
LINE
  5
1B4
330
1F
100
AcDbEntity
  8
1
  6
SLD-Сплошная
100
AcDbLine
 10
1763.8023871585
 20
1341.7868077104
 30
0.0
 11
1763.4192883545
 21
1341.5656494784
 31
0.0
  0
LINE
  5
1B5
330
1F
100
AcDbEntity
  8
1
  6
SLD-Сплошная
100
AcDbLine
 10
1763.7523871585
 20
1341.8734102505
 30
0.0
 11
1763.3629758436
 21
1341.6486078834
 31
0.0
  0
LINE
  5
1B6
330
1F
100
AcDbEntity
  8
1
  6
SLD-Сплошная
100
AcDbLine
 10
1763.3630082734
 20
1341.6485535315
 30
0.0
 11
1763.7523871585
 21
1341.8734102505
 31
0.0
  0
LINE
  5
1B7
330
1F
100
AcDbEntity
  8
1
  6
SLD-Сплошная
100
AcDbLine
 10
1635.0982928108
 20
958.0421041884
 30
0.0
 11
1641.0693606226
 21
947.6999113931
 31
0.0
  0
LINE
  5
1B8
330
1F
100
AcDbEntity
  8
1
  6
SLD-Сплошная
100
AcDbLine
 10
1641.1193687497
 20
947.7287804704
 30
0.0
 11
1641.0693606226
 21
947.6999113931
 31
0.0
  0
ARC
  5
1B9
330
1F
100
AcDbEntity
  8
1
  6
SLD-Сплошная
100
AcDbCircle
 10
1643.0856390125
 20
947.5311926137
 30
0.0
 40
0.8734183948572206
100
AcDbArc
 50
230.7967147643
 51
9.2140369905
  0
LINE
  5
1BA
330
1F
100
AcDbEntity
  8
1
  6
SLD-Сплошная
100
AcDbLine
 10
1642.533574185
 20
947.3737067357
 30
0.0
 11
1642.533574185
 21
946.8543734956
 31
0.0
  0
ARC
  5
1BB
330
1F
100
AcDbEntity
  8
1
  6
SLD-Сплошная
100
AcDbCircle
 10
1762.8223833917
 20
1016.7534609926
 30
0.0
 40
0.9859558241810719
100
AcDbArc
 50
305.0133316417
 51
6.2988487517
  0
ELLIPSE
  5
1BC
330
1F
100
AcDbEntity
  8
1
  6
SLD-Сплошная
100
AcDbEllipse
 10
1642.533574185
 20
948.4874551194
 30
0.0
 11
1.054720450885043
 21
1.700046099215683
 31
0.0
210
0.0
220
0.0
230
1.0
 40
0.5974079498
 41
2.375077726950636
 42
3.945874053745354
  0
LINE
  5
1BD
330
1F
100
AcDbEntity
  8
1
  6
SLD-Сплошная
100
AcDbLine
 10
1224.7346967881
 20
1505.504537613
 30
0.0
 11
1219.6837190354
 21
1514.253087683
 31
0.0
  0
LINE
  5
1BE
330
1F
100
AcDbEntity
  8
1
  6
SLD-Сплошная
100
AcDbLine
 10
1219.7337230986
 20
1514.2819544142
 30
0.0
 11
1219.6837190354
 21
1514.253087683
 31
0.0
  0
ELLIPSE
  5
1BF
330
1F
100
AcDbEntity
  8
1
  6
SLD-Сплошная
100
AcDbEllipse
 10
1221.0979325978
 20
1515.1272339493
 30
0.0
 11
1.99964047996923
 21
0.06348472506988401
 31
0.0
210
0.0
220
0.0
230
1.0
 40
0.5973141191
 41
2.337233192698921
 42
3.908029519493828
  0
LINE
  5
1C0
330
1F
100
AcDbEntity
  8
1
  6
SLD-Сплошная
100
AcDbLine
 10
1220.1332095491
 20
1515.6841567109
 30
0.0
 11
1219.6837190354
 21
1515.9436420611
 31
0.0
  0
ARC
  5
1C1
330
1F
100
AcDbEntity
  8
1
  6
SLD-Сплошная
100
AcDbCircle
 10
1340.3666918992
 20
1585.1331403918
 30
0.0
 40
1.005954471803631
100
AcDbArc
 50
54.3824225248
 51
114.3071190461
  0
ARC
  5
1C2
330
1F
100
AcDbEntity
  8
1
  6
SLD-Сплошная
100
AcDbCircle
 10
1220.5458677703
 20
1516.0834964549
 30
0.0
 40
0.8734183948610663
100
AcDbArc
 50
50.7967147649
 51
189.2140369902
  0
LWPOLYLINE
  5
1C3
330
1F
100
AcDbEntity
  8
1
  6
SLD-Сплошная
100
AcDbPolyline
 90
       21
 70
   128
 43
0.0
 10
1239.5534195867
 20
1330.472122649
 10
1241.1414102494
 20
1329.4073593057
 10
1242.688272788
 20
1328.0741010801
 10
1244.1539442753
 20
1326.5068786598
 10
1245.5004645898
 20
1324.7462822823
 10
1246.6929595625
 20
1322.837910469
 10
1247.7005442001
 20
1320.8311890475
 10
1248.4971225896
 20
1318.7780910484
 10
1249.0620637694
 20
1316.7317906315
 10
1249.3807360594
 20
1314.7452859027
 10
1249.4448860149
 20
1312.8700262911
 10
1249.2528521856
 20
1311.1545800356
 10
1248.8096081469
 20
1309.643376293
 10
1248.1266336865
 20
1308.3755544465
 10
1247.2216174842
 20
1307.3839504161
 10
1246.1179989844
 20
1306.6942462251
 10
1244.8443613263
 20
1306.3243048499
 10
1243.4336910564
 20
1306.2837075778
 10
1241.9225237936
 20
1306.5735058568
 10
1240.3499979763
 20
1307.1861940636
 10
1239.5518106404
 20
1307.6099088921
  0
LWPOLYLINE
  5
1C4
330
1F
100
AcDbEntity
  8
1
  6
SLD-Сплошная
100
AcDbPolyline
 90
       11
 70
   128
 43
0.0
 10
1229.6539246501
 20
1324.7554080653
 10
1229.7261031141
 20
1326.0916639876
 10
1230.0447754041
 20
1327.7102375219
 10
1230.6097165838
 20
1329.1042707366
 10
1231.4062949734
 20
1330.2376589037
 10
1232.413879611
 20
1331.0810478649
 10
1233.6063745837
 20
1331.6125942893
 10
1234.9528948982
 20
1331.8185314035
 10
1236.4185663855
 20
1331.6935255446
 10
1237.9654289241
 20
1331.2408142986
 10
1239.5534195867
 20
1330.472122649
  0
LWPOLYLINE
  5
1C5
330
1F
100
AcDbEntity
  8
1
  6
SLD-Сплошная
100
AcDbPolyline
 90
       36
 70
   128
 43
0.0
 10
1237.4320992432
 20
1326.7978880456
 10
1238.8209459457
 20
1325.8517802957
 10
1240.1651539725
 20
1324.6473939984
 10
1241.4215193715
 20
1323.2234391202
 10
1242.5496615251
 20
1321.6256827425
 10
1243.5133210162
 20
1319.90547807
 10
1244.2815250358
 20
1318.1181138961
 10
1244.8295828748
 20
1316.3210375762
 10
1245.1398795032
 20
1314.5720086217
 10
1245.202441732
 20
1312.9272422624
 10
1245.0152587598
 20
1311.4396026423
 10
1244.5843468012
 20
1310.156903723
 10
1243.9235557213
 20
1309.120372503
 10
1243.054123889
 20
1308.3633239486
 10
1242.0039955587
 20
1307.9100902234
 10
1240.8069227191
 20
1307.775238632
 10
1239.5013802762
 20
1307.9631034157
 10
1238.1293294382
 20
1308.4676464458
 10
1236.7348690481
 20
1309.2726512939
 10
1235.3628182102
 20
1310.3522444421
 10
1234.0572757672
 20
1311.6717268783
 10
1232.8602029276
 20
1313.1886893512
 10
1231.8100745974
 20
1314.8543754388
 10
1230.940642765
 20
1316.6152486197
 10
1230.2798516851
 20
1318.4147129811
 10
1229.8489397266
 20
1320.1949322577
 10
1229.6617567544
 20
1321.8986887373
 10
1229.7243189832
 20
1323.4712222848
 10
1230.0346156116
 20
1324.8619903779
 10
1230.5826734505
 20
1326.026292586
 10
1231.3508774702
 20
1326.926707278
 10
1232.3145369613
 20
1327.5342943849
 10
1233.4426791149
 20
1327.8295255571
 10
1234.6990445139
 20
1327.8029118218
 10
1236.0432525406
 20
1327.4553085664
 10
1237.4320992432
 20
1326.7978880456
  0
LWPOLYLINE
  5
1C6
330
1F
100
AcDbEntity
  8
1
  6
SLD-Сплошная
100
AcDbPolyline
 90
       16
 70
   128
 43
0.0
 10
1240.2605263679
 20
1330.8803267049
 10
1241.8485170306
 20
1329.8155633616
 10
1243.3953795692
 20
1328.482305136
 10
1244.8610510565
 20
1326.9150827157
 10
1246.207571371
 20
1325.1544863382
 10
1247.4000663437
 20
1323.2461145249
 10
1248.4076509813
 20
1321.2393931034
 10
1249.2042293708
 20
1319.1862951043
 10
1249.7691705505
 20
1317.1399946874
 10
1250.0878428406
 20
1315.1534899587
 10
1250.151992796
 20
1313.278230347
 10
1249.9599589668
 20
1311.5627840915
 10
1249.516714928
 20
1310.0515803489
 10
1248.8337404677
 20
1308.7837585024
 10
1247.9287242654
 20
1307.792154472
 10
1247.2599574964
 20
1307.3240712652
  0
ARC
  5
1C7
330
1F
100
AcDbEntity
  8
1
  6
SLD-Сплошная
100
AcDbCircle
 10
1236.1506324528
 20
1325.0649684075
 30
0.0
 40
7.121068748505954
100
AcDbArc
 50
54.7499671021
 51
113.9395744688
  0
LWPOLYLINE
  5
1C8
330
1F
100
AcDbEntity
  8
1
  6
SLD-Сплошная
100
AcDbPolyline
 90
       30
 70
   128
 43
0.0
 10
1237.4320992432
 20
1324.3482656099
 10
1238.6481556914
 20
1323.4935290018
 10
1239.8073506917
 20
1322.3733146007
 10
1240.8554815741
 20
1321.0400023871
 10
1241.7435389035
 20
1319.5559365582
 10
1242.4299981063
 20
1317.9905103826
 10
1242.882761113
 20
1316.4169214487
 10
1243.0806572286
 20
1314.9087490258
 10
1243.0144330507
 20
1313.5365135805
 10
1242.6871851484
 20
1312.3643793169
 10
1242.1142152697
 20
1311.4471539304
 10
1241.3223148494
 20
1310.8277258608
 10
1240.348512271
 20
1310.5350588761
 10
1239.2383414608
 20
1310.5828377593
 10
1238.043712772
 20
1310.9688284228
 10
1236.8204857144
 20
1311.6749823723
 10
1235.6258570256
 20
1312.6682806339
 10
1234.5156862154
 20
1313.9022776848
 10
1233.541883637
 20
1315.3192731945
 10
1232.7499832167
 20
1316.8530100277
 10
1232.177013338
 20
1318.4317723549
 10
1231.8497654356
 20
1319.9817390042
 10
1231.7835412578
 20
1321.4304352578
 10
1231.9814373734
 20
1322.710121689
 10
1232.4342003801
 20
1323.7609615825
 10
1233.1206595828
 20
1324.5338188328
 10
1234.0087169123
 20
1324.9925554939
 10
1235.0568477947
 20
1325.1157215494
 10
1236.216042795
 20
1324.8975578913
 10
1237.4320992432
 20
1324.3482656099
  0
LWPOLYLINE
  5
1C9
330
1F
100
AcDbEntity
  8
1
  6
SLD-Сплошная
100
AcDbPolyline
 90
       12
 70
   128
 43
0.0
 10
1242.8560541431
 20
1312.8296760615
 10
1241.8620893904
 20
1313.1731303247
 10
1240.6388623328
 20
1313.8792842742
 10
1239.444233644
 20
1314.8725825358
 10
1238.3340628338
 20
1316.1065795867
 10
1237.3602602554
 20
1317.5235750964
 10
1236.5683598351
 20
1319.0573119296
 10
1235.9953899564
 20
1320.6360742568
 10
1235.668142054
 20
1322.1860409061
 10
1235.6019178762
 20
1323.6347371597
 10
1235.7998139918
 20
1324.9144235909
 10
1235.8265209616
 20
1325.0065040701
  0
LINE
  5
1CA
330
1F
100
AcDbEntity
  8
1
  6
SLD-Сплошная
100
AcDbLine
 10
1238.2286531287
 20
1322.4718472349
 30
0.0
 11
1239.6031068935
 21
1322.5947441131
 31
0.0
  0
LINE
  5
1CB
330
1F
100
AcDbEntity
  8
1
  6
SLD-Сплошная
100
AcDbLine
 10
1238.2286531287
 20
1322.4718472349
 30
0.0
 11
1238.082247153
 21
1322.426648983
 31
0.0
  0
LWPOLYLINE
  5
1CC
330
1F
100
AcDbEntity
  8
1
  6
SLD-Сплошная
100
AcDbPolyline
 90
        9
 70
   128
 43
0.0
 10
1240.5340008673
 20
1315.0989147855
 10
1240.704541556
 20
1314.9188909694
 10
1240.8875542579
 20
1314.785417032
 10
1241.0705669598
 20
1314.7075890015
 10
1241.2411076485
 20
1314.6907107296
 10
1241.3875542579
 20
1314.7359324426
 10
1241.4999266936
 20
1314.8401723556
 10
1241.5705669598
 20
1314.9963266907
 10
1241.5946610391
 20
1315.193753788
  0
LINE
  5
1CD
330
1F
100
AcDbEntity
  8
1
  6
SLD-Сплошная
100
AcDbLine
 10
1236.5315968539
 20
1320.077867328
 30
0.0
 11
1240.5340008673
 21
1315.0989147855
 31
0.0
  0
LWPOLYLINE
  5
1CE
330
1F
100
AcDbEntity
  8
1
  6
SLD-Сплошная
100
AcDbPolyline
 90
        9
 70
   128
 43
0.0
 10
1236.5315968539
 20
1321.4921575007
 10
1236.3851502445
 20
1321.4469357876
 10
1236.2727778088
 20
1321.3426958747
 10
1236.2021375426
 20
1321.1865415396
 10
1236.1780434633
 20
1320.9891144423
 10
1236.2021375426
 20
1320.7638689132
 10
1236.2727778088
 20
1320.5261550628
 10
1236.3851502445
 20
1320.2921726972
 10
1236.5315968539
 20
1320.077867328
  0
LINE
  5
1CF
330
1F
100
AcDbEntity
  8
1
  6
SLD-Сплошная
100
AcDbLine
 10
1240.2715391523
 20
1321.8265646994
 30
0.0
 11
1236.5315968539
 21
1321.4921575007
 31
0.0
  0
LINE
  5
1D0
330
1F
100
AcDbEntity
  8
1
  6
SLD-Сплошная
100
AcDbLine
 10
1241.5946610391
 20
1315.193753788
 30
0.0
 11
1241.5946610391
 21
1319.8363159693
 31
0.0
  0
ARC
  5
1D1
330
1F
100
AcDbEntity
  8
1
  6
SLD-Сплошная
100
AcDbCircle
 10
1635.5317908476
 20
1042.6102754259
 30
0.0
 40
2.60331618751144
100
AcDbArc
 50
37.9787348638
 51
58.8941006488
  0
ARC
  5
1D2
330
1F
100
AcDbEntity
  8
1
  6
SLD-Сплошная
100
AcDbCircle
 10
1636.6347148575
 20
1043.0664675936
 30
0.0
 40
3.073609615145283
100
AcDbArc
 50
2.6054784857
 51
57.39452166
  0
SPLINE
  5
1D3
330
1F
100
AcDbEntity
  8
1
  6
SLD-Сплошная
100
AcDbSpline
210
0.0
220
0.0
230
1.0
 70
     8
 71
     3
 72
    12
 73
     8
 74
     0
 42
0.00000001
 43
0.00000001
 40
0.0
 40
0.0
 40
0.0
 40
0.0
 40
0.0038128522419034
 40
0.1589839410707429
 40
0.5234324970000782
 40
0.7821768889117863
 40
1.0
 40
1.0
 40
1.0
 40
1.0
 10
1638.998040279044
 20
1042.797985242163
 30
0.0
 10
1638.996821040929
 20
1042.799271523082
 30
0.0
 10
1638.945982647973
 20
1042.852905390005
 30
0.0
 10
1638.760323919903
 20
1043.039904315616
 30
0.0
 10
1638.406600285841
 20
1043.371548216735
 30
0.0
 10
1637.945596445561
 20
1043.801548981309
 30
0.0
 10
1637.697310116714
 20
1044.08343480588
 30
0.0
 10
1637.583826716671
 20
1044.212275414803
 30
0.0
  0
SPLINE
  5
1D4
330
1F
100
AcDbEntity
  8
1
  6
SLD-Сплошная
100
AcDbSpline
210
0.0
220
0.0
230
1.0
 70
     8
 71
     3
 72
    12
 73
     8
 74
     0
 42
0.00000001
 43
0.00000001
 40
0.0
 40
0.0
 40
0.0
 40
0.0
 40
0.2178231110881949
 40
0.4765675029999367
 40
0.8410160589292636
 40
0.9961871477581012
 40
1.0
 40
1.0
 40
1.0
 40
1.0
 10
1637.583826716668
 20
995.6574096039238
 30
0.0
 10
1637.69731011671
 20
995.6868252762874
 30
0.0
 10
1637.945596445558
 20
995.7511827884783
 30
0.0
 10
1638.406600285838
 20
996.1292090749155
 30
0.0
 10
1638.7603239199
 20
996.5977974593249
 30
0.0
 10
1638.945982647969
 20
996.9568815658473
 30
0.0
 10
1638.996821040927
 20
997.0690106273288
 30
0.0
 10
1638.998040279041
 20
997.0716997765633
 30
0.0
  0
LWPOLYLINE
  5
1D5
330
1F
100
AcDbEntity
  8
1
  6
SLD-Сплошная
100
AcDbPolyline
 90
        9
 70
   128
 43
0.0
 10
1635.0667601422
 20
1024.7154845283
 10
1635.4608572131
 20
1024.1690563706
 10
1636.0851895486
 20
1023.0366816689
 10
1636.506011696
 20
1021.8559055111
 10
1636.6921132019
 20
1020.7143006633
 10
1636.6296917689
 20
1019.6965347345
 10
1636.3233769091
 20
1018.8780907677
 10
1635.7958865944
 20
1018.3196690078
 10
1635.0982928108
 20
1018.0642175804
  0
ARC
  5
1D6
330
1F
100
AcDbEntity
  8
1
  6
SLD-Сплошная
100
AcDbCircle
 10
1637.5333428357
 20
996.8835216314
 30
0.0
 40
1.227150897866706
100
AcDbArc
 50
237.6507184097
 51
272.3577620584
  0
LINE
  5
1D7
330
1F
100
AcDbEntity
  8
1
  6
SLD-Сплошная
100
AcDbLine
 10
1635.0982928108
 20
996.8734863346
 30
0.0
 11
1636.8767199355
 21
995.8468222087
 31
0.0
  0
LINE
  5
1D8
330
1F
100
AcDbEntity
  8
1
  6
SLD-Сплошная
100
AcDbLine
 10
1635.0982928108
 20
1045.8659350478
 30
0.0
 11
1636.8767199355
 21
1044.8392709218
 31
0.0
  0
LINE
  5
1D9
330
1F
100
AcDbEntity
  8
1
  6
SLD-Сплошная
100
AcDbLine
 10
1635.0982928108
 20
1047.4987512714
 30
0.0
 11
1638.2909334979
 21
1045.6556790337
 31
0.0
  0
LINE
  5
1DA
330
1F
100
AcDbEntity
  8
1
  6
SLD-Сплошная
100
AcDbLine
 10
1639.7051470602
 20
997.4799038325
 30
0.0
 11
1639.7051470602
 21
1043.2061892981
 31
0.0
  0
LINE
  5
1DB
330
1F
100
AcDbEntity
  8
1
  6
SLD-Сплошная
100
AcDbLine
 10
1636.5231665449
 20
1021.2444997973
 30
0.0
 11
1636.6020806451
 21
1021.431027048
 31
0.0
  0
ARC
  5
1DC
330
1F
100
AcDbEntity
  8
1
  6
SLD-Сплошная
100
AcDbCircle
 10
1638.7537759482
 20
997.3587757754
 30
0.0
 40
0.9590510929979136
100
AcDbArc
 50
304.0563508377
 51
7.2558295556
  0
LWPOLYLINE
  5
1DD
330
1F
100
AcDbEntity
  8
1
  6
SLD-Сплошная
100
AcDbPolyline
 90
        9
 70
   128
 43
0.0
 10
1635.0576977948
 20
1197.8416354384
 10
1635.6411860296
 20
1198.039328614
 10
1636.1960047496
 20
1198.5748924516
 10
1636.5195430352
 20
1199.3898051389
 10
1636.5855897386
 20
1200.4180472965
 10
1636.3887941488
 20
1201.57631686
 10
1635.9450994739
 20
1202.7707777178
 10
1635.2904512178
 20
1203.9046617551
 10
1635.0982928107
 20
1204.1695726324
  0
LWPOLYLINE
  5
1DE
330
1F
100
AcDbEntity
  8
1
  6
SLD-Сплошная
100
AcDbPolyline
 90
        8
 70
   128
 43
0.0
 10
1635.924028742
 20
1198.2026102364
 10
1636.4788474621
 20
1198.7381740739
 10
1636.8023857477
 20
1199.5530867612
 10
1636.8684324511
 20
1200.5813289188
 10
1636.6716368612
 20
1201.7395984823
 10
1636.2279421864
 20
1202.9340593402
 10
1635.5732939303
 20
1204.0679433775
 10
1635.0982928107
 20
1204.6833776527
  0
LWPOLYLINE
  5
1DF
330
1F
100
AcDbEntity
  8
1
  6
SLD-Сплошная
100
AcDbPolyline
 90
        8
 70
   128
 43
0.0
 10
1635.0982928108
 20
1018.1035872821
 10
1635.287632639
 20
1018.1962479712
 10
1635.842451359
 20
1018.7318118087
 10
1636.1659896446
 20
1019.546724496
 10
1636.232036348
 20
1020.5749666536
 10
1636.0352407582
 20
1021.7332362171
 10
1635.5915460833
 20
1022.927697075
 10
1635.0982928108
 20
1023.8194259885
  0
LWPOLYLINE
  5
1E0
330
1F
100
AcDbEntity
  8
1
  6
SLD-Сплошная
100
AcDbPolyline
 90
        8
 70
   128
 43
0.0
 10
1635.5704753514
 20
1018.3595295935
 10
1636.1252940715
 20
1018.8950934311
 10
1636.4488323571
 20
1019.7100061183
 10
1636.5148790605
 20
1020.738248276
 10
1636.3180834707
 20
1021.8965178395
 10
1635.8743887958
 20
1023.0909786973
 10
1635.2197405397
 20
1024.2248627346
 10
1635.0982928108
 20
1024.3950228703
  0
ARC
  5
1E1
330
1F
100
AcDbEntity
  8
1
  6
SLD-Сплошная
100
AcDbCircle
 10
1635.8853442382
 20
1222.4533560688
 30
0.0
 40
2.603316187502583
100
AcDbArc
 50
37.9787348637
 51
58.8941006488
  0
ARC
  5
1E2
330
1F
100
AcDbEntity
  8
1
  6
SLD-Сплошная
100
AcDbCircle
 10
1636.6347148575
 20
1222.7054462085
 30
0.0
 40
3.073609615144344
100
AcDbArc
 50
2.6054784857
 51
57.39452166
  0
SPLINE
  5
1E3
330
1F
100
AcDbEntity
  8
1
  6
SLD-Сплошная
100
AcDbSpline
210
0.0
220
0.0
230
1.0
 70
     8
 71
     3
 72
    12
 73
     8
 74
     0
 42
0.00000001
 43
0.00000001
 40
0.0
 40
0.0
 40
0.0
 40
0.0
 40
0.0038128522418986
 40
0.1589839410707355
 40
0.5234324970000603
 40
0.7821768889117922
 40
1.0
 40
1.0
 40
1.0
 40
1.0
 10
1639.351593669634
 20
1222.641065885039
 30
0.0
 10
1639.35037443152
 20
1222.642352165957
 30
0.0
 10
1639.299536038563
 20
1222.695986032881
 30
0.0
 10
1639.113877310493
 20
1222.882984958491
 30
0.0
 10
1638.760153676431
 20
1223.214628859611
 30
0.0
 10
1638.299149836151
 20
1223.644629624184
 30
0.0
 10
1638.050863507304
 20
1223.926515448755
 30
0.0
 10
1637.937380107261
 20
1224.055356057678
 30
0.0
  0
SPLINE
  5
1E4
330
1F
100
AcDbEntity
  8
1
  6
SLD-Сплошная
100
AcDbSpline
210
0.0
220
0.0
230
1.0
 70
     8
 71
     3
 72
    12
 73
     8
 74
     0
 42
0.00000001
 43
0.00000001
 40
0.0
 40
0.0
 40
0.0
 40
0.0
 40
0.2178231110882055
 40
0.4765675029999165
 40
0.8410160589292652
 40
0.9961871477580967
 40
1.0
 40
1.0
 40
1.0
 40
1.0
 10
1637.937380107265
 20
1175.500490246795
 30
0.0
 10
1638.050863507307
 20
1175.529905919158
 30
0.0
 10
1638.299149836155
 20
1175.594263431349
 30
0.0
 10
1638.760153676434
 20
1175.972289717787
 30
0.0
 10
1639.113877310496
 20
1176.440878102196
 30
0.0
 10
1639.299536038566
 20
1176.799962208719
 30
0.0
 10
1639.350374431523
 20
1176.9120912702
 30
0.0
 10
1639.351593669637
 20
1176.914780419435
 30
0.0
  0
ARC
  5
1E5
330
1F
100
AcDbEntity
  8
1
  6
SLD-Сплошная
100
AcDbCircle
 10
1637.8868962263
 20
1176.7266022743
 30
0.0
 40
1.227150897873124
100
AcDbArc
 50
237.6507184098
 51
272.3577620583
  0
LINE
  5
1E6
330
1F
100
AcDbEntity
  8
1
  6
SLD-Сплошная
100
AcDbLine
 10
1635.0982928107
 20
1176.9206690055
 30
0.0
 11
1637.2302733261
 21
1175.6899028516
 31
0.0
  0
LINE
  5
1E7
330
1F
100
AcDbEntity
  8
1
  6
SLD-Сплошная
100
AcDbLine
 10
1635.0982928107
 20
1225.9131177186
 30
0.0
 11
1637.2302733261
 21
1224.6823515647
 31
0.0
  0
LINE
  5
1E8
330
1F
100
AcDbEntity
  8
1
  6
SLD-Сплошная
100
AcDbLine
 10
1635.0982928107
 20
1227.1377298864
 30
0.0
 11
1638.2909334979
 21
1225.2946576486
 31
0.0
  0
LINE
  5
1E9
330
1F
100
AcDbEntity
  8
1
  6
SLD-Сплошная
100
AcDbLine
 10
1639.7051470602
 20
1177.1188824474
 30
0.0
 11
1639.7051470602
 21
1222.845167913
 31
0.0
  0
ARC
  5
1EA
330
1F
100
AcDbEntity
  8
1
  6
SLD-Сплошная
100
AcDbCircle
 10
1638.7537759483
 20
1176.9977543902
 30
0.0
 40
0.9590510929307662
100
AcDbArc
 50
304.0563508352
 51
7.2558295581
  0
ARC
  5
1EB
330
1F
100
AcDbEntity
  8
1
  6
SLD-Сплошная
100
AcDbCircle
 10
1705.4299901583
 20
1015.0505917359
 30
0.0
 40
0.7434844047041895
100
AcDbArc
 50
301.605935055
 51
358.3994410258
  0
LINE
  5
1EC
330
1F
100
AcDbEntity
  8
1
  6
SLD-Сплошная
100
AcDbLine
 10
1579.9418919151
 20
993.944625523
 30
0.0
 11
1580.0253350903
 21
993.8849212301
 31
0.0
  0
ARC
  5
1ED
330
1F
100
AcDbEntity
  8
1
  6
SLD-Сплошная
100
AcDbCircle
 10
1580.442200079
 20
994.5314824645
 30
0.0
 40
0.7711739937947206
100
AcDbArc
 50
182.5359710328
 51
229.5516944667
  0
LINE
  5
1EE
330
1F
100
AcDbEntity
  8
0
  6
SLD-Сплошная
 62
     8
370
    18
100
AcDbLine
 10
1624.0073765179
 20
1261.1565738267
 30
0.0
 11
1624.0073765179
 21
939.084858368
 31
0.0
  0
LINE
  5
1EF
330
1F
100
AcDbEntity
  8
0
  6
SLD-Сплошная
 62
     8
370
    18
100
AcDbLine
 10
1620.1889998995
 20
1259.9994070646
 30
0.0
 11
1620.1889998995
 21
940.2420251301
 31
0.0
  0
LINE
  5
1F0
330
1F
100
AcDbEntity
  8
0
  6
SLD-Сплошная
 62
     8
370
    18
100
AcDbLine
 10
1624.0073765179
 20
1261.1565738267
 30
0.0
 11
1623.3002697367
 21
1261.5647778826
 31
0.0
  0
LINE
  5
1F1
330
1F
100
AcDbEntity
  8
0
  6
SLD-Сплошная
 62
     8
370
    18
100
AcDbLine
 10
1623.1002697366
 20
1262.727728855
 30
0.0
 11
1623.1002697366
 21
1261.9111880431
 31
0.0
  0
LINE
  5
1F2
330
1F
100
AcDbEntity
  8
0
  6
SLD-Сплошная
 62
     8
370
    18
100
AcDbLine
 10
1203.2788417119
 20
1500.6765184299
 30
0.0
 11
1620.1889998995
 21
1259.9994070646
 31
0.0
  0
LINE
  5
1F3
330
1F
100
AcDbEntity
  8
0
  6
SLD-Сплошная
 62
     8
370
    18
100
AcDbLine
 10
1204.1859484931
 20
1504.5618189255
 30
0.0
 11
1623.1002697366
 21
1262.727728855
 31
0.0
  0
LINE
  5
1F4
330
1F
100
AcDbEntity
  8
0
  6
SLD-Сплошная
 62
     8
370
    18
100
AcDbLine
 10
1634.790754931
 20
1267.3816856793
 30
0.0
 11
1634.790754931
 21
945.3099702207
 31
0.0
  0
LINE
  5
1F5
330
1F
100
AcDbEntity
  8
0
  6
SLD-Сплошная
 62
     8
370
    18
100
AcDbLine
 10
1214.9693269062
 20
1510.7869307782
 30
0.0
 11
1633.8836481497
 21
1268.9528407077
 31
0.0
  0
LINE
  5
1F6
330
1F
100
AcDbEntity
  8
0
  6
SLD-Сплошная
 62
     8
370
    18
100
AcDbLine
 10
1203.2788417119
 20
1180.9191364954
 30
0.0
 11
1620.1889998995
 21
940.2420251301
 31
0.0
  0
LINE
  5
1F7
330
1F
100
AcDbEntity
  8
0
  6
SLD-Сплошная
 62
     8
370
    18
100
AcDbLine
 10
1203.2788417119
 20
1500.6765184299
 30
0.0
 11
1203.2788417119
 21
1180.9191364954
 31
0.0
  0
LINE
  5
1F8
330
1F
100
AcDbEntity
  8
0
  6
SLD-Сплошная
 62
     8
370
    18
100
AcDbLine
 10
1623.1002697366
 20
938.5610265364
 30
0.0
 11
1623.1002697366
 21
938.8333439486
 31
0.0
  0
LINE
  5
1F9
330
1F
100
AcDbEntity
  8
0
  6
SLD-Сплошная
 62
     8
370
    18
100
AcDbLine
 10
1203.2788417119
 20
1504.0379870939
 30
0.0
 11
1203.514474108
 21
1503.9019594071
 31
0.0
  0
LINE
  5
1FA
330
1F
100
AcDbEntity
  8
0
  6
SLD-Сплошная
 62
     8
370
    18
100
AcDbLine
 10
1643.9477877474
 20
1271.0212085143
 30
0.0
 11
1643.9477877474
 21
947.6710470075
 31
0.0
  0
LINE
  5
1FB
330
1F
100
AcDbEntity
  8
0
  6
SLD-Сплошная
 62
     8
370
    18
100
AcDbLine
 10
1641.1193606226
 20
947.728785162
 30
0.0
 11
1641.1193606226
 21
1270.9634703598
 31
0.0
  0
LINE
  5
1FC
330
1F
100
AcDbEntity
  8
0
  6
SLD-Сплошная
 62
     8
370
    18
100
AcDbLine
 10
1221.0979325978
 20
1516.7603155731
 30
0.0
 11
1642.533574185
 21
1273.4706982499
 31
0.0
  0
LINE
  5
1FD
330
1F
100
AcDbEntity
  8
0
  6
SLD-Сплошная
 62
     8
370
    18
100
AcDbLine
 10
1641.0693606226
 20
1271.0500728999
 30
0.0
 11
1219.7337190354
 21
1514.2819614519
 31
0.0
  0
LINE
  5
1FE
330
1F
100
AcDbEntity
  8
0
  6
SLD-Сплошная
 62
     8
370
    18
100
AcDbLine
 10
1762.3881735961
 20
1342.6612857269
 30
0.0
 11
1642.533574185
 21
1273.4706982499
 31
0.0
  0
LINE
  5
1FF
330
1F
100
AcDbEntity
  8
0
  6
SLD-Сплошная
 62
     8
370
    18
100
AcDbLine
 10
1763.8023871585
 20
1340.2117959913
 30
0.0
 11
1643.9477877474
 21
1271.0212085143
 31
0.0
  0
LINE
  5
200
330
1F
100
AcDbEntity
  8
0
  6
SLD-Сплошная
 62
     8
370
    18
100
AcDbLine
 10
1763.8023871585
 20
1340.2117959913
 30
0.0
 11
1763.8023871585
 21
1016.8616344845
 31
0.0
  0
LINE
  5
201
330
1F
100
AcDbEntity
  8
0
  6
SLD-Сплошная
 62
     8
370
    18
100
AcDbLine
 10
1763.8023871585
 20
1016.8616344845
 30
0.0
 11
1643.9477877474
 21
947.6710470075
 31
0.0
  0
LINE
  5
202
330
1F
100
AcDbEntity
  8
0
  6
SLD-Сплошная
 62
     8
370
    18
100
AcDbLine
 10
1340.9525320089
 20
1585.95090305
 30
0.0
 11
1221.0979325978
 21
1516.7603155731
 31
0.0
  0
LINE
  5
203
330
1F
100
AcDbEntity
  8
0
  6
SLD-Сплошная
 62
     8
370
    18
100
AcDbLine
 10
1340.9525320089
 20
1585.95090305
 30
0.0
 11
1762.3881735961
 21
1342.6612857269
 31
0.0
  0
LINE
  5
204
330
1F
100
AcDbEntity
  8
0
  6
SLD-Сплошная
 62
     8
370
    18
100
AcDbLine
 10
1628.3774426229
 20
1264.4957674019
 30
0.0
 11
1627.9775365419
 21
1264.7266282684
 31
0.0
  0
LINE
  5
205
330
1F
100
AcDbEntity
  8
0
  6
SLD-Сплошная
 62
     8
370
    18
100
AcDbLine
 10
1626.9272249989
 20
1263.7000112923
 30
0.0
 11
1626.5632080455
 21
1263.9101538065
 31
0.0
  0
LINE
  5
206
330
1F
100
AcDbEntity
  8
0
  6
SLD-Сплошная
 62
     8
370
    18
100
AcDbLine
 10
1626.9272249989
 20
1263.6585745877
 30
0.0
 11
1626.9272249989
 21
1263.7000112923
 31
0.0
  0
LINE
  5
207
330
1F
100
AcDbEntity
  8
0
  6
SLD-Сплошная
 62
     8
370
    18
100
AcDbLine
 10
1641.0693606226
 20
947.6999113931
 30
0.0
 11
1635.0982928108
 21
951.1469354689
 31
0.0
  0
LINE
  5
208
330
1F
100
AcDbEntity
  8
0
  6
SLD-Сплошная
 62
     8
370
    18
100
AcDbLine
 10
1219.6837190354
 20
1514.253087683
 30
0.0
 11
1219.6837190354
 21
1508.4204050037
 31
0.0
  0
LINE
  5
209
330
1F
100
AcDbEntity
  8
0
  6
SLD-Сплошная
 62
     8
370
    18
100
AcDbLine
 10
1241.5946610391
 20
1315.193753788
 30
0.0
 11
1242.9645452151
 21
1315.9845710898
 31
0.0
  0
LINE
  5
20A
330
1F
100
AcDbEntity
  8
0
  6
SLD-Сплошная
 62
     8
370
    18
100
AcDbLine
 10
1238.2286531287
 20
1322.4718472349
 30
0.0
 11
1236.5315968539
 21
1321.4921575007
 31
0.0
  0
LINE
  5
20B
330
1F
100
AcDbEntity
  8
0
  6
SLD-Сплошная
 62
     8
370
    18
100
AcDbLine
 10
1636.8767199355
 20
1044.8392709218
 30
0.0
 11
1638.2909334979
 21
1045.6556790337
 31
0.0
  0
LINE
  5
20C
330
1F
100
AcDbEntity
  8
0
  6
SLD-Сплошная
 62
     8
370
    18
100
AcDbLine
 10
1639.7051470602
 20
1043.2061892981
 30
0.0
 11
1638.998040279
 21
1042.7979852422
 31
0.0
  0
LINE
  5
20D
330
1F
100
AcDbEntity
  8
0
  6
SLD-Сплошная
 62
     8
370
    18
100
AcDbLine
 10
1637.5838267167
 20
1044.2122754148
 30
0.0
 11
1637.5838267167
 21
995.6574096039
 31
0.0
  0
LINE
  5
20E
330
1F
100
AcDbEntity
  8
0
  6
SLD-Сплошная
 62
     8
370
    18
100
AcDbLine
 10
1638.998040279
 20
1042.7979852422
 30
0.0
 11
1638.998040279
 21
997.0716997766
 31
0.0
  0
LINE
  5
20F
330
1F
100
AcDbEntity
  8
0
  6
SLD-Сплошная
 62
     8
370
    18
100
AcDbLine
 10
1638.998040279
 20
997.0716997766
 30
0.0
 11
1639.7051470602
 21
997.4799038325
 31
0.0
  0
LINE
  5
210
330
1F
100
AcDbEntity
  8
0
  6
SLD-Сплошная
 62
     8
370
    18
100
AcDbLine
 10
1637.2302733261
 20
1224.6823515647
 30
0.0
 11
1638.2909334979
 21
1225.2946576486
 31
0.0
  0
LINE
  5
211
330
1F
100
AcDbEntity
  8
0
  6
SLD-Сплошная
 62
     8
370
    18
100
AcDbLine
 10
1639.7051470602
 20
1222.845167913
 30
0.0
 11
1639.3515936696
 21
1222.641065885
 31
0.0
  0
LINE
  5
212
330
1F
100
AcDbEntity
  8
0
  6
SLD-Сплошная
 62
     8
370
    18
100
AcDbLine
 10
1637.9373801073
 20
1224.0553560577
 30
0.0
 11
1637.9373801073
 21
1175.5004902468
 31
0.0
  0
LINE
  5
213
330
1F
100
AcDbEntity
  8
0
  6
SLD-Сплошная
 62
     8
370
    18
100
AcDbLine
 10
1639.3515936696
 20
1222.641065885
 30
0.0
 11
1639.3515936696
 21
1176.9147804194
 31
0.0
  0
LINE
  5
214
330
1F
100
AcDbEntity
  8
0
  6
SLD-Сплошная
 62
     8
370
    18
100
AcDbLine
 10
1639.3515936696
 20
1176.9147804194
 30
0.0
 11
1639.7051470602
 21
1177.1188824474
 31
0.0
  0
LINE
  5
215
330
1F
100
AcDbEntity
  8
1
  6
SLD-Сплошная
100
AcDbLine
 10
495.3857448785
 20
1399.8600778225
 30
0.0
 11
1087.8251094534
 21
1399.8600778225
 31
0.0
  0
LINE
  5
216
330
1F
100
AcDbEntity
  8
1
  6
SLD-Сплошная
100
AcDbLine
 10
507.9554271659
 20
1392.7600778225
 30
0.0
 11
507.9554271659
 21
1393.9254538612
 31
0.0
  0
LINE
  5
217
330
1F
100
AcDbEntity
  8
1
  6
SLD-Сплошная
100
AcDbLine
 10
497.8554271659
 20
1393.9254538612
 30
0.0
 11
497.8554271659
 21
1392.7600778225
 31
0.0
  0
ARC
  5
218
330
1F
100
AcDbEntity
  8
1
  6
SLD-Сплошная
100
AcDbCircle
 10
507.7554271659
 20
1393.9254538612
 30
0.0
 40
0.1999999999999886
100
AcDbArc
 50
0.0
 51
68.1849373759
  0
ARC
  5
219
330
1F
100
AcDbEntity
  8
1
  6
SLD-Сплошная
100
AcDbCircle
 10
498.0554271659
 20
1393.9254538612
 30
0.0
 40
0.2000000000000455
100
AcDbArc
 50
111.8150626241
 51
180.0
  0
ARC
  5
21A
330
1F
100
AcDbEntity
  8
1
  6
SLD-Сплошная
100
AcDbCircle
 10
502.9054271659
 20
1381.8088278225
 30
0.0
 40
13.25125000000025
100
AcDbArc
 50
68.1849373759
 51
90.0
  0
ARC
  5
21B
330
1F
100
AcDbEntity
  8
1
  6
SLD-Сплошная
100
AcDbCircle
 10
502.9054271659
 20
1381.8088278225
 30
0.0
 40
13.25125000000025
100
AcDbArc
 50
90.0
 51
111.8150626241
  0
LWPOLYLINE
  5
21C
330
1F
100
AcDbEntity
  8
1
  6
SLD-Сплошная
100
AcDbPolyline
 90
        3
 70
   128
 43
0.0
 10
1088.005427166
 20
1409.7200457717
 10
1088.0250132294
 20
1409.7704959381
 10
1088.105427166
 20
1410.0178963532
  0
LWPOLYLINE
  5
21D
330
1F
100
AcDbEntity
  8
1
  6
SLD-Сплошная
100
AcDbPolyline
 90
        3
 70
   128
 43
0.0
 10
1088.105427166
 20
1411.5022592917
 10
1088.0250132294
 20
1411.7496597068
 10
1088.005427166
 20
1411.8001098732
  0
LINE
  5
21E
330
1F
100
AcDbEntity
  8
1
  6
SLD-Сплошная
100
AcDbLine
 10
563.1054271659
 20
1418.8600778225
 30
0.0
 11
563.1054271659
 21
1419.8600778225
 31
0.0
  0
LINE
  5
21F
330
1F
100
AcDbEntity
  8
1
  6
SLD-Сплошная
100
AcDbLine
 10
535.1054271659
 20
1419.8600778225
 30
0.0
 11
535.1054271659
 21
1418.8600778225
 31
0.0
  0
LINE
  5
220
330
1F
100
AcDbEntity
  8
1
  6
SLD-Сплошная
100
AcDbLine
 10
563.1054271659
 20
1419.8600778225
 30
0.0
 11
560.1054271659
 21
1422.8600778225
 31
0.0
  0
LINE
  5
221
330
1F
100
AcDbEntity
  8
1
  6
SLD-Сплошная
100
AcDbLine
 10
538.1054271659
 20
1422.8600778225
 30
0.0
 11
535.1054271659
 21
1419.8600778225
 31
0.0
  0
LINE
  5
222
330
1F
100
AcDbEntity
  8
1
  6
SLD-Сплошная
100
AcDbLine
 10
1076.3054271659
 20
1395.2600778225
 30
0.0
 11
1076.3054271659
 21
1394.8600778225
 31
0.0
  0
LINE
  5
223
330
1F
100
AcDbEntity
  8
1
  6
SLD-Сплошная
100
AcDbLine
 10
1085.5054271659
 20
1394.8600778225
 30
0.0
 11
1085.5054271659
 21
1395.2600778225
 31
0.0
  0
LINE
  5
224
330
1F
100
AcDbEntity
  8
1
  6
SLD-Сплошная
100
AcDbLine
 10
1076.3054271659
 20
1394.8600778225
 30
0.0
 11
1076.4054271659
 21
1394.7600778225
 31
0.0
  0
LINE
  5
225
330
1F
100
AcDbEntity
  8
1
  6
SLD-Сплошная
100
AcDbLine
 10
1085.4054271659
 20
1394.7600778225
 30
0.0
 11
1085.5054271659
 21
1394.8600778225
 31
0.0
  0
LINE
  5
226
330
1F
100
AcDbEntity
  8
1
  6
SLD-Сплошная
100
AcDbLine
 10
493.0054271659
 20
1356.7600778225
 30
0.0
 11
492.9054271659
 21
1356.7600778225
 31
0.0
  0
LINE
  5
227
330
1F
100
AcDbEntity
  8
1
  6
SLD-Сплошная
100
AcDbLine
 10
492.9054271659
 20
1348.7600778225
 30
0.0
 11
493.0054271659
 21
1348.7600778225
 31
0.0
  0
LINE
  5
228
330
1F
100
AcDbEntity
  8
1
  6
SLD-Сплошная
100
AcDbLine
 10
492.9054271659
 20
1299.2100778225
 30
0.0
 11
493.0054271659
 21
1299.2100778225
 31
0.0
  0
LINE
  5
229
330
1F
100
AcDbEntity
  8
1
  6
SLD-Сплошная
100
AcDbLine
 10
493.0054271659
 20
1306.3100778225
 30
0.0
 11
492.9054271659
 21
1306.3100778225
 31
0.0
  0
LINE
  5
22A
330
1F
100
AcDbEntity
  8
1
  6
SLD-Сплошная
100
AcDbLine
 10
996.9054271659
 20
1365.5100778225
 30
0.0
 11
586.9054271659
 21
1365.5100778225
 31
0.0
  0
ARC
  5
22B
330
1F
100
AcDbEntity
  8
1
  6
SLD-Сплошная
100
AcDbCircle
 10
996.9054271659
 20
1348.0100778225
 30
0.0
 40
17.50000000000023
100
AcDbArc
 50
0.0
 51
90.0
  0
LINE
  5
22C
330
1F
100
AcDbEntity
  8
1
  6
SLD-Сплошная
100
AcDbLine
 10
1014.4054271659
 20
1263.0100778225
 30
0.0
 11
1014.4054271659
 21
1348.0100778225
 31
0.0
  0
LINE
  5
22D
330
1F
100
AcDbEntity
  8
1
  6
SLD-Сплошная
100
AcDbLine
 10
569.4054271659
 20
1348.0100778225
 30
0.0
 11
569.4054271659
 21
1263.0100778225
 31
0.0
  0
ARC
  5
22E
330
1F
100
AcDbEntity
  8
1
  6
SLD-Сплошная
100
AcDbCircle
 10
586.9054271659
 20
1348.0100778225
 30
0.0
 40
17.50000000000023
100
AcDbArc
 50
90.0
 51
180.0
  0
ARC
  5
22F
330
1F
100
AcDbEntity
  8
1
  6
SLD-Сплошная
100
AcDbCircle
 10
586.9054271659
 20
1263.0100778225
 30
0.0
 40
17.5
100
AcDbArc
 50
180.0
 51
270.0
  0
ARC
  5
230
330
1F
100
AcDbEntity
  8
1
  6
SLD-Сплошная
100
AcDbCircle
 10
996.9054271659
 20
1263.0100778225
 30
0.0
 40
17.49999999999977
100
AcDbArc
 50
270.0
 51
0.0
  0
LINE
  5
231
330
1F
100
AcDbEntity
  8
1
  6
SLD-Сплошная
100
AcDbLine
 10
586.9054271659
 20
1245.5100778225
 30
0.0
 11
996.9054271659
 21
1245.5100778225
 31
0.0
  0
SPLINE
  5
232
330
1F
100
AcDbEntity
  8
1
  6
SLD-Сплошная
100
AcDbSpline
210
0.0
220
0.0
230
1.0
 70
     8
 71
     3
 72
    11
 73
     7
 74
     0
 42
0.00000001
 43
0.00000001
 40
0.0
 40
0.0
 40
0.0
 40
0.0
 40
0.2500000000000048
 40
0.500000000000003
 40
0.7500000000000006
 40
1.0
 40
1.0
 40
1.0
 40
1.0
 10
1087.77258445338
 20
1399.860077822462
 30
0.0
 10
1087.776751120047
 20
1399.875860973889
 30
0.0
 10
1087.78508445338
 20
1399.907427276743
 30
0.0
 10
1087.797584453381
 20
1400.150238950521
 30
0.0
 10
1087.810084453381
 20
1400.497311134473
 30
0.0
 10
1087.818417786714
 20
1400.772488926466
 30
0.0
 10
1087.82258445338
 20
1400.910077822463
 30
0.0
  0
SPLINE
  5
233
330
1F
100
AcDbEntity
  8
1
  6
SLD-Сплошная
100
AcDbSpline
210
0.0
220
0.0
230
1.0
 70
     8
 71
     3
 72
    11
 73
     7
 74
     0
 42
0.00000001
 43
0.00000001
 40
0.0
 40
0.0
 40
0.0
 40
0.0
 40
0.249999999999996
 40
0.500000000000001
 40
0.7499999999999896
 40
0.9999999999999999
 40
0.9999999999999999
 40
0.9999999999999999
 40
0.9999999999999999
 10
495.3882698785122
 20
1400.910077822463
 30
0.0
 10
495.3924365451789
 20
1400.772488926466
 30
0.0
 10
495.4007698785121
 20
1400.497311134473
 30
0.0
 10
495.4132698785122
 20
1400.150238950521
 30
0.0
 10
495.4257698785121
 20
1399.907427276743
 30
0.0
 10
495.4341032118455
 20
1399.87586097389
 30
0.0
 10
495.4382698785121
 20
1399.860077822463
 30
0.0
  0
LINE
  5
234
330
1F
100
AcDbEntity
  8
1
  6
SLD-Сплошная
100
AcDbLine
 10
495.3882698785
 20
1416.1600778225
 30
0.0
 11
495.3882698785
 21
1400.9100778225
 31
0.0
  0
LINE
  5
235
330
1F
100
AcDbEntity
  8
1
  6
SLD-Сплошная
100
AcDbLine
 10
1087.8225844534
 20
1416.1600778225
 30
0.0
 11
1087.8225844534
 21
1400.9100778225
 31
0.0
  0
ELLIPSE
  5
236
330
1F
100
AcDbEntity
  8
1
  6
SLD-Сплошная
100
AcDbEllipse
 10
496.8054271659
 20
1416.1600778225
 30
0.0
 11
0.0
 21
2.699999999999818
 31
0.0
210
0.0
220
0.0
230
1.0
 40
0.5248730694
 41
0.0
 42
1.570796326794897
  0
LINE
  5
237
330
1F
100
AcDbEntity
  8
1
  6
SLD-Сплошная
100
AcDbLine
 10
496.8054271659
 20
1418.8600778225
 30
0.0
 11
1086.405427166
 21
1418.8600778225
 31
0.0
  0
ELLIPSE
  5
238
330
1F
100
AcDbEntity
  8
1
  6
SLD-Сплошная
100
AcDbEllipse
 10
1086.4054271659
 20
1416.1600778225
 30
0.0
 11
0.0
 21
2.700000000000045
 31
0.0
210
0.0
220
0.0
230
1.0
 40
0.5248730694
 41
4.712388980384697
 42
6.283185307179586
  0
LINE
  5
239
330
1F
100
AcDbEntity
  8
1
  6
SLD-Сплошная
100
AcDbLine
 10
495.1054271659
 20
1400.9100778225
 30
0.0
 11
495.1054271659
 21
1416.1600778225
 31
0.0
  0
LINE
  5
23A
330
1F
100
AcDbEntity
  8
1
  6
SLD-Сплошная
100
AcDbLine
 10
494.1054271659
 20
1400.9100778225
 30
0.0
 11
495.1054271659
 21
1400.9100778225
 31
0.0
  0
LINE
  5
23B
330
1F
100
AcDbEntity
  8
1
  6
SLD-Сплошная
100
AcDbLine
 10
494.1054271659
 20
1400.9100778225
 30
0.0
 11
494.1054271659
 21
1416.1600778225
 31
0.0
  0
SPLINE
  5
23C
330
1F
100
AcDbEntity
  8
1
  6
SLD-Сплошная
100
AcDbSpline
210
0.0
220
0.0
230
1.0
 70
     8
 71
     3
 72
    11
 73
     7
 74
     0
 42
0.00000001
 43
0.00000001
 40
0.0
 40
0.0
 40
0.0
 40
0.0
 40
0.2500000000005982
 40
0.5000000000002921
 40
0.7500000000002406
 40
1.0
 40
1.0
 40
1.0
 40
1.0
 10
495.1554271659206
 20
1400.860077822463
 30
0.0
 10
495.1488753137302
 20
1400.860829401102
 30
0.0
 10
495.1357716093495
 20
1400.862332558381
 30
0.0
 10
495.1192443624948
 20
1400.873895019037
 30
0.0
 10
495.1076819018384
 20
1400.890422265892
 30
0.0
 10
495.1061787445597
 20
1400.903525970273
 30
0.0
 10
495.1054271659203
 20
1400.910077822463
 30
0.0
  0
LINE
  5
23D
330
1F
100
AcDbEntity
  8
1
  6
SLD-Сплошная
100
AcDbLine
 10
495.1554271659
 20
1400.8600778225
 30
0.0
 11
495.1554271659
 21
1399.8600778225
 31
0.0
  0
SPLINE
  5
23E
330
1F
100
AcDbEntity
  8
1
  6
SLD-Сплошная
100
AcDbSpline
210
0.0
220
0.0
230
1.0
 70
     8
 71
     3
 72
    11
 73
     7
 74
     0
 42
0.00000001
 43
0.00000001
 40
0.0
 40
0.0
 40
0.0
 40
0.0
 40
0.2500000000000184
 40
0.50000000000001
 40
0.7500000000000006
 40
1.0
 40
1.0
 40
1.0
 40
1.0
 10
495.1554271659256
 20
1399.860077822463
 30
0.0
 10
495.0178382699286
 20
1399.875860973889
 30
0.0
 10
494.7426604779344
 20
1399.907427276741
 30
0.0
 10
494.3955882939808
 20
1400.150238950519
 30
0.0
 10
494.1527766202008
 20
1400.497311134472
 30
0.0
 10
494.1212103173471
 20
1400.772488926466
 30
0.0
 10
494.1054271659203
 20
1400.910077822463
 30
0.0
  0
SPLINE
  5
23F
330
1F
100
AcDbEntity
  8
1
  6
SLD-Сплошная
100
AcDbSpline
210
0.0
220
0.0
230
1.0
 70
     8
 71
     3
 72
    11
 73
     7
 74
     0
 42
0.00000001
 43
0.00000001
 40
0.0
 40
0.0
 40
0.0
 40
0.0
 40
0.2500000000000056
 40
0.5000000000000053
 40
0.7500000000000068
 40
1.0
 40
1.0
 40
1.0
 40
1.0
 10
1089.105427165972
 20
1400.910077822463
 30
0.0
 10
1089.089644014546
 20
1400.772488926466
 30
0.0
 10
1089.058077711692
 20
1400.497311134472
 30
0.0
 10
1088.815266037912
 20
1400.150238950519
 30
0.0
 10
1088.468193853958
 20
1399.907427276741
 30
0.0
 10
1088.193016061964
 20
1399.875860973889
 30
0.0
 10
1088.055427165967
 20
1399.860077822462
 30
0.0
  0
LINE
  5
240
330
1F
100
AcDbEntity
  8
1
  6
SLD-Сплошная
100
AcDbLine
 10
1088.055427166
 20
1400.8600778225
 30
0.0
 11
1088.055427166
 21
1399.8600778225
 31
0.0
  0
SPLINE
  5
241
330
1F
100
AcDbEntity
  8
1
  6
SLD-Сплошная
100
AcDbSpline
210
0.0
220
0.0
230
1.0
 70
     8
 71
     3
 72
    11
 73
     7
 74
     0
 42
0.00000001
 43
0.00000001
 40
0.0
 40
0.0
 40
0.0
 40
0.0
 40
0.2500000000000042
 40
0.5000000000001975
 40
0.7500000000002977
 40
1.0
 40
1.0
 40
1.0
 40
1.0
 10
1088.105427165973
 20
1400.910077822463
 30
0.0
 10
1088.104675587333
 20
1400.903525970272
 30
0.0
 10
1088.103172430054
 20
1400.890422265892
 30
0.0
 10
1088.091609969398
 20
1400.873895019037
 30
0.0
 10
1088.075082722543
 20
1400.862332558381
 30
0.0
 10
1088.061979018162
 20
1400.860829401102
 30
0.0
 10
1088.055427165972
 20
1400.860077822463
 30
0.0
  0
LINE
  5
242
330
1F
100
AcDbEntity
  8
1
  6
SLD-Сплошная
100
AcDbLine
 10
1089.105427166
 20
1400.9100778225
 30
0.0
 11
1088.105427166
 21
1400.9100778225
 31
0.0
  0
LINE
  5
243
330
1F
100
AcDbEntity
  8
1
  6
SLD-Сплошная
100
AcDbLine
 10
1089.105427166
 20
1400.9100778225
 30
0.0
 11
1089.105427166
 21
1416.1600778225
 31
0.0
  0
LINE
  5
244
330
1F
100
AcDbEntity
  8
1
  6
SLD-Сплошная
100
AcDbLine
 10
1088.105427166
 20
1400.9100778225
 30
0.0
 11
1088.105427166
 21
1416.1600778225
 31
0.0
  0
ARC
  5
245
330
1F
100
AcDbEntity
  8
1
  6
SLD-Сплошная
100
AcDbCircle
 10
496.8054271659
 20
1416.1600778225
 30
0.0
 40
1.699999999999875
100
AcDbArc
 50
139.5408896225
 51
180.0
  0
ARC
  5
246
330
1F
100
AcDbEntity
  8
1
  6
SLD-Сплошная
100
AcDbCircle
 10
496.8054271659
 20
1416.1600778225
 30
0.0
 40
2.699999999999932
100
AcDbArc
 50
90.0
 51
180.0
  0
ARC
  5
247
330
1F
100
AcDbEntity
  8
1
  6
SLD-Сплошная
100
AcDbCircle
 10
1086.405427166
 20
1416.1600778225
 30
0.0
 40
2.700000000000273
100
AcDbArc
 50
0.0
 51
90.0
  0
ARC
  5
248
330
1F
100
AcDbEntity
  8
1
  6
SLD-Сплошная
100
AcDbCircle
 10
1086.405427166
 20
1416.1600778225
 30
0.0
 40
1.700000000000103
100
AcDbArc
 50
0.0
 51
40.4591103776
  0
LINE
  5
249
330
1F
100
AcDbEntity
  8
1
  6
SLD-Сплошная
100
AcDbLine
 10
495.3882698785
 20
1400.9100778225
 30
0.0
 11
495.2054271659
 21
1400.9100778225
 31
0.0
  0
SPLINE
  5
24A
330
1F
100
AcDbEntity
  8
1
  6
SLD-Сплошная
100
AcDbSpline
210
0.0
220
0.0
230
1.0
 70
     8
 71
     3
 72
    11
 73
     7
 74
     0
 42
0.00000001
 43
0.00000001
 40
0.0
 40
0.0
 40
0.0
 40
0.0
 40
0.009024567011153
 40
0.0782108948229373
 40
0.2706367536280537
 40
1.0
 40
1.0
 40
1.0
 40
1.0
 10
495.2054271659204
 20
1400.910077822463
 30
0.0
 10
495.2053900166245
 20
1400.908884238728
 30
0.0
 10
495.205068064373
 20
1400.898540113423
 30
0.0
 10
495.2016874535541
 20
1400.892971154553
 30
0.0
 10
495.1871731358983
 20
1400.860316865159
 30
0.0
 10
495.1694503078193
 20
1400.860183414752
 30
0.0
 10
495.1554271659206
 20
1400.860077822463
 30
0.0
  0
LINE
  5
24B
330
1F
100
AcDbEntity
  8
1
  6
SLD-Сплошная
100
AcDbLine
 10
495.4382698785
 20
1399.9300373918
 30
0.0
 11
495.1554271659
 21
1399.8600778225
 31
0.0
  0
LINE
  5
24C
330
1F
100
AcDbEntity
  8
1
  6
SLD-Сплошная
100
AcDbLine
 10
1087.8225844534
 20
1400.9100778225
 30
0.0
 11
1088.005427166
 21
1400.9100778225
 31
0.0
  0
SPLINE
  5
24D
330
1F
100
AcDbEntity
  8
1
  6
SLD-Сплошная
100
AcDbSpline
210
0.0
220
0.0
230
1.0
 70
     8
 71
     3
 72
    12
 73
     8
 74
     0
 42
0.00000001
 43
0.00000001
 40
0.0
 40
0.0
 40
0.0
 40
0.0
 40
0.7293340570179342
 40
0.9217522148777416
 40
0.9750066998647763
 40
0.9909757941549744
 40
1.0
 40
1.0
 40
1.0
 40
1.0
 10
1088.055427165972
 20
1400.860077822463
 30
0.0
 10
1088.041569365627
 20
1400.862799104202
 30
0.0
 10
1088.0240555007
 20
1400.866238334066
 30
0.0
 10
1088.009157479422
 20
1400.88860653898
 30
0.0
 10
1088.006263449777
 20
1400.900653195397
 30
0.0
 10
1088.005556787167
 20
1400.905412096036
 30
0.0
 10
1088.005461552042
 20
1400.908840092815
 30
0.0
 10
1088.005427165972
 20
1400.910077822463
 30
0.0
  0
LINE
  5
24E
330
1F
100
AcDbEntity
  8
1
  6
SLD-Сплошная
100
AcDbLine
 10
1088.055427166
 20
1399.8600778225
 30
0.0
 11
1087.6988984482
 21
1399.9482632147
 31
0.0
  0
LINE
  5
24F
330
1F
100
AcDbEntity
  8
1
  6
SLD-Сплошная
100
AcDbLine
 10
495.3882698785
 20
1415.7500778225
 30
0.0
 11
495.2054271659
 21
1415.7500778225
 31
0.0
  0
LINE
  5
250
330
1F
100
AcDbEntity
  8
1
  6
SLD-Сплошная
100
AcDbLine
 10
495.2054271659
 20
1400.9100778225
 30
0.0
 11
495.2054271659
 21
1415.7500778225
 31
0.0
  0
LINE
  5
251
330
1F
100
AcDbEntity
  8
1
  6
SLD-Сплошная
100
AcDbLine
 10
1087.8225844534
 20
1415.7500778225
 30
0.0
 11
1088.005427166
 21
1415.7500778225
 31
0.0
  0
LINE
  5
252
330
1F
100
AcDbEntity
  8
1
  6
SLD-Сплошная
100
AcDbLine
 10
1088.005427166
 20
1400.9100778225
 30
0.0
 11
1088.005427166
 21
1415.7500778225
 31
0.0
  0
ARC
  5
253
330
1F
100
AcDbEntity
  8
1
  6
SLD-Сплошная
100
AcDbCircle
 10
497.2154271659
 20
1415.7500778225
 30
0.0
 40
2.009999999999934
100
AcDbArc
 50
153.906948704
 51
180.0
  0
ARC
  5
254
330
1F
100
AcDbEntity
  8
1
  6
SLD-Сплошная
100
AcDbCircle
 10
1085.995427166
 20
1415.7500778225
 30
0.0
 40
2.010000000000207
100
AcDbArc
 50
0.0
 51
26.093051294
  0
LINE
  5
255
330
1F
100
AcDbEntity
  8
1
  6
SLD-Сплошная
100
AcDbLine
 10
493.9054271659
 20
1221.2600778225
 30
0.0
 11
493.0054271659
 21
1221.2600778225
 31
0.0
  0
LINE
  5
256
330
1F
100
AcDbEntity
  8
1
  6
SLD-Сплошная
100
AcDbLine
 10
493.0054271659
 20
1221.2600778225
 30
0.0
 11
493.0054271659
 21
1390.7600778225
 31
0.0
  0
LINE
  5
257
330
1F
100
AcDbEntity
  8
1
  6
SLD-Сплошная
100
AcDbLine
 10
493.0054271659
 20
1390.7600778225
 30
0.0
 11
493.9054271659
 21
1390.7600778225
 31
0.0
  0
LINE
  5
258
330
1F
100
AcDbEntity
  8
1
  6
SLD-Сплошная
100
AcDbLine
 10
1089.8347164879
 20
1392.7600778225
 30
0.0
 11
493.9761378441
 21
1392.7600778225
 31
0.0
  0
LINE
  5
259
330
1F
100
AcDbEntity
  8
1
  6
SLD-Сплошная
100
AcDbLine
 10
1089.8347164879
 20
1392.7600778225
 30
0.0
 11
1089.905427166
 21
1390.7600778225
 31
0.0
  0
LINE
  5
25A
330
1F
100
AcDbEntity
  8
1
  6
SLD-Сплошная
100
AcDbLine
 10
493.9054271659
 20
1390.7600778225
 30
0.0
 11
493.9761378441
 21
1392.7600778225
 31
0.0
  0
LINE
  5
25B
330
1F
100
AcDbEntity
  8
1
  6
SLD-Сплошная
100
AcDbLine
 10
493.9054271659
 20
1390.7600778225
 30
0.0
 11
495.0054271659
 21
1390.7600778225
 31
0.0
  0
ELLIPSE
  5
25C
330
1F
100
AcDbEntity
  8
1
  6
SLD-Сплошная
100
AcDbEllipse
 10
494.4761378441
 20
1221.2600778225
 30
0.0
 11
0.0
 21
2.499999999999773
 31
0.0
210
0.0
220
0.0
230
1.0
 40
0.6
 41
2.751284095272654
 42
3.141592653589793
  0
LINE
  5
25D
330
1F
100
AcDbEntity
  8
1
  6
SLD-Сплошная
100
AcDbLine
 10
493.9054271659
 20
1221.2600778225
 30
0.0
 11
493.9054271659
 21
1218.9480985586
 31
0.0
  0
LINE
  5
25E
330
1F
100
AcDbEntity
  8
1
  6
SLD-Сплошная
100
AcDbLine
 10
493.9054271659
 20
1221.2600778225
 30
0.0
 11
495.0054271659
 21
1221.2600778225
 31
0.0
  0
LINE
  5
25F
330
1F
100
AcDbEntity
  8
1
  6
SLD-Сплошная
100
AcDbLine
 10
1089.9054271659
 20
1218.9480985586
 30
0.0
 11
1089.9054271659
 21
1221.2600778225
 31
0.0
  0
ELLIPSE
  5
260
330
1F
100
AcDbEntity
  8
1
  6
SLD-Сплошная
100
AcDbEllipse
 10
1089.3347164879
 20
1221.2600778225
 30
0.0
 11
0.0
 21
2.499999999999773
 31
0.0
210
0.0
220
0.0
230
1.0
 40
0.6
 41
3.141592653589641
 42
3.531901211874108
  0
LINE
  5
261
330
1F
100
AcDbEntity
  8
1
  6
SLD-Сплошная
100
AcDbLine
 10
494.4761378441
 20
1218.7600778225
 30
0.0
 11
1089.3347164879
 21
1218.7600778225
 31
0.0
  0
LINE
  5
262
330
1F
100
AcDbEntity
  8
1
  6
SLD-Сплошная
100
AcDbLine
 10
1091.9054271659
 20
1221.2600778225
 30
0.0
 11
1091.9054271659
 21
1390.7600778225
 31
0.0
  0
LINE
  5
263
330
1F
100
AcDbEntity
  8
1
  6
SLD-Сплошная
100
AcDbLine
 10
1089.9054271659
 20
1221.2600778225
 30
0.0
 11
1091.9054271659
 21
1221.2600778225
 31
0.0
  0
LINE
  5
264
330
1F
100
AcDbEntity
  8
1
  6
SLD-Сплошная
100
AcDbLine
 10
1089.9054271659
 20
1390.7600778225
 30
0.0
 11
1091.9054271659
 21
1390.7600778225
 31
0.0
  0
ARC
  5
265
330
1F
100
AcDbEntity
  8
1
  6
SLD-Сплошная
100
AcDbCircle
 10
494.4054271659
 20
1221.2600778225
 30
0.0
 40
1.500000000000455
100
AcDbArc
 50
180.0
 51
247.6369669003
  0
LINE
  5
266
330
1F
100
AcDbEntity
  8
1
  6
SLD-Сплошная
100
AcDbLine
 10
493.4542427024
 20
1218.9480985586
 30
0.0
 11
493.8347164878
 21
1219.8728902642
 31
0.0
  0
ARC
  5
267
330
1F
100
AcDbEntity
  8
1
  6
SLD-Сплошная
100
AcDbCircle
 10
494.4054271659
 20
1221.2600778225
 30
0.0
 40
2.500000000000043
100
AcDbArc
 50
180.0
 51
247.6369669003
  0
LINE
  5
268
330
1F
100
AcDbEntity
  8
1
  6
SLD-Сплошная
100
AcDbLine
 10
494.4054271659
 20
1218.7600778225
 30
0.0
 11
494.4054271659
 21
1218.7628571452
 31
0.0
  0
ARC
  5
269
330
1F
100
AcDbEntity
  8
1
  6
SLD-Сплошная
100
AcDbCircle
 10
494.4054271659
 20
1221.2600778225
 30
0.0
 40
2.500000000000043
100
AcDbArc
 50
247.6369669003
 51
270.0
  0
LINE
  5
26A
330
1F
100
AcDbEntity
  8
1
  6
SLD-Сплошная
100
AcDbLine
 10
491.9054271659
 20
1221.2600778225
 30
0.0
 11
491.9054271659
 21
1390.7600778225
 31
0.0
  0
LINE
  5
26B
330
1F
100
AcDbEntity
  8
1
  6
SLD-Сплошная
100
AcDbLine
 10
492.9054271659
 20
1390.7600778225
 30
0.0
 11
491.9054271659
 21
1390.7600778225
 31
0.0
  0
LINE
  5
26C
330
1F
100
AcDbEntity
  8
1
  6
SLD-Сплошная
100
AcDbLine
 10
492.9054271659
 20
1221.2600778225
 30
0.0
 11
492.9054271659
 21
1390.7600778225
 31
0.0
  0
LINE
  5
26D
330
1F
100
AcDbEntity
  8
1
  6
SLD-Сплошная
100
AcDbLine
 10
1090.3566116293
 20
1218.9480985586
 30
0.0
 11
1089.976137844
 21
1219.8728902641
 31
0.0
  0
ARC
  5
26E
330
1F
100
AcDbEntity
  8
1
  6
SLD-Сплошная
100
AcDbCircle
 10
1089.4054271659
 20
1221.2600778225
 30
0.0
 40
1.5
100
AcDbArc
 50
292.3630330961
 51
0.0
  0
ARC
  5
26F
330
1F
100
AcDbEntity
  8
1
  6
SLD-Сплошная
100
AcDbCircle
 10
1089.4054271659
 20
1221.2600778225
 30
0.0
 40
2.500000000000179
100
AcDbArc
 50
292.3630330961
 51
0.0
  0
LINE
  5
270
330
1F
100
AcDbEntity
  8
1
  6
SLD-Сплошная
100
AcDbLine
 10
1089.4054271659
 20
1218.7600778225
 30
0.0
 11
1089.4054271659
 21
1218.7628571452
 31
0.0
  0
ARC
  5
271
330
1F
100
AcDbEntity
  8
1
  6
SLD-Сплошная
100
AcDbCircle
 10
1089.4054271659
 20
1221.2600778225
 30
0.0
 40
2.500000000000179
100
AcDbArc
 50
270.0
 51
292.3630330961
  0
LINE
  5
272
330
1F
100
AcDbEntity
  8
1
  6
SLD-Сплошная
100
AcDbLine
 10
493.9054271659
 20
1391.7600778225
 30
0.0
 11
493.9054271659
 21
1392.7600778225
 31
0.0
  0
ARC
  5
273
330
1F
100
AcDbEntity
  8
1
  6
SLD-Сплошная
100
AcDbCircle
 10
493.9054271659
 20
1390.7600778225
 30
0.0
 40
1.000000000000227
100
AcDbArc
 50
90.0
 51
180.0
  0
ARC
  5
274
330
1F
100
AcDbEntity
  8
1
  6
SLD-Сплошная
100
AcDbCircle
 10
493.9054271659
 20
1390.7600778225
 30
0.0
 40
2.000000000000227
100
AcDbArc
 50
90.0
 51
180.0
  0
LINE
  5
275
330
1F
100
AcDbEntity
  8
1
  6
SLD-Сплошная
100
AcDbLine
 10
1089.9054271659
 20
1391.7600778225
 30
0.0
 11
1089.9054271659
 21
1392.7600778225
 31
0.0
  0
ARC
  5
276
330
1F
100
AcDbEntity
  8
1
  6
SLD-Сплошная
100
AcDbCircle
 10
1089.9054271659
 20
1390.7600778225
 30
0.0
 40
2.000000000000227
100
AcDbArc
 50
0.0
 51
90.0
  0
ARC
  5
277
330
1F
100
AcDbEntity
  8
1
  6
SLD-Сплошная
100
AcDbCircle
 10
1089.9054271659
 20
1390.7600778225
 30
0.0
 40
1.000000000000227
100
AcDbArc
 50
0.0
 51
90.0
  0
LINE
  5
278
330
1F
100
AcDbEntity
  8
1
  6
SLD-Сплошная
100
AcDbLine
 10
1089.9054271659
 20
1392.7600778225
 30
0.0
 11
1089.8347164879
 21
1392.7600778225
 31
0.0
  0
LINE
  5
279
330
1F
100
AcDbEntity
  8
1
  6
SLD-Сплошная
100
AcDbLine
 10
1089.9054271659
 20
1391.7600778225
 30
0.0
 11
1089.8700718269
 21
1391.7600778225
 31
0.0
  0
LINE
  5
27A
330
1F
100
AcDbEntity
  8
1
  6
SLD-Сплошная
100
AcDbLine
 10
493.9761378441
 20
1392.7600778225
 30
0.0
 11
493.9054271659
 21
1392.7600778225
 31
0.0
  0
LINE
  5
27B
330
1F
100
AcDbEntity
  8
1
  6
SLD-Сплошная
100
AcDbLine
 10
493.940782505
 20
1391.7600778225
 30
0.0
 11
493.9054271659
 21
1391.7600778225
 31
0.0
  0
LINE
  5
27C
330
1F
100
AcDbEntity
  8
1
  6
SLD-Сплошная
100
AcDbLine
 10
1089.4054271659
 20
1218.7600778225
 30
0.0
 11
1089.3347164879
 21
1218.7600778225
 31
0.0
  0
LINE
  5
27D
330
1F
100
AcDbEntity
  8
1
  6
SLD-Сплошная
100
AcDbLine
 10
494.4761378441
 20
1218.7600778225
 30
0.0
 11
494.4054271659
 21
1218.7600778225
 31
0.0
  0
ELLIPSE
  5
27E
330
1F
100
AcDbEntity
  8
1
  6
SLD-Сплошная
100
AcDbEllipse
 10
1072.8347164879
 20
1393.7600778225
 30
0.0
 11
1.999999999999773
 21
0.0
 31
0.0
210
0.0
220
0.0
230
1.0
 40
0.5
 41
3.141592653589793
 42
4.712388980384697
  0
ELLIPSE
  5
27F
330
1F
100
AcDbEntity
  8
1
  6
SLD-Сплошная
100
AcDbEllipse
 10
510.9761378441
 20
1393.7600778225
 30
0.0
 11
2.000000000000057
 21
0.0
 31
0.0
210
0.0
220
0.0
230
1.0
 40
0.5
 41
4.712388980384498
 42
6.283185307179586
  0
ARC
  5
280
330
1F
100
AcDbEntity
  8
1
  6
SLD-Сплошная
100
AcDbCircle
 10
1072.9054271659
 20
1393.7600778225
 30
0.0
 40
2.000000000000087
100
AcDbArc
 50
180.0
 51
188.7004774897
  0
ARC
  5
281
330
1F
100
AcDbEntity
  8
1
  6
SLD-Сплошная
100
AcDbCircle
 10
1072.9054271659
 20
1393.7600778225
 30
0.0
 40
1.0
100
AcDbArc
 50
180.0
 51
270.0
  0
ARC
  5
282
330
1F
100
AcDbEntity
  8
1
  6
SLD-Сплошная
100
AcDbCircle
 10
510.9054271659
 20
1393.7600778225
 30
0.0
 40
1.0
100
AcDbArc
 50
270.0
 51
0.0
  0
ARC
  5
283
330
1F
100
AcDbEntity
  8
1
  6
SLD-Сплошная
100
AcDbCircle
 10
510.9054271659
 20
1393.7600778225
 30
0.0
 40
1.99999999999994
100
AcDbArc
 50
351.299522505
 51
0.0
  0
LINE
  5
284
330
1F
100
AcDbEntity
  8
1
  6
SLD-Сплошная
100
AcDbLine
 10
1070.8347164879
 20
1393.7600778225
 30
0.0
 11
1070.8347164879
 21
1399.8600778225
 31
0.0
  0
LINE
  5
285
330
1F
100
AcDbEntity
  8
1
  6
SLD-Сплошная
100
AcDbLine
 10
512.9761378441
 20
1399.8600778225
 30
0.0
 11
512.9761378441
 21
1393.7600778225
 31
0.0
  0
LINE
  5
286
330
1F
100
AcDbEntity
  8
1
  6
SLD-Сплошная
100
AcDbLine
 10
1070.9054271659
 20
1399.8600778225
 30
0.0
 11
1070.9054271659
 21
1393.7600778225
 31
0.0
  0
LINE
  5
287
330
1F
100
AcDbEntity
  8
1
  6
SLD-Сплошная
100
AcDbLine
 10
1071.9054271659
 20
1399.8600778225
 30
0.0
 11
1071.9054271659
 21
1393.7600778225
 31
0.0
  0
LINE
  5
288
330
1F
100
AcDbEntity
  8
1
  6
SLD-Сплошная
100
AcDbLine
 10
512.9054271659
 20
1393.7600778225
 30
0.0
 11
512.9054271659
 21
1399.8600778225
 31
0.0
  0
LINE
  5
289
330
1F
100
AcDbEntity
  8
1
  6
SLD-Сплошная
100
AcDbLine
 10
511.9054271659
 20
1393.7600778225
 30
0.0
 11
511.9054271659
 21
1399.8600778225
 31
0.0
  0
LINE
  5
28A
330
1F
100
AcDbEntity
  8
1
  6
SLD-Сплошная
100
AcDbLine
 10
492.9054271659
 20
1390.7600778225
 30
0.0
 11
493.0054271659
 21
1390.7600778225
 31
0.0
  0
ARC
  5
28B
330
1F
100
AcDbEntity
  8
1
  6
SLD-Сплошная
100
AcDbCircle
 10
768.2052776868
 20
1256.2634637957
 30
0.0
 40
26.56195549613891
100
AcDbArc
 50
345.2366779053
 51
347.4732803565
  0
ARC
  5
28C
330
1F
100
AcDbEntity
  8
1
  6
SLD-Сплошная
100
AcDbCircle
 10
786.6819850091
 20
1228.3083640786
 30
0.0
 40
23.41191191582004
100
AcDbArc
 50
71.4374562222
 51
74.3415387415
  0
SPLINE
  5
28D
330
1F
100
AcDbEntity
  8
1
  6
SLD-Сплошная
100
AcDbSpline
210
0.0
220
0.0
230
1.0
 70
     8
 71
     3
 72
    12
 73
     8
 74
     0
 42
0.00000001
 43
0.00000001
 40
0.0
 40
0.0
 40
0.0
 40
0.0
 40
0.2187857887071948
 40
0.4375776469535043
 40
0.6562353658863973
 40
0.8748419359490957
 40
1.0
 40
1.0
 40
1.0
 40
1.0
 10
792.7110407895834
 20
1251.327139243458
 30
0.0
 10
792.7063962783312
 20
1251.282942653944
 30
0.0
 10
792.6971071269792
 20
1251.194548248816
 30
0.0
 10
792.7389778074756
 20
1251.063188115135
 30
0.0
 10
792.8174896760719
 20
1250.952304859937
 30
0.0
 10
792.911624127919
 20
1250.882142318889
 30
0.0
 10
792.9770842723017
 20
1250.859609342321
 30
0.0
 10
793.0009170466199
 20
1250.851405520739
 30
0.0
  0
ARC
  5
28E
330
1F
100
AcDbEntity
  8
1
  6
SLD-Сплошная
100
AcDbCircle
 10
769.7799095751
 20
1256.0473977957
 30
0.0
 40
23.4119119163389
100
AcDbArc
 50
348.3684195203
 51
351.2725020395
  0
ARC
  5
28F
330
1F
100
AcDbEntity
  8
1
  6
SLD-Сплошная
100
AcDbCircle
 10
786.1520411929
 20
1226.8099283439
 30
0.0
 40
26.56195549550774
100
AcDbArc
 50
75.2366779053
 51
77.4732803565
  0
ARC
  5
290
330
1F
100
AcDbEntity
  8
1
  6
SLD-Сплошная
100
AcDbCircle
 10
814.1071409103
 20
1245.2866356655
 30
0.0
 40
23.41191191634459
100
AcDbArc
 50
161.4374562222
 51
164.3415387414
  0
SPLINE
  5
291
330
1F
100
AcDbEntity
  8
1
  6
SLD-Сплошная
100
AcDbSpline
210
0.0
220
0.0
230
1.0
 70
     8
 71
     3
 72
    12
 73
     8
 74
     0
 42
0.00000001
 43
0.00000001
 40
0.0
 40
0.0
 40
0.0
 40
0.0
 40
0.2187857887071905
 40
0.4375776469534756
 40
0.6562353658863669
 40
0.8748419359490753
 40
1.0
 40
1.0
 40
1.0
 40
1.0
 10
791.0883657449523
 20
1251.3156914461
 30
0.0
 10
791.1325623344669
 20
1251.311046934848
 30
0.0
 10
791.2209567395946
 20
1251.301757783496
 30
0.0
 10
791.3523168732753
 20
1251.343628463992
 30
0.0
 10
791.4632001284737
 20
1251.422140332588
 30
0.0
 10
791.5333626695216
 20
1251.516274784436
 30
0.0
 10
791.5558956460894
 20
1251.581734928818
 30
0.0
 10
791.5640994676716
 20
1251.605567703136
 30
0.0
  0
ARC
  5
292
330
1F
100
AcDbEntity
  8
1
  6
SLD-Сплошная
100
AcDbCircle
 10
786.3681071927
 20
1228.3845602318
 30
0.0
 40
23.4119119161145
100
AcDbArc
 50
78.3684195203
 51
81.2725020396
  0
ARC
  5
293
330
1F
100
AcDbEntity
  8
1
  6
SLD-Сплошная
100
AcDbCircle
 10
815.605576645
 20
1244.7566918493
 30
0.0
 40
26.56195549600893
100
AcDbArc
 50
165.2366779053
 51
167.4732803565
  0
ARC
  5
294
330
1F
100
AcDbEntity
  8
1
  6
SLD-Сплошная
100
AcDbCircle
 10
797.1288693228
 20
1272.7117915663
 30
0.0
 40
23.41191191583442
100
AcDbArc
 50
251.4374562222
 51
254.3415387415
  0
SPLINE
  5
295
330
1F
100
AcDbEntity
  8
1
  6
SLD-Сплошная
100
AcDbSpline
210
0.0
220
0.0
230
1.0
 70
     8
 71
     3
 72
    12
 73
     8
 74
     0
 42
0.00000001
 43
0.00000001
 40
0.0
 40
0.0
 40
0.0
 40
0.0
 40
0.2187857887071535
 40
0.4375776469534769
 40
0.6562353658863811
 40
0.87484193594909
 40
1.0
 40
1.0
 40
1.0
 40
1.0
 10
791.0998135423108
 20
1249.693016401469
 30
0.0
 10
791.104458053563
 20
1249.737212990983
 30
0.0
 10
791.1137472049152
 20
1249.825607396111
 30
0.0
 10
791.0718765244187
 20
1249.956967529792
 30
0.0
 10
790.9933646558223
 20
1250.06785078499
 30
0.0
 10
790.8992302039752
 20
1250.138013326038
 30
0.0
 10
790.8337700595927
 20
1250.160546302606
 30
0.0
 10
790.8099372852744
 20
1250.168750124188
 30
0.0
  0
ARC
  5
296
330
1F
100
AcDbEntity
  8
1
  6
SLD-Сплошная
100
AcDbCircle
 10
814.0309447566
 20
1244.9727578492
 30
0.0
 40
23.41191191608728
100
AcDbArc
 50
168.3684195203
 51
171.2725020396
  0
ARC
  5
297
330
1F
100
AcDbEntity
  8
1
  6
SLD-Сплошная
100
AcDbCircle
 10
797.658813139
 20
1274.210227301
 30
0.0
 40
26.56195549547401
100
AcDbArc
 50
255.2366779053
 51
257.4732803565
  0
ARC
  5
298
330
1F
100
AcDbEntity
  8
1
  6
SLD-Сплошная
100
AcDbCircle
 10
769.7037134219
 20
1255.7335199794
 30
0.0
 40
23.41191191607611
100
AcDbArc
 50
341.4374562222
 51
344.3415387415
  0
SPLINE
  5
299
330
1F
100
AcDbEntity
  8
1
  6
SLD-Сплошная
100
AcDbSpline
210
0.0
220
0.0
230
1.0
 70
     8
 71
     3
 72
    12
 73
     8
 74
     0
 42
0.00000001
 43
0.00000001
 40
0.0
 40
0.0
 40
0.0
 40
0.0
 40
0.2187857887071932
 40
0.437577646953468
 40
0.6562353658863782
 40
0.8748419359490794
 40
1.0
 40
1.0
 40
1.0
 40
1.0
 10
792.722488586942
 20
1249.704464198827
 30
0.0
 10
792.6782919974273
 20
1249.70910871008
 30
0.0
 10
792.5898975922997
 20
1249.718397861431
 30
0.0
 10
792.4585374586189
 20
1249.676527180935
 30
0.0
 10
792.3476542034206
 20
1249.598015312339
 30
0.0
 10
792.2774916623728
 20
1249.503880860492
 30
0.0
 10
792.2549586858049
 20
1249.438420716109
 30
0.0
 10
792.2467548642227
 20
1249.414587941791
 30
0.0
  0
ARC
  5
29A
330
1F
100
AcDbEntity
  8
1
  6
SLD-Сплошная
100
AcDbCircle
 10
797.4427471392
 20
1272.6355954132
 30
0.0
 40
23.41191191622378
100
AcDbArc
 50
258.3684195203
 51
261.2725020396
  0
CIRCLE
  5
29B
330
1F
100
AcDbEntity
  8
1
  6
SLD-Сплошная
100
AcDbCircle
 10
791.9054271659
 20
1250.5100778225
 30
0.0
 40
3.500000000000045
  0
ELLIPSE
  5
29C
330
1F
100
AcDbEntity
  8
1
  6
SLD-Сплошная
100
AcDbEllipse
 10
791.3489837497
 20
1251.4232912764
 30
0.0
 11
0.2145091096840588
 21
-0.3520440699439859
 31
0.0
210
0.0
220
0.0
230
1.0
 40
0.9702875252
 41
5.512866274278926
 42
7.05350434008059
  0
ELLIPSE
  5
29D
330
1F
100
AcDbEntity
  8
1
  6
SLD-Сплошная
100
AcDbEllipse
 10
790.992213712
 20
1249.9536344062
 30
0.0
 11
0.3520440699438723
 21
0.2145091096840588
 31
0.0
210
0.0
220
0.0
230
1.0
 40
0.9702875252
 41
5.512866274278704
 42
7.053504340080523
  0
ELLIPSE
  5
29E
330
1F
100
AcDbEntity
  8
1
  6
SLD-Сплошная
100
AcDbEllipse
 10
792.4618705822
 20
1249.5968643685
 30
0.0
 11
-0.2145091096841724
 21
0.352044069943986
 31
0.0
210
0.0
220
0.0
230
1.0
 40
0.9702875252
 41
5.512866274278771
 42
7.053504340080621
  0
ELLIPSE
  5
29F
330
1F
100
AcDbEntity
  8
1
  6
SLD-Сплошная
100
AcDbEllipse
 10
792.8186406199
 20
1251.0665212387
 30
0.0
 11
-0.3520440699439859
 21
-0.2145091096840588
 31
0.0
210
0.0
220
0.0
230
1.0
 40
0.9702875252
 41
5.512866274278672
 42
7.053504340080785
  0
LINE
  5
2A0
330
1F
100
AcDbEntity
  8
1
  6
SLD-Сплошная
100
AcDbLine
 10
789.6759294221
 20
1250.5178440492
 30
0.0
 11
789.8793082767
 21
1250.641767787
 31
0.0
  0
LINE
  5
2A1
330
1F
100
AcDbEntity
  8
1
  6
SLD-Сплошная
100
AcDbLine
 10
789.8793082767
 20
1250.641767787
 30
0.0
 11
791.0999335791
 21
1250.345451998
 31
0.0
  0
LINE
  5
2A2
330
1F
100
AcDbEntity
  8
1
  6
SLD-Сплошная
100
AcDbLine
 10
791.8976609392
 20
1248.2805800787
 30
0.0
 11
791.7737372014
 21
1248.4839589332
 31
0.0
  0
LINE
  5
2A3
330
1F
100
AcDbEntity
  8
1
  6
SLD-Сплошная
100
AcDbLine
 10
791.7737372014
 20
1248.4839589332
 30
0.0
 11
792.0700529905
 21
1249.7045842356
 31
0.0
  0
LINE
  5
2A4
330
1F
100
AcDbEntity
  8
1
  6
SLD-Сплошная
100
AcDbLine
 10
792.9207391394
 20
1252.4949864099
 30
0.0
 11
792.7173602848
 21
1252.3710626721
 31
0.0
  0
LINE
  5
2A5
330
1F
100
AcDbEntity
  8
1
  6
SLD-Сплошная
100
AcDbLine
 10
792.4210444957
 20
1251.1504373697
 30
0.0
 11
792.7173602848
 21
1252.3710626721
 31
0.0
  0
LINE
  5
2A6
330
1F
100
AcDbEntity
  8
1
  6
SLD-Сплошная
100
AcDbLine
 10
789.9205185785
 20
1251.5253897959
 30
0.0
 11
790.0444423163
 21
1251.3220109413
 31
0.0
  0
LINE
  5
2A7
330
1F
100
AcDbEntity
  8
1
  6
SLD-Сплошная
100
AcDbLine
 10
791.2650676187
 20
1251.0256951522
 30
0.0
 11
790.0444423163
 21
1251.3220109413
 31
0.0
  0
LINE
  5
2A8
330
1F
100
AcDbEntity
  8
1
  6
SLD-Сплошная
100
AcDbLine
 10
793.8903357534
 20
1249.4947658491
 30
0.0
 11
793.7664120156
 21
1249.6981447036
 31
0.0
  0
LINE
  5
2A9
330
1F
100
AcDbEntity
  8
1
  6
SLD-Сплошная
100
AcDbLine
 10
792.5457867132
 20
1249.9944604927
 30
0.0
 11
793.7664120156
 21
1249.6981447036
 31
0.0
  0
LINE
  5
2AA
330
1F
100
AcDbEntity
  8
1
  6
SLD-Сплошная
100
AcDbLine
 10
791.9131933927
 20
1252.7395755663
 30
0.0
 11
792.0371171305
 21
1252.5361967117
 31
0.0
  0
LINE
  5
2AB
330
1F
100
AcDbEntity
  8
1
  6
SLD-Сплошная
100
AcDbLine
 10
792.0371171305
 20
1252.5361967117
 30
0.0
 11
791.7408013414
 21
1251.3155714093
 31
0.0
  0
LINE
  5
2AC
330
1F
100
AcDbEntity
  8
1
  6
SLD-Сплошная
100
AcDbLine
 10
794.1349249097
 20
1250.5023115958
 30
0.0
 11
793.9315460552
 21
1250.3783878579
 31
0.0
  0
LINE
  5
2AD
330
1F
100
AcDbEntity
  8
1
  6
SLD-Сплошная
100
AcDbLine
 10
793.9315460552
 20
1250.3783878579
 30
0.0
 11
792.7109207528
 21
1250.674703647
 31
0.0
  0
LINE
  5
2AE
330
1F
100
AcDbEntity
  8
1
  6
SLD-Сплошная
100
AcDbLine
 10
790.8901151925
 20
1248.525169235
 30
0.0
 11
791.0934940471
 21
1248.6490929728
 31
0.0
  0
LINE
  5
2AF
330
1F
100
AcDbEntity
  8
1
  6
SLD-Сплошная
100
AcDbLine
 10
791.3898098362
 20
1249.8697182752
 30
0.0
 11
791.0934940471
 21
1248.6490929728
 31
0.0
  0
LINE
  5
2B0
330
1F
100
AcDbEntity
  8
1
  6
SLD-Сплошная
100
AcDbLine
 10
793.7664120156
 20
1249.6981447036
 30
0.0
 11
793.9315460552
 21
1250.3783878579
 31
0.0
  0
LINE
  5
2B1
330
1F
100
AcDbEntity
  8
1
  6
SLD-Сплошная
100
AcDbLine
 10
790.0444423163
 20
1251.3220109413
 30
0.0
 11
789.8793082767
 21
1250.641767787
 31
0.0
  0
LINE
  5
2B2
330
1F
100
AcDbEntity
  8
1
  6
SLD-Сплошная
100
AcDbLine
 10
791.0934940471
 20
1248.6490929728
 30
0.0
 11
791.7737372014
 21
1248.4839589332
 31
0.0
  0
LINE
  5
2B3
330
1F
100
AcDbEntity
  8
1
  6
SLD-Сплошная
100
AcDbLine
 10
792.7173602848
 20
1252.3710626721
 30
0.0
 11
792.0371171305
 21
1252.5361967117
 31
0.0
  0
CIRCLE
  5
2B4
330
1F
100
AcDbEntity
  8
1
  6
SLD-Сплошная
100
AcDbCircle
 10
791.9054271659
 20
1250.5100778225
 30
0.0
 40
4.999999999999972
  0
ARC
  5
2B5
330
1F
100
AcDbEntity
  8
1
  6
SLD-Сплошная
100
AcDbCircle
 10
909.1506951471
 20
1377.7553458037
 30
0.0
 40
26.5619554960163
100
AcDbArc
 50
223.8816987744
 51
226.1183012256
  0
ARC
  5
2B6
330
1F
100
AcDbEntity
  8
1
  6
SLD-Сплошная
100
AcDbCircle
 10
875.6640129297
 20
1376.5231007965
 30
0.0
 40
23.41191191654702
100
AcDbArc
 50
310.0824770913
 51
312.9865596106
  0
SPLINE
  5
2B7
330
1F
100
AcDbEntity
  8
1
  6
SLD-Сплошная
100
AcDbSpline
210
0.0
220
0.0
230
1.0
 70
     8
 71
     3
 72
    12
 73
     8
 74
     0
 42
0.00000001
 43
0.00000001
 40
0.0
 40
0.0
 40
0.0
 40
0.0
 40
0.2187857887072087
 40
0.4375776469534819
 40
0.6562353658863805
 40
0.8748419359491083
 40
1.0
 40
1.0
 40
1.0
 40
1.0
 10
892.1839728620752
 20
1359.396967328651
 30
0.0
 10
892.1486474652063
 20
1359.423930754723
 30
0.0
 10
892.0779956914738
 20
1359.477858354885
 30
0.0
 10
891.9440324628328
 20
1359.510454243858
 30
0.0
 10
891.8084898365528
 20
1359.501105112616
 30
0.0
 10
891.6995920322588
 20
1359.457226354534
 30
0.0
 10
891.6462883214529
 20
1359.413050796248
 30
0.0
 10
891.6268814698192
 20
1359.396967328651
 30
0.0
  0
ARC
  5
2B8
330
1F
100
AcDbEntity
  8
1
  6
SLD-Сплошная
100
AcDbCircle
 10
908.1468414024
 20
1376.5231007966
 30
0.0
 40
23.41191191673348
100
AcDbArc
 50
227.0134403895
 51
229.9175229086
  0
ARC
  5
2B9
330
1F
100
AcDbEntity
  8
1
  6
SLD-Сплошная
100
AcDbCircle
 10
874.6601591848
 20
1377.7553458037
 30
0.0
 40
26.56195549601637
100
AcDbArc
 50
313.8816987744
 51
316.1183012256
  0
ARC
  5
2BA
330
1F
100
AcDbEntity
  8
1
  6
SLD-Сплошная
100
AcDbCircle
 10
875.8924041922
 20
1344.2686635864
 30
0.0
 40
23.41191191616586
100
AcDbArc
 50
40.0824770913
 51
42.9865596106
  0
SPLINE
  5
2BB
330
1F
100
AcDbEntity
  8
1
  6
SLD-Сплошная
100
AcDbSpline
210
0.0
220
0.0
230
1.0
 70
     8
 71
     3
 72
    12
 73
     8
 74
     0
 42
0.00000001
 43
0.00000001
 40
0.0
 40
0.0
 40
0.0
 40
0.0
 40
0.2187857887071986
 40
0.4375776469534816
 40
0.6562353658863895
 40
0.8748419359490992
 40
1.0
 40
1.0
 40
1.0
 40
1.0
 10
893.0185376597594
 20
1360.788623518592
 30
0.0
 10
892.9915742336874
 20
1360.753298121723
 30
0.0
 10
892.9376466335258
 20
1360.68264634799
 30
0.0
 10
892.9050507445527
 20
1360.548683119349
 30
0.0
 10
892.9143998757949
 20
1360.413140493069
 30
0.0
 10
892.9582786338767
 20
1360.304242688775
 30
0.0
 10
893.0024541921632
 20
1360.250938977969
 30
0.0
 10
893.0185376597594
 20
1360.231532126336
 30
0.0
  0
ARC
  5
2BC
330
1F
100
AcDbEntity
  8
1
  6
SLD-Сплошная
100
AcDbCircle
 10
875.8924041922
 20
1376.7514920585
 30
0.0
 40
23.41191191616416
100
AcDbArc
 50
317.0134403894
 51
319.9175229087
  0
ARC
  5
2BD
330
1F
100
AcDbEntity
  8
1
  6
SLD-Сплошная
100
AcDbCircle
 10
874.6601591851
 20
1343.2648098416
 30
0.0
 40
26.56195549549145
100
AcDbArc
 50
43.8816987744
 51
46.1183012256
  0
ARC
  5
2BE
330
1F
100
AcDbEntity
  8
1
  6
SLD-Сплошная
100
AcDbCircle
 10
908.1468414021
 20
1344.4970548486
 30
0.0
 40
23.41191191632461
100
AcDbArc
 50
130.0824770913
 51
132.9865596106
  0
SPLINE
  5
2BF
330
1F
100
AcDbEntity
  8
1
  6
SLD-Сплошная
100
AcDbSpline
210
0.0
220
0.0
230
1.0
 70
     8
 71
     3
 72
    12
 73
     8
 74
     0
 42
0.00000001
 43
0.00000001
 40
0.0
 40
0.0
 40
0.0
 40
0.0
 40
0.218785788707212
 40
0.4375776469534823
 40
0.6562353658864029
 40
0.874841935949109
 40
1.0
 40
1.0
 40
1.0
 40
1.0
 10
891.6268814698192
 20
1361.623188316276
 30
0.0
 10
891.662206866688
 20
1361.596224890204
 30
0.0
 10
891.7328586404205
 20
1361.542297290042
 30
0.0
 10
891.8668218690615
 20
1361.509701401069
 30
0.0
 10
892.0023644953416
 20
1361.519050532311
 30
0.0
 10
892.1112622996354
 20
1361.562929290393
 30
0.0
 10
892.1645660104414
 20
1361.607104848679
 30
0.0
 10
892.183972862075
 20
1361.623188316276
 30
0.0
  0
ARC
  5
2C0
330
1F
100
AcDbEntity
  8
1
  6
SLD-Сплошная
100
AcDbCircle
 10
875.6640129297
 20
1344.4970548485
 30
0.0
 40
23.41191191645133
100
AcDbArc
 50
47.0134403894
 51
49.9175229087
  0
ARC
  5
2C1
330
1F
100
AcDbEntity
  8
1
  6
SLD-Сплошная
100
AcDbCircle
 10
909.1506951468
 20
1343.2648098416
 30
0.0
 40
26.56195549549137
100
AcDbArc
 50
133.8816987744
 51
136.1183012256
  0
ARC
  5
2C2
330
1F
100
AcDbEntity
  8
1
  6
SLD-Сплошная
100
AcDbCircle
 10
907.9184501396
 20
1376.7514920584
 30
0.0
 40
23.4119119160067
100
AcDbArc
 50
220.0824770913
 51
222.9865596106
  0
SPLINE
  5
2C3
330
1F
100
AcDbEntity
  8
1
  6
SLD-Сплошная
100
AcDbSpline
210
0.0
220
0.0
230
1.0
 70
     8
 71
     3
 72
    12
 73
     8
 74
     0
 42
0.00000001
 43
0.00000001
 40
0.0
 40
0.0
 40
0.0
 40
0.0
 40
0.2187857887071924
 40
0.4375776469534745
 40
0.6562353658863835
 40
0.8748419359490942
 40
1.0
 40
1.0
 40
1.0
 40
1.0
 10
890.7923166721349
 20
1360.231532126336
 30
0.0
 10
890.8192800982068
 20
1360.266857523204
 30
0.0
 10
890.8732076983684
 20
1360.337509296937
 30
0.0
 10
890.9058035873416
 20
1360.471472525578
 30
0.0
 10
890.8964544560994
 20
1360.607015151858
 30
0.0
 10
890.8525756980176
 20
1360.715912956152
 30
0.0
 10
890.8084001397311
 20
1360.769216666958
 30
0.0
 10
890.7923166721349
 20
1360.788623518592
 30
0.0
  0
ARC
  5
2C4
330
1F
100
AcDbEntity
  8
1
  6
SLD-Сплошная
100
AcDbCircle
 10
907.9184501396
 20
1344.2686635865
 30
0.0
 40
23.41191191600873
100
AcDbArc
 50
137.0134403894
 51
139.9175229087
  0
CIRCLE
  5
2C5
330
1F
100
AcDbEntity
  8
1
  6
SLD-Сплошная
100
AcDbCircle
 10
891.9054271659
 20
1360.5100778225
 30
0.0
 40
3.500000000000109
  0
ELLIPSE
  5
2C6
330
1F
100
AcDbEntity
  8
1
  6
SLD-Сплошная
100
AcDbEllipse
 10
891.9054271659
 20
1361.5794646037
 30
0.0
 11
0.0
 21
-0.4122489361059252
 31
0.0
210
0.0
220
0.0
230
1.0
 40
0.9702875252
 41
5.512866274278813
 42
7.053504340080373
  0
ELLIPSE
  5
2C7
330
1F
100
AcDbEntity
  8
1
  6
SLD-Сплошная
100
AcDbEllipse
 10
892.9748139472
 20
1360.5100778225
 30
0.0
 11
-0.4122489361056978
 21
0.0
 31
0.0
210
0.0
220
0.0
230
1.0
 40
0.9702875252
 41
5.512866274278816
 42
7.053504340080777
  0
ELLIPSE
  5
2C8
330
1F
100
AcDbEntity
  8
1
  6
SLD-Сплошная
100
AcDbEllipse
 10
890.8360403847
 20
1360.5100778225
 30
0.0
 11
0.4122489361056978
 21
0.0
 31
0.0
210
0.0
220
0.0
230
1.0
 40
0.9702875252
 41
5.512866274278693
 42
7.053504340080086
  0
ELLIPSE
  5
2C9
330
1F
100
AcDbEntity
  8
1
  6
SLD-Сплошная
100
AcDbEllipse
 10
891.9054271659
 20
1359.4406910412
 30
0.0
 11
0.0
 21
0.4122489361059252
 31
0.0
210
0.0
220
0.0
230
1.0
 40
0.9702875252
 41
5.512866274278813
 42
7.053504340080373
  0
LINE
  5
2CA
330
1F
100
AcDbEntity
  8
1
  6
SLD-Сплошная
100
AcDbLine
 10
893.0721533549
 20
1358.6102171687
 30
0.0
 11
893.0721533549
 21
1358.8483768867
 31
0.0
  0
LINE
  5
2CB
330
1F
100
AcDbEntity
  8
1
  6
SLD-Сплошная
100
AcDbLine
 10
892.1839728621
 20
1359.7365573795
 30
0.0
 11
893.0721533549
 21
1358.8483768867
 31
0.0
  0
LINE
  5
2CC
330
1F
100
AcDbEntity
  8
1
  6
SLD-Сплошная
100
AcDbLine
 10
890.738700977
 20
1362.4099384763
 30
0.0
 11
890.738700977
 21
1362.1717787583
 31
0.0
  0
LINE
  5
2CD
330
1F
100
AcDbEntity
  8
1
  6
SLD-Сплошная
100
AcDbLine
 10
891.6268814698
 20
1361.2835982654
 30
0.0
 11
890.738700977
 21
1362.1717787583
 31
0.0
  0
LINE
  5
2CE
330
1F
100
AcDbEntity
  8
1
  6
SLD-Сплошная
100
AcDbLine
 10
893.0721533549
 20
1362.4099384763
 30
0.0
 11
893.0721533549
 21
1362.1717787583
 31
0.0
  0
LINE
  5
2CF
330
1F
100
AcDbEntity
  8
1
  6
SLD-Сплошная
100
AcDbLine
 10
893.0721533549
 20
1362.1717787583
 30
0.0
 11
892.1839728621
 21
1361.2835982654
 31
0.0
  0
LINE
  5
2D0
330
1F
100
AcDbEntity
  8
1
  6
SLD-Сплошная
100
AcDbLine
 10
890.0055665121
 20
1359.3433516335
 30
0.0
 11
890.2437262302
 21
1359.3433516335
 31
0.0
  0
LINE
  5
2D1
330
1F
100
AcDbEntity
  8
1
  6
SLD-Сплошная
100
AcDbLine
 10
891.131906723
 20
1360.2315321263
 30
0.0
 11
890.2437262302
 21
1359.3433516335
 31
0.0
  0
LINE
  5
2D2
330
1F
100
AcDbEntity
  8
1
  6
SLD-Сплошная
100
AcDbLine
 10
890.738700977
 20
1358.6102171687
 30
0.0
 11
890.738700977
 21
1358.8483768867
 31
0.0
  0
LINE
  5
2D3
330
1F
100
AcDbEntity
  8
1
  6
SLD-Сплошная
100
AcDbLine
 10
890.738700977
 20
1358.8483768867
 30
0.0
 11
891.6268814698
 21
1359.7365573795
 31
0.0
  0
LINE
  5
2D4
330
1F
100
AcDbEntity
  8
1
  6
SLD-Сплошная
100
AcDbLine
 10
890.0055665121
 20
1361.6768040114
 30
0.0
 11
890.2437262302
 21
1361.6768040114
 31
0.0
  0
LINE
  5
2D5
330
1F
100
AcDbEntity
  8
1
  6
SLD-Сплошная
100
AcDbLine
 10
890.2437262302
 20
1361.6768040114
 30
0.0
 11
891.131906723
 21
1360.7886235186
 31
0.0
  0
LINE
  5
2D6
330
1F
100
AcDbEntity
  8
1
  6
SLD-Сплошная
100
AcDbLine
 10
893.8052878198
 20
1361.6768040114
 30
0.0
 11
893.5671281017
 21
1361.6768040114
 31
0.0
  0
LINE
  5
2D7
330
1F
100
AcDbEntity
  8
1
  6
SLD-Сплошная
100
AcDbLine
 10
892.6789476089
 20
1360.7886235186
 30
0.0
 11
893.5671281017
 21
1361.6768040114
 31
0.0
  0
LINE
  5
2D8
330
1F
100
AcDbEntity
  8
1
  6
SLD-Сплошная
100
AcDbLine
 10
893.8052878198
 20
1359.3433516335
 30
0.0
 11
893.5671281017
 21
1359.3433516335
 31
0.0
  0
LINE
  5
2D9
330
1F
100
AcDbEntity
  8
1
  6
SLD-Сплошная
100
AcDbLine
 10
893.5671281017
 20
1359.3433516335
 30
0.0
 11
892.6789476089
 21
1360.2315321263
 31
0.0
  0
LINE
  5
2DA
330
1F
100
AcDbEntity
  8
1
  6
SLD-Сплошная
100
AcDbLine
 10
893.0721533549
 20
1358.8483768867
 30
0.0
 11
893.5671281017
 21
1359.3433516335
 31
0.0
  0
LINE
  5
2DB
330
1F
100
AcDbEntity
  8
1
  6
SLD-Сплошная
100
AcDbLine
 10
893.5671281017
 20
1361.6768040114
 30
0.0
 11
893.0721533549
 21
1362.1717787583
 31
0.0
  0
LINE
  5
2DC
330
1F
100
AcDbEntity
  8
1
  6
SLD-Сплошная
100
AcDbLine
 10
890.2437262302
 20
1359.3433516335
 30
0.0
 11
890.738700977
 21
1358.8483768867
 31
0.0
  0
LINE
  5
2DD
330
1F
100
AcDbEntity
  8
1
  6
SLD-Сплошная
100
AcDbLine
 10
890.738700977
 20
1362.1717787583
 30
0.0
 11
890.2437262302
 21
1361.6768040114
 31
0.0
  0
CIRCLE
  5
2DE
330
1F
100
AcDbEntity
  8
1
  6
SLD-Сплошная
100
AcDbCircle
 10
891.9054271659
 20
1360.5100778225
 30
0.0
 40
5.000000000000121
  0
ARC
  5
2DF
330
1F
100
AcDbEntity
  8
1
  6
SLD-Сплошная
100
AcDbCircle
 10
992.1601591847
 20
1285.2553458037
 30
0.0
 40
26.56195549614489
100
AcDbArc
 50
313.8816987744
 51
316.1183012256
  0
ARC
  5
2E0
330
1F
100
AcDbEntity
  8
1
  6
SLD-Сплошная
100
AcDbCircle
 10
993.3924041918
 20
1251.7686635861
 30
0.0
 40
23.41191191673956
100
AcDbArc
 50
40.0824770913
 51
42.9865596105
  0
SPLINE
  5
2E1
330
1F
100
AcDbEntity
  8
1
  6
SLD-Сплошная
100
AcDbSpline
210
0.0
220
0.0
230
1.0
 70
     8
 71
     3
 72
    12
 73
     8
 74
     0
 42
0.00000001
 43
0.00000001
 40
0.0
 40
0.0
 40
0.0
 40
0.0
 40
0.2187857887072036
 40
0.4375776469534673
 40
0.6562353658863823
 40
0.8748419359490875
 40
1.0
 40
1.0
 40
1.0
 40
1.0
 10
1010.518537659759
 20
1268.288623518592
 30
0.0
 10
1010.491574233687
 20
1268.253298121723
 30
0.0
 10
1010.437646633526
 20
1268.18264634799
 30
0.0
 10
1010.405050744553
 20
1268.048683119349
 30
0.0
 10
1010.414399875795
 20
1267.913140493069
 30
0.0
 10
1010.458278633877
 20
1267.804242688775
 30
0.0
 10
1010.502454192163
 20
1267.750938977969
 30
0.0
 10
1010.518537659759
 20
1267.731532126336
 30
0.0
  0
ARC
  5
2E2
330
1F
100
AcDbEntity
  8
1
  6
SLD-Сплошная
100
AcDbCircle
 10
993.3924041921
 20
1284.2514920586
 30
0.0
 40
23.41191191631784
100
AcDbArc
 50
317.0134403894
 51
319.9175229087
  0
ARC
  5
2E3
330
1F
100
AcDbEntity
  8
1
  6
SLD-Сплошная
100
AcDbCircle
 10
992.1601591848
 20
1250.7648098413
 30
0.0
 40
26.56195549599604
100
AcDbArc
 50
43.8816987744
 51
46.1183012256
  0
ARC
  5
2E4
330
1F
100
AcDbEntity
  8
1
  6
SLD-Сплошная
100
AcDbCircle
 10
1025.6468414019
 20
1251.9970548488
 30
0.0
 40
23.4119119161047
100
AcDbArc
 50
130.0824770913
 51
132.9865596106
  0
SPLINE
  5
2E5
330
1F
100
AcDbEntity
  8
1
  6
SLD-Сплошная
100
AcDbSpline
210
0.0
220
0.0
230
1.0
 70
     8
 71
     3
 72
    12
 73
     8
 74
     0
 42
0.00000001
 43
0.00000001
 40
0.0
 40
0.0
 40
0.0
 40
0.0
 40
0.2187857887071698
 40
0.4375776469534907
 40
0.656235365886365
 40
0.8748419359491162
 40
1.0
 40
1.0
 40
1.0
 40
1.0
 10
1009.126881469819
 20
1269.123188316276
 30
0.0
 10
1009.162206866688
 20
1269.096224890204
 30
0.0
 10
1009.23285864042
 20
1269.042297290042
 30
0.0
 10
1009.366821869061
 20
1269.009701401069
 30
0.0
 10
1009.502364495341
 20
1269.019050532311
 30
0.0
 10
1009.611262299635
 20
1269.062929290393
 30
0.0
 10
1009.664566010441
 20
1269.107104848679
 30
0.0
 10
1009.683972862075
 20
1269.123188316276
 30
0.0
  0
ARC
  5
2E6
330
1F
100
AcDbEntity
  8
1
  6
SLD-Сплошная
100
AcDbCircle
 10
993.16401293
 20
1251.9970548488
 30
0.0
 40
23.41191191610599
100
AcDbArc
 50
47.0134403894
 51
49.9175229087
  0
ARC
  5
2E7
330
1F
100
AcDbEntity
  8
1
  6
SLD-Сплошная
100
AcDbCircle
 10
1026.6506951472
 20
1250.7648098412
 30
0.0
 40
26.56195549613127
100
AcDbArc
 50
133.8816987744
 51
136.1183012256
  0
ARC
  5
2E8
330
1F
100
AcDbEntity
  8
1
  6
SLD-Сплошная
100
AcDbCircle
 10
1025.4184501402
 20
1284.251492059
 30
0.0
 40
23.41191191690102
100
AcDbArc
 50
220.0824770914
 51
222.9865596105
  0
SPLINE
  5
2E9
330
1F
100
AcDbEntity
  8
1
  6
SLD-Сплошная
100
AcDbSpline
210
0.0
220
0.0
230
1.0
 70
     8
 71
     3
 72
    12
 73
     8
 74
     0
 42
0.00000001
 43
0.00000001
 40
0.0
 40
0.0
 40
0.0
 40
0.0
 40
0.2187857887071817
 40
0.4375776469534589
 40
0.6562353658863839
 40
0.8748419359490818
 40
1.0
 40
1.0
 40
1.0
 40
1.0
 10
1008.292316672135
 20
1267.731532126336
 30
0.0
 10
1008.319280098207
 20
1267.766857523204
 30
0.0
 10
1008.373207698368
 20
1267.837509296937
 30
0.0
 10
1008.405803587341
 20
1267.971472525578
 30
0.0
 10
1008.396454456099
 20
1268.107015151858
 30
0.0
 10
1008.352575698018
 20
1268.215912956152
 30
0.0
 10
1008.308400139731
 20
1268.269216666958
 30
0.0
 10
1008.292316672135
 20
1268.288623518592
 30
0.0
  0
ARC
  5
2EA
330
1F
100
AcDbEntity
  8
1
  6
SLD-Сплошная
100
AcDbCircle
 10
1025.4184501404
 20
1251.7686635858
 30
0.0
 40
23.41191191710437
100
AcDbArc
 50
137.0134403895
 51
139.9175229086
  0
ARC
  5
2EB
330
1F
100
AcDbEntity
  8
1
  6
SLD-Сплошная
100
AcDbCircle
 10
1026.6506951471
 20
1285.2553458036
 30
0.0
 40
26.56195549590116
100
AcDbArc
 50
223.8816987744
 51
226.1183012256
  0
ARC
  5
2EC
330
1F
100
AcDbEntity
  8
1
  6
SLD-Сплошная
100
AcDbCircle
 10
993.1640129301
 20
1284.023100796
 30
0.0
 40
23.41191191596279
100
AcDbArc
 50
310.0824770913
 51
312.9865596106
  0
SPLINE
  5
2ED
330
1F
100
AcDbEntity
  8
1
  6
SLD-Сплошная
100
AcDbSpline
210
0.0
220
0.0
230
1.0
 70
     8
 71
     3
 72
    12
 73
     8
 74
     0
 42
0.00000001
 43
0.00000001
 40
0.0
 40
0.0
 40
0.0
 40
0.0
 40
0.2187857887072127
 40
0.4375776469534849
 40
0.6562353658864042
 40
0.8748419359491036
 40
1.0
 40
1.0
 40
1.0
 40
1.0
 10
1009.683972862075
 20
1266.896967328651
 30
0.0
 10
1009.648647465206
 20
1266.923930754723
 30
0.0
 10
1009.577995691474
 20
1266.977858354885
 30
0.0
 10
1009.444032462833
 20
1267.010454243858
 30
0.0
 10
1009.308489836553
 20
1267.001105112616
 30
0.0
 10
1009.199592032259
 20
1266.957226354534
 30
0.0
 10
1009.146288321453
 20
1266.913050796248
 30
0.0
 10
1009.126881469819
 20
1266.896967328651
 30
0.0
  0
ARC
  5
2EE
330
1F
100
AcDbEntity
  8
1
  6
SLD-Сплошная
100
AcDbCircle
 10
1025.6468414018
 20
1284.023100796
 30
0.0
 40
23.41191191596174
100
AcDbArc
 50
227.0134403894
 51
229.9175229087
  0
CIRCLE
  5
2EF
330
1F
100
AcDbEntity
  8
1
  6
SLD-Сплошная
100
AcDbCircle
 10
1009.4054271659
 20
1268.0100778225
 30
0.0
 40
3.500000000000028
  0
ELLIPSE
  5
2F0
330
1F
100
AcDbEntity
  8
1
  6
SLD-Сплошная
100
AcDbEllipse
 10
1009.4054271659
 20
1266.9406910412
 30
0.0
 11
0.0
 21
0.4122489361056978
 31
0.0
210
0.0
220
0.0
230
1.0
 40
0.9702875252
 41
5.512866274278538
 42
7.053504340080444
  0
ELLIPSE
  5
2F1
330
1F
100
AcDbEntity
  8
1
  6
SLD-Сплошная
100
AcDbEllipse
 10
1009.4054271659
 20
1269.0794646037
 30
0.0
 11
0.0
 21
-0.4122489361059252
 31
0.0
210
0.0
220
0.0
230
1.0
 40
0.9702875252
 41
5.512866274278324
 42
7.053504340081066
  0
ELLIPSE
  5
2F2
330
1F
100
AcDbEntity
  8
1
  6
SLD-Сплошная
100
AcDbEllipse
 10
1010.4748139472
 20
1268.0100778225
 30
0.0
 11
-0.4122489361055841
 21
0.0
 31
0.0
210
0.0
220
0.0
230
1.0
 40
0.9702875252
 41
5.512866274278639
 42
7.05350434008014
  0
ELLIPSE
  5
2F3
330
1F
100
AcDbEntity
  8
1
  6
SLD-Сплошная
100
AcDbEllipse
 10
1008.3360403847
 20
1268.0100778225
 30
0.0
 11
0.4122489361058115
 21
0.0
 31
0.0
210
0.0
220
0.0
230
1.0
 40
0.9702875252
 41
5.512866274279155
 42
7.05350434008044
  0
LINE
  5
2F4
330
1F
100
AcDbEntity
  8
1
  6
SLD-Сплошная
100
AcDbLine
 10
1008.238700977
 20
1266.1102171687
 30
0.0
 11
1008.238700977
 21
1266.3483768867
 31
0.0
  0
LINE
  5
2F5
330
1F
100
AcDbEntity
  8
1
  6
SLD-Сплошная
100
AcDbLine
 10
1008.238700977
 20
1266.3483768867
 30
0.0
 11
1009.1268814698
 21
1267.2365573795
 31
0.0
  0
LINE
  5
2F6
330
1F
100
AcDbEntity
  8
1
  6
SLD-Сплошная
100
AcDbLine
 10
1007.5055665121
 20
1266.8433516335
 30
0.0
 11
1007.7437262302
 21
1266.8433516335
 31
0.0
  0
LINE
  5
2F7
330
1F
100
AcDbEntity
  8
1
  6
SLD-Сплошная
100
AcDbLine
 10
1008.631906723
 20
1267.7315321263
 30
0.0
 11
1007.7437262302
 21
1266.8433516335
 31
0.0
  0
LINE
  5
2F8
330
1F
100
AcDbEntity
  8
1
  6
SLD-Сплошная
100
AcDbLine
 10
1011.3052878198
 20
1266.8433516335
 30
0.0
 11
1011.0671281017
 21
1266.8433516335
 31
0.0
  0
LINE
  5
2F9
330
1F
100
AcDbEntity
  8
1
  6
SLD-Сплошная
100
AcDbLine
 10
1011.0671281017
 20
1266.8433516335
 30
0.0
 11
1010.1789476089
 21
1267.7315321263
 31
0.0
  0
LINE
  5
2FA
330
1F
100
AcDbEntity
  8
1
  6
SLD-Сплошная
100
AcDbLine
 10
1010.5721533549
 20
1266.1102171687
 30
0.0
 11
1010.5721533549
 21
1266.3483768867
 31
0.0
  0
LINE
  5
2FB
330
1F
100
AcDbEntity
  8
1
  6
SLD-Сплошная
100
AcDbLine
 10
1009.6839728621
 20
1267.2365573795
 30
0.0
 11
1010.5721533549
 21
1266.3483768867
 31
0.0
  0
LINE
  5
2FC
330
1F
100
AcDbEntity
  8
1
  6
SLD-Сплошная
100
AcDbLine
 10
1007.5055665121
 20
1269.1768040114
 30
0.0
 11
1007.7437262302
 21
1269.1768040114
 31
0.0
  0
LINE
  5
2FD
330
1F
100
AcDbEntity
  8
1
  6
SLD-Сплошная
100
AcDbLine
 10
1007.7437262302
 20
1269.1768040114
 30
0.0
 11
1008.631906723
 21
1268.2886235186
 31
0.0
  0
LINE
  5
2FE
330
1F
100
AcDbEntity
  8
1
  6
SLD-Сплошная
100
AcDbLine
 10
1010.5721533549
 20
1269.9099384763
 30
0.0
 11
1010.5721533549
 21
1269.6717787583
 31
0.0
  0
LINE
  5
2FF
330
1F
100
AcDbEntity
  8
1
  6
SLD-Сплошная
100
AcDbLine
 10
1010.5721533549
 20
1269.6717787583
 30
0.0
 11
1009.6839728621
 21
1268.7835982654
 31
0.0
  0
LINE
  5
300
330
1F
100
AcDbEntity
  8
1
  6
SLD-Сплошная
100
AcDbLine
 10
1008.238700977
 20
1269.9099384763
 30
0.0
 11
1008.238700977
 21
1269.6717787583
 31
0.0
  0
LINE
  5
301
330
1F
100
AcDbEntity
  8
1
  6
SLD-Сплошная
100
AcDbLine
 10
1009.1268814698
 20
1268.7835982654
 30
0.0
 11
1008.238700977
 21
1269.6717787583
 31
0.0
  0
LINE
  5
302
330
1F
100
AcDbEntity
  8
1
  6
SLD-Сплошная
100
AcDbLine
 10
1011.3052878198
 20
1269.1768040114
 30
0.0
 11
1011.0671281017
 21
1269.1768040114
 31
0.0
  0
LINE
  5
303
330
1F
100
AcDbEntity
  8
1
  6
SLD-Сплошная
100
AcDbLine
 10
1010.1789476089
 20
1268.2886235186
 30
0.0
 11
1011.0671281017
 21
1269.1768040114
 31
0.0
  0
LINE
  5
304
330
1F
100
AcDbEntity
  8
1
  6
SLD-Сплошная
100
AcDbLine
 10
1007.7437262302
 20
1266.8433516335
 30
0.0
 11
1008.238700977
 21
1266.3483768867
 31
0.0
  0
LINE
  5
305
330
1F
100
AcDbEntity
  8
1
  6
SLD-Сплошная
100
AcDbLine
 10
1010.5721533549
 20
1266.3483768867
 30
0.0
 11
1011.0671281017
 21
1266.8433516335
 31
0.0
  0
LINE
  5
306
330
1F
100
AcDbEntity
  8
1
  6
SLD-Сплошная
100
AcDbLine
 10
1008.238700977
 20
1269.6717787583
 30
0.0
 11
1007.7437262302
 21
1269.1768040114
 31
0.0
  0
LINE
  5
307
330
1F
100
AcDbEntity
  8
1
  6
SLD-Сплошная
100
AcDbLine
 10
1011.0671281017
 20
1269.1768040114
 30
0.0
 11
1010.5721533549
 21
1269.6717787583
 31
0.0
  0
CIRCLE
  5
308
330
1F
100
AcDbEntity
  8
1
  6
SLD-Сплошная
100
AcDbCircle
 10
1009.4054271659
 20
1268.0100778225
 30
0.0
 40
4.999999999999879
  0
ARC
  5
309
330
1F
100
AcDbEntity
  8
1
  6
SLD-Сплошная
100
AcDbCircle
 10
557.1601591845
 20
1285.2553458039
 30
0.0
 40
26.56195549634293
100
AcDbArc
 50
313.8816987744
 51
316.1183012256
  0
ARC
  5
30A
330
1F
100
AcDbEntity
  8
1
  6
SLD-Сплошная
100
AcDbCircle
 10
558.392404192
 20
1251.7686635862
 30
0.0
 40
23.41191191651586
100
AcDbArc
 50
40.0824770913
 51
42.9865596106
  0
SPLINE
  5
30B
330
1F
100
AcDbEntity
  8
1
  6
SLD-Сплошная
100
AcDbSpline
210
0.0
220
0.0
230
1.0
 70
     8
 71
     3
 72
    12
 73
     8
 74
     0
 42
0.00000001
 43
0.00000001
 40
0.0
 40
0.0
 40
0.0
 40
0.0
 40
0.2187857887072036
 40
0.4375776469534673
 40
0.6562353658863823
 40
0.8748419359490875
 40
1.0
 40
1.0
 40
1.0
 40
1.0
 10
575.5185376597593
 20
1268.288623518592
 30
0.0
 10
575.4915742336874
 20
1268.253298121723
 30
0.0
 10
575.4376466335258
 20
1268.18264634799
 30
0.0
 10
575.4050507445526
 20
1268.048683119349
 30
0.0
 10
575.4143998757949
 20
1267.913140493069
 30
0.0
 10
575.4582786338767
 20
1267.804242688775
 30
0.0
 10
575.5024541921632
 20
1267.750938977969
 30
0.0
 10
575.5185376597593
 20
1267.731532126336
 30
0.0
  0
ARC
  5
30C
330
1F
100
AcDbEntity
  8
1
  6
SLD-Сплошная
100
AcDbCircle
 10
558.3924041923
 20
1284.2514920584
 30
0.0
 40
23.41191191609399
100
AcDbArc
 50
317.0134403894
 51
319.9175229087
  0
ARC
  5
30D
330
1F
100
AcDbEntity
  8
1
  6
SLD-Сплошная
100
AcDbCircle
 10
557.1601591847
 20
1250.7648098412
 30
0.0
 40
26.56195549605326
100
AcDbArc
 50
43.8816987744
 51
46.1183012256
  0
ARC
  5
30E
330
1F
100
AcDbEntity
  8
1
  6
SLD-Сплошная
100
AcDbCircle
 10
590.646841402
 20
1251.9970548487
 30
0.0
 40
23.41191191620516
100
AcDbArc
 50
130.0824770913
 51
132.9865596106
  0
SPLINE
  5
30F
330
1F
100
AcDbEntity
  8
1
  6
SLD-Сплошная
100
AcDbSpline
210
0.0
220
0.0
230
1.0
 70
     8
 71
     3
 72
    12
 73
     8
 74
     0
 42
0.00000001
 43
0.00000001
 40
0.0
 40
0.0
 40
0.0
 40
0.0
 40
0.2187857887071698
 40
0.4375776469534907
 40
0.656235365886365
 40
0.8748419359491162
 40
1.0
 40
1.0
 40
1.0
 40
1.0
 10
574.1268814698191
 20
1269.123188316276
 30
0.0
 10
574.162206866688
 20
1269.096224890204
 30
0.0
 10
574.2328586404204
 20
1269.042297290042
 30
0.0
 10
574.3668218690614
 20
1269.009701401069
 30
0.0
 10
574.5023644953415
 20
1269.019050532311
 30
0.0
 10
574.6112622996354
 20
1269.062929290393
 30
0.0
 10
574.6645660104413
 20
1269.107104848679
 30
0.0
 10
574.6839728620752
 20
1269.123188316276
 30
0.0
  0
ARC
  5
310
330
1F
100
AcDbEntity
  8
1
  6
SLD-Сплошная
100
AcDbCircle
 10
558.1640129298
 20
1251.9970548486
 30
0.0
 40
23.41191191635191
100
AcDbArc
 50
47.0134403894
 51
49.9175229087
  0
ARC
  5
311
330
1F
100
AcDbEntity
  8
1
  6
SLD-Сплошная
100
AcDbCircle
 10
591.6506951474
 20
1250.764809841
 30
0.0
 40
26.56195549644794
100
AcDbArc
 50
133.8816987744
 51
136.1183012256
  0
ARC
  5
312
330
1F
100
AcDbEntity
  8
1
  6
SLD-Сплошная
100
AcDbCircle
 10
590.4184501396
 20
1284.2514920584
 30
0.0
 40
23.41191191609407
100
AcDbArc
 50
220.0824770913
 51
222.9865596106
  0
SPLINE
  5
313
330
1F
100
AcDbEntity
  8
1
  6
SLD-Сплошная
100
AcDbSpline
210
0.0
220
0.0
230
1.0
 70
     8
 71
     3
 72
    12
 73
     8
 74
     0
 42
0.00000001
 43
0.00000001
 40
0.0
 40
0.0
 40
0.0
 40
0.0
 40
0.2187857887071817
 40
0.4375776469534589
 40
0.6562353658863839
 40
0.8748419359490818
 40
1.0
 40
1.0
 40
1.0
 40
1.0
 10
573.2923166721349
 20
1267.731532126336
 30
0.0
 10
573.3192800982068
 20
1267.766857523204
 30
0.0
 10
573.3732076983684
 20
1267.837509296937
 30
0.0
 10
573.4058035873416
 20
1267.971472525578
 30
0.0
 10
573.3964544560995
 20
1268.107015151858
 30
0.0
 10
573.3525756980175
 20
1268.215912956152
 30
0.0
 10
573.308400139731
 20
1268.269216666958
 30
0.0
 10
573.2923166721349
 20
1268.288623518592
 30
0.0
  0
ARC
  5
314
330
1F
100
AcDbEntity
  8
1
  6
SLD-Сплошная
100
AcDbCircle
 10
590.4184501397
 20
1251.7686635864
 30
0.0
 40
23.41191191620978
100
AcDbArc
 50
137.0134403894
 51
139.9175229087
  0
ARC
  5
315
330
1F
100
AcDbEntity
  8
1
  6
SLD-Сплошная
100
AcDbCircle
 10
591.6506951473
 20
1285.2553458038
 30
0.0
 40
26.56195549627016
100
AcDbArc
 50
223.8816987744
 51
226.1183012256
  0
ARC
  5
316
330
1F
100
AcDbEntity
  8
1
  6
SLD-Сплошная
100
AcDbCircle
 10
558.1640129299
 20
1284.0231007962
 30
0.0
 40
23.41191191620912
100
AcDbArc
 50
310.0824770913
 51
312.9865596106
  0
SPLINE
  5
317
330
1F
100
AcDbEntity
  8
1
  6
SLD-Сплошная
100
AcDbSpline
210
0.0
220
0.0
230
1.0
 70
     8
 71
     3
 72
    12
 73
     8
 74
     0
 42
0.00000001
 43
0.00000001
 40
0.0
 40
0.0
 40
0.0
 40
0.0
 40
0.2187857887072127
 40
0.4375776469534849
 40
0.6562353658864042
 40
0.8748419359491036
 40
1.0
 40
1.0
 40
1.0
 40
1.0
 10
574.6839728620752
 20
1266.896967328651
 30
0.0
 10
574.6486474652062
 20
1266.923930754723
 30
0.0
 10
574.5779956914738
 20
1266.977858354885
 30
0.0
 10
574.4440324628329
 20
1267.010454243858
 30
0.0
 10
574.3084898365528
 20
1267.001105112616
 30
0.0
 10
574.1995920322589
 20
1266.957226354534
 30
0.0
 10
574.146288321453
 20
1266.913050796248
 30
0.0
 10
574.1268814698191
 20
1266.896967328651
 30
0.0
  0
ARC
  5
318
330
1F
100
AcDbEntity
  8
1
  6
SLD-Сплошная
100
AcDbCircle
 10
590.646841402
 20
1284.0231007962
 30
0.0
 40
23.41191191616311
100
AcDbArc
 50
227.0134403894
 51
229.9175229087
  0
CIRCLE
  5
319
330
1F
100
AcDbEntity
  8
1
  6
SLD-Сплошная
100
AcDbCircle
 10
574.4054271659
 20
1268.0100778225
 30
0.0
 40
3.499999999999948
  0
ELLIPSE
  5
31A
330
1F
100
AcDbEntity
  8
1
  6
SLD-Сплошная
100
AcDbEllipse
 10
574.4054271659
 20
1266.9406910412
 30
0.0
 11
0.0
 21
0.4122489361056978
 31
0.0
210
0.0
220
0.0
230
1.0
 40
0.9702875252
 41
5.512866274278742
 42
7.053504340080444
  0
ELLIPSE
  5
31B
330
1F
100
AcDbEntity
  8
1
  6
SLD-Сплошная
100
AcDbEllipse
 10
575.4748139472
 20
1268.0100778225
 30
0.0
 11
-0.4122489361055841
 21
0.0
 31
0.0
210
0.0
220
0.0
230
1.0
 40
0.9702875252
 41
5.512866274278446
 42
7.053504340080332
  0
ELLIPSE
  5
31C
330
1F
100
AcDbEntity
  8
1
  6
SLD-Сплошная
100
AcDbEllipse
 10
574.4054271659
 20
1269.0794646037
 30
0.0
 11
0.0
 21
-0.4122489361059252
 31
0.0
210
0.0
220
0.0
230
1.0
 40
0.9702875252
 41
5.512866274278466
 42
7.053504340080719
  0
ELLIPSE
  5
31D
330
1F
100
AcDbEntity
  8
1
  6
SLD-Сплошная
100
AcDbEllipse
 10
573.3360403847
 20
1268.0100778225
 30
0.0
 11
0.4122489361055841
 21
0.0
 31
0.0
210
0.0
220
0.0
230
1.0
 40
0.9702875252
 41
5.512866274278854
 42
7.05350434008074
  0
LINE
  5
31E
330
1F
100
AcDbEntity
  8
1
  6
SLD-Сплошная
100
AcDbLine
 10
576.3052878198
 20
1266.8433516335
 30
0.0
 11
576.0671281017
 21
1266.8433516335
 31
0.0
  0
LINE
  5
31F
330
1F
100
AcDbEntity
  8
1
  6
SLD-Сплошная
100
AcDbLine
 10
576.0671281017
 20
1266.8433516335
 30
0.0
 11
575.1789476089
 21
1267.7315321263
 31
0.0
  0
LINE
  5
320
330
1F
100
AcDbEntity
  8
1
  6
SLD-Сплошная
100
AcDbLine
 10
572.5055665121
 20
1266.8433516335
 30
0.0
 11
572.7437262302
 21
1266.8433516335
 31
0.0
  0
LINE
  5
321
330
1F
100
AcDbEntity
  8
1
  6
SLD-Сплошная
100
AcDbLine
 10
573.631906723
 20
1267.7315321263
 30
0.0
 11
572.7437262302
 21
1266.8433516335
 31
0.0
  0
LINE
  5
322
330
1F
100
AcDbEntity
  8
1
  6
SLD-Сплошная
100
AcDbLine
 10
573.238700977
 20
1266.1102171687
 30
0.0
 11
573.238700977
 21
1266.3483768867
 31
0.0
  0
LINE
  5
323
330
1F
100
AcDbEntity
  8
1
  6
SLD-Сплошная
100
AcDbLine
 10
573.238700977
 20
1266.3483768867
 30
0.0
 11
574.1268814698
 21
1267.2365573795
 31
0.0
  0
LINE
  5
324
330
1F
100
AcDbEntity
  8
1
  6
SLD-Сплошная
100
AcDbLine
 10
575.5721533549
 20
1266.1102171687
 30
0.0
 11
575.5721533549
 21
1266.3483768867
 31
0.0
  0
LINE
  5
325
330
1F
100
AcDbEntity
  8
1
  6
SLD-Сплошная
100
AcDbLine
 10
574.6839728621
 20
1267.2365573795
 30
0.0
 11
575.5721533549
 21
1266.3483768867
 31
0.0
  0
LINE
  5
326
330
1F
100
AcDbEntity
  8
1
  6
SLD-Сплошная
100
AcDbLine
 10
572.5055665121
 20
1269.1768040114
 30
0.0
 11
572.7437262302
 21
1269.1768040114
 31
0.0
  0
LINE
  5
327
330
1F
100
AcDbEntity
  8
1
  6
SLD-Сплошная
100
AcDbLine
 10
572.7437262302
 20
1269.1768040114
 30
0.0
 11
573.631906723
 21
1268.2886235186
 31
0.0
  0
LINE
  5
328
330
1F
100
AcDbEntity
  8
1
  6
SLD-Сплошная
100
AcDbLine
 10
575.5721533549
 20
1269.9099384763
 30
0.0
 11
575.5721533549
 21
1269.6717787583
 31
0.0
  0
LINE
  5
329
330
1F
100
AcDbEntity
  8
1
  6
SLD-Сплошная
100
AcDbLine
 10
575.5721533549
 20
1269.6717787583
 30
0.0
 11
574.6839728621
 21
1268.7835982654
 31
0.0
  0
LINE
  5
32A
330
1F
100
AcDbEntity
  8
1
  6
SLD-Сплошная
100
AcDbLine
 10
576.3052878198
 20
1269.1768040114
 30
0.0
 11
576.0671281017
 21
1269.1768040114
 31
0.0
  0
LINE
  5
32B
330
1F
100
AcDbEntity
  8
1
  6
SLD-Сплошная
100
AcDbLine
 10
575.1789476089
 20
1268.2886235186
 30
0.0
 11
576.0671281017
 21
1269.1768040114
 31
0.0
  0
LINE
  5
32C
330
1F
100
AcDbEntity
  8
1
  6
SLD-Сплошная
100
AcDbLine
 10
573.238700977
 20
1269.9099384763
 30
0.0
 11
573.238700977
 21
1269.6717787583
 31
0.0
  0
LINE
  5
32D
330
1F
100
AcDbEntity
  8
1
  6
SLD-Сплошная
100
AcDbLine
 10
574.1268814698
 20
1268.7835982654
 30
0.0
 11
573.238700977
 21
1269.6717787583
 31
0.0
  0
LINE
  5
32E
330
1F
100
AcDbEntity
  8
1
  6
SLD-Сплошная
100
AcDbLine
 10
572.7437262302
 20
1266.8433516335
 30
0.0
 11
573.238700977
 21
1266.3483768867
 31
0.0
  0
LINE
  5
32F
330
1F
100
AcDbEntity
  8
1
  6
SLD-Сплошная
100
AcDbLine
 10
575.5721533549
 20
1266.3483768867
 30
0.0
 11
576.0671281017
 21
1266.8433516335
 31
0.0
  0
LINE
  5
330
330
1F
100
AcDbEntity
  8
1
  6
SLD-Сплошная
100
AcDbLine
 10
573.238700977
 20
1269.6717787583
 30
0.0
 11
572.7437262302
 21
1269.1768040114
 31
0.0
  0
LINE
  5
331
330
1F
100
AcDbEntity
  8
1
  6
SLD-Сплошная
100
AcDbLine
 10
576.0671281017
 20
1269.1768040114
 30
0.0
 11
575.5721533549
 21
1269.6717787583
 31
0.0
  0
CIRCLE
  5
332
330
1F
100
AcDbEntity
  8
1
  6
SLD-Сплошная
100
AcDbCircle
 10
574.4054271659
 20
1268.0100778225
 30
0.0
 40
4.99999999999996
  0
ARC
  5
333
330
1F
100
AcDbEntity
  8
1
  6
SLD-Сплошная
100
AcDbCircle
 10
874.6601591851
 20
1267.7553458033
 30
0.0
 40
26.56195549548887
100
AcDbArc
 50
313.8816987744
 51
316.1183012256
  0
ARC
  5
334
330
1F
100
AcDbEntity
  8
1
  6
SLD-Сплошная
100
AcDbCircle
 10
875.8924041924
 20
1234.2686635866
 30
0.0
 40
23.41191191587271
100
AcDbArc
 50
40.0824770913
 51
42.9865596106
  0
SPLINE
  5
335
330
1F
100
AcDbEntity
  8
1
  6
SLD-Сплошная
100
AcDbSpline
210
0.0
220
0.0
230
1.0
 70
     8
 71
     3
 72
    12
 73
     8
 74
     0
 42
0.00000001
 43
0.00000001
 40
0.0
 40
0.0
 40
0.0
 40
0.0
 40
0.2187857887071764
 40
0.4375776469534876
 40
0.6562353658863611
 40
0.874841935949103
 40
0.9999999999999999
 40
0.9999999999999999
 40
0.9999999999999999
 40
0.9999999999999999
 10
893.0185376597594
 20
1250.788623518592
 30
0.0
 10
892.9915742336874
 20
1250.753298121723
 30
0.0
 10
892.9376466335258
 20
1250.68264634799
 30
0.0
 10
892.9050507445527
 20
1250.548683119349
 30
0.0
 10
892.9143998757949
 20
1250.413140493069
 30
0.0
 10
892.9582786338766
 20
1250.304242688775
 30
0.0
 10
893.0024541921631
 20
1250.25093897797
 30
0.0
 10
893.0185376597594
 20
1250.231532126335
 30
0.0
  0
ARC
  5
336
330
1F
100
AcDbEntity
  8
1
  6
SLD-Сплошная
100
AcDbCircle
 10
875.8924041923
 20
1266.7514920584
 30
0.0
 40
23.41191191607373
100
AcDbArc
 50
317.0134403894
 51
319.9175229087
  0
ARC
  5
337
330
1F
100
AcDbEntity
  8
1
  6
SLD-Сплошная
100
AcDbCircle
 10
874.6601591848
 20
1233.2648098413
 30
0.0
 40
26.56195549601621
100
AcDbArc
 50
43.8816987744
 51
46.1183012256
  0
ARC
  5
338
330
1F
100
AcDbEntity
  8
1
  6
SLD-Сплошная
100
AcDbCircle
 10
908.1468414024
 20
1234.4970548482
 30
0.0
 40
23.41191191683541
100
AcDbArc
 50
130.0824770914
 51
132.9865596105
  0
SPLINE
  5
339
330
1F
100
AcDbEntity
  8
1
  6
SLD-Сплошная
100
AcDbSpline
210
0.0
220
0.0
230
1.0
 70
     8
 71
     3
 72
    12
 73
     8
 74
     0
 42
0.00000001
 43
0.00000001
 40
0.0
 40
0.0
 40
0.0
 40
0.0
 40
0.2187857887071817
 40
0.4375776469534588
 40
0.6562353658863838
 40
0.8748419359490818
 40
1.0
 40
1.0
 40
1.0
 40
1.0
 10
891.6268814698192
 20
1251.623188316276
 30
0.0
 10
891.662206866688
 20
1251.596224890204
 30
0.0
 10
891.7328586404205
 20
1251.542297290042
 30
0.0
 10
891.8668218690615
 20
1251.509701401069
 30
0.0
 10
892.0023644953415
 20
1251.519050532311
 30
0.0
 10
892.1112622996354
 20
1251.562929290393
 30
0.0
 10
892.1645660104414
 20
1251.60710484868
 30
0.0
 10
892.183972862075
 20
1251.623188316276
 30
0.0
  0
ARC
  5
33A
330
1F
100
AcDbEntity
  8
1
  6
SLD-Сплошная
100
AcDbCircle
 10
875.6640129295
 20
1234.4970548483
 30
0.0
 40
23.41191191672623
100
AcDbArc
 50
47.0134403895
 51
49.9175229086
  0
ARC
  5
33B
330
1F
100
AcDbEntity
  8
1
  6
SLD-Сплошная
100
AcDbCircle
 10
909.1506951469
 20
1233.2648098415
 30
0.0
 40
26.56195549573474
100
AcDbArc
 50
133.8816987744
 51
136.1183012256
  0
ARC
  5
33C
330
1F
100
AcDbEntity
  8
1
  6
SLD-Сплошная
100
AcDbCircle
 10
907.9184501395
 20
1266.7514920583
 30
0.0
 40
23.41191191591645
100
AcDbArc
 50
220.0824770913
 51
222.9865596106
  0
SPLINE
  5
33D
330
1F
100
AcDbEntity
  8
1
  6
SLD-Сплошная
100
AcDbSpline
210
0.0
220
0.0
230
1.0
 70
     8
 71
     3
 72
    12
 73
     8
 74
     0
 42
0.00000001
 43
0.00000001
 40
0.0
 40
0.0
 40
0.0
 40
0.0
 40
0.2187857887072047
 40
0.4375776469534796
 40
0.6562353658863966
 40
0.874841935949104
 40
1.0
 40
1.0
 40
1.0
 40
1.0
 10
890.7923166721349
 20
1250.231532126335
 30
0.0
 10
890.8192800982068
 20
1250.266857523205
 30
0.0
 10
890.8732076983684
 20
1250.337509296937
 30
0.0
 10
890.9058035873416
 20
1250.471472525578
 30
0.0
 10
890.8964544560995
 20
1250.607015151858
 30
0.0
 10
890.8525756980175
 20
1250.715912956152
 30
0.0
 10
890.8084001397311
 20
1250.769216666958
 30
0.0
 10
890.7923166721349
 20
1250.788623518592
 30
0.0
  0
ARC
  5
33E
330
1F
100
AcDbEntity
  8
1
  6
SLD-Сплошная
100
AcDbCircle
 10
907.9184501393
 20
1234.2686635867
 30
0.0
 40
23.41191191571526
100
AcDbArc
 50
137.0134403894
 51
139.9175229087
  0
ARC
  5
33F
330
1F
100
AcDbEntity
  8
1
  6
SLD-Сплошная
100
AcDbCircle
 10
909.1506951468
 20
1267.7553458033
 30
0.0
 40
26.56195549548872
100
AcDbArc
 50
223.8816987744
 51
226.1183012256
  0
ARC
  5
340
330
1F
100
AcDbEntity
  8
1
  6
SLD-Сплошная
100
AcDbCircle
 10
875.6640129298
 20
1266.5231007964
 30
0.0
 40
23.41191191639023
100
AcDbArc
 50
310.0824770913
 51
312.9865596106
  0
SPLINE
  5
341
330
1F
100
AcDbEntity
  8
1
  6
SLD-Сплошная
100
AcDbSpline
210
0.0
220
0.0
230
1.0
 70
     8
 71
     3
 72
    12
 73
     8
 74
     0
 42
0.00000001
 43
0.00000001
 40
0.0
 40
0.0
 40
0.0
 40
0.0
 40
0.2187857887072036
 40
0.4375776469534673
 40
0.6562353658863823
 40
0.8748419359490875
 40
1.0
 40
1.0
 40
1.0
 40
1.0
 10
892.183972862075
 20
1249.396967328651
 30
0.0
 10
892.1486474652062
 20
1249.423930754723
 30
0.0
 10
892.0779956914737
 20
1249.477858354885
 30
0.0
 10
891.9440324628329
 20
1249.510454243858
 30
0.0
 10
891.8084898365528
 20
1249.501105112616
 30
0.0
 10
891.6995920322588
 20
1249.457226354534
 30
0.0
 10
891.6462883214529
 20
1249.413050796247
 30
0.0
 10
891.6268814698192
 20
1249.396967328651
 30
0.0
  0
ARC
  5
342
330
1F
100
AcDbEntity
  8
1
  6
SLD-Сплошная
100
AcDbCircle
 10
908.1468414021
 20
1266.5231007964
 30
0.0
 40
23.41191191639014
100
AcDbArc
 50
227.0134403894
 51
229.9175229087
  0
CIRCLE
  5
343
330
1F
100
AcDbEntity
  8
1
  6
SLD-Сплошная
100
AcDbCircle
 10
891.9054271659
 20
1250.5100778225
 30
0.0
 40
3.500000000000109
  0
ELLIPSE
  5
344
330
1F
100
AcDbEntity
  8
1
  6
SLD-Сплошная
100
AcDbEllipse
 10
890.8360403847
 20
1250.5100778225
 30
0.0
 11
0.4122489361056978
 21
0.0
 31
0.0
210
0.0
220
0.0
230
1.0
 40
0.9702875252
 41
5.512866274278284
 42
7.053504340080494
  0
ELLIPSE
  5
345
330
1F
100
AcDbEntity
  8
1
  6
SLD-Сплошная
100
AcDbEllipse
 10
892.9748139472
 20
1250.5100778225
 30
0.0
 11
-0.4122489361056978
 21
0.0
 31
0.0
210
0.0
220
0.0
230
1.0
 40
0.9702875252
 41
5.512866274278409
 42
7.053504340081186
  0
ELLIPSE
  5
346
330
1F
100
AcDbEntity
  8
1
  6
SLD-Сплошная
100
AcDbEllipse
 10
891.9054271659
 20
1251.5794646037
 30
0.0
 11
0.0
 21
-0.4122489361054704
 31
0.0
210
0.0
220
0.0
230
1.0
 40
0.9702875252
 41
5.51286627427898
 42
7.053504340080206
  0
ELLIPSE
  5
347
330
1F
100
AcDbEntity
  8
1
  6
SLD-Сплошная
100
AcDbEllipse
 10
891.9054271659
 20
1249.4406910412
 30
0.0
 11
0.0
 21
0.4122489361054704
 31
0.0
210
0.0
220
0.0
230
1.0
 40
0.9702875252
 41
5.51286627427898
 42
7.053504340080206
  0
LINE
  5
348
330
1F
100
AcDbEntity
  8
1
  6
SLD-Сплошная
100
AcDbLine
 10
890.738700977
 20
1248.6102171687
 30
0.0
 11
890.738700977
 21
1248.8483768867
 31
0.0
  0
LINE
  5
349
330
1F
100
AcDbEntity
  8
1
  6
SLD-Сплошная
100
AcDbLine
 10
890.738700977
 20
1248.8483768867
 30
0.0
 11
891.6268814698
 21
1249.7365573795
 31
0.0
  0
LINE
  5
34A
330
1F
100
AcDbEntity
  8
1
  6
SLD-Сплошная
100
AcDbLine
 10
893.0721533549
 20
1248.6102171687
 30
0.0
 11
893.0721533549
 21
1248.8483768867
 31
0.0
  0
LINE
  5
34B
330
1F
100
AcDbEntity
  8
1
  6
SLD-Сплошная
100
AcDbLine
 10
892.1839728621
 20
1249.7365573795
 30
0.0
 11
893.0721533549
 21
1248.8483768867
 31
0.0
  0
LINE
  5
34C
330
1F
100
AcDbEntity
  8
1
  6
SLD-Сплошная
100
AcDbLine
 10
890.0055665121
 20
1251.6768040114
 30
0.0
 11
890.2437262302
 21
1251.6768040114
 31
0.0
  0
LINE
  5
34D
330
1F
100
AcDbEntity
  8
1
  6
SLD-Сплошная
100
AcDbLine
 10
890.2437262302
 20
1251.6768040114
 30
0.0
 11
891.131906723
 21
1250.7886235186
 31
0.0
  0
LINE
  5
34E
330
1F
100
AcDbEntity
  8
1
  6
SLD-Сплошная
100
AcDbLine
 10
890.0055665121
 20
1249.3433516335
 30
0.0
 11
890.2437262302
 21
1249.3433516335
 31
0.0
  0
LINE
  5
34F
330
1F
100
AcDbEntity
  8
1
  6
SLD-Сплошная
100
AcDbLine
 10
891.131906723
 20
1250.2315321263
 30
0.0
 11
890.2437262302
 21
1249.3433516335
 31
0.0
  0
LINE
  5
350
330
1F
100
AcDbEntity
  8
1
  6
SLD-Сплошная
100
AcDbLine
 10
890.738700977
 20
1252.4099384763
 30
0.0
 11
890.738700977
 21
1252.1717787583
 31
0.0
  0
LINE
  5
351
330
1F
100
AcDbEntity
  8
1
  6
SLD-Сплошная
100
AcDbLine
 10
891.6268814698
 20
1251.2835982654
 30
0.0
 11
890.738700977
 21
1252.1717787583
 31
0.0
  0
LINE
  5
352
330
1F
100
AcDbEntity
  8
1
  6
SLD-Сплошная
100
AcDbLine
 10
893.8052878198
 20
1251.6768040114
 30
0.0
 11
893.5671281017
 21
1251.6768040114
 31
0.0
  0
LINE
  5
353
330
1F
100
AcDbEntity
  8
1
  6
SLD-Сплошная
100
AcDbLine
 10
892.6789476089
 20
1250.7886235186
 30
0.0
 11
893.5671281017
 21
1251.6768040114
 31
0.0
  0
LINE
  5
354
330
1F
100
AcDbEntity
  8
1
  6
SLD-Сплошная
100
AcDbLine
 10
893.0721533549
 20
1252.4099384763
 30
0.0
 11
893.0721533549
 21
1252.1717787583
 31
0.0
  0
LINE
  5
355
330
1F
100
AcDbEntity
  8
1
  6
SLD-Сплошная
100
AcDbLine
 10
893.0721533549
 20
1252.1717787583
 30
0.0
 11
892.1839728621
 21
1251.2835982654
 31
0.0
  0
LINE
  5
356
330
1F
100
AcDbEntity
  8
1
  6
SLD-Сплошная
100
AcDbLine
 10
893.8052878198
 20
1249.3433516335
 30
0.0
 11
893.5671281017
 21
1249.3433516335
 31
0.0
  0
LINE
  5
357
330
1F
100
AcDbEntity
  8
1
  6
SLD-Сплошная
100
AcDbLine
 10
893.5671281017
 20
1249.3433516335
 30
0.0
 11
892.6789476089
 21
1250.2315321263
 31
0.0
  0
LINE
  5
358
330
1F
100
AcDbEntity
  8
1
  6
SLD-Сплошная
100
AcDbLine
 10
890.738700977
 20
1252.1717787583
 30
0.0
 11
890.2437262302
 21
1251.6768040114
 31
0.0
  0
LINE
  5
359
330
1F
100
AcDbEntity
  8
1
  6
SLD-Сплошная
100
AcDbLine
 10
893.5671281017
 20
1251.6768040114
 30
0.0
 11
893.0721533549
 21
1252.1717787583
 31
0.0
  0
LINE
  5
35A
330
1F
100
AcDbEntity
  8
1
  6
SLD-Сплошная
100
AcDbLine
 10
890.2437262302
 20
1249.3433516335
 30
0.0
 11
890.738700977
 21
1248.8483768867
 31
0.0
  0
LINE
  5
35B
330
1F
100
AcDbEntity
  8
1
  6
SLD-Сплошная
100
AcDbLine
 10
893.0721533549
 20
1248.8483768867
 30
0.0
 11
893.5671281017
 21
1249.3433516335
 31
0.0
  0
CIRCLE
  5
35C
330
1F
100
AcDbEntity
  8
1
  6
SLD-Сплошная
100
AcDbCircle
 10
891.9054271659
 20
1250.5100778225
 30
0.0
 40
4.99999999999996
  0
ARC
  5
35D
330
1F
100
AcDbEntity
  8
1
  6
SLD-Сплошная
100
AcDbCircle
 10
591.6506951473
 20
1360.2553458039
 30
0.0
 40
26.5619554963113
100
AcDbArc
 50
223.8816987744
 51
226.1183012256
  0
ARC
  5
35E
330
1F
100
AcDbEntity
  8
1
  6
SLD-Сплошная
100
AcDbCircle
 10
558.1640129298
 20
1359.0231007963
 30
0.0
 40
23.41191191629063
100
AcDbArc
 50
310.0824770913
 51
312.9865596106
  0
SPLINE
  5
35F
330
1F
100
AcDbEntity
  8
1
  6
SLD-Сплошная
100
AcDbSpline
210
0.0
220
0.0
230
1.0
 70
     8
 71
     3
 72
    12
 73
     8
 74
     0
 42
0.00000001
 43
0.00000001
 40
0.0
 40
0.0
 40
0.0
 40
0.0
 40
0.2187857887072029
 40
0.4375776469534793
 40
0.6562353658864007
 40
0.8748419359491081
 40
1.0
 40
1.0
 40
1.0
 40
1.0
 10
574.683972862075
 20
1341.896967328651
 30
0.0
 10
574.6486474652062
 20
1341.923930754723
 30
0.0
 10
574.5779956914737
 20
1341.977858354885
 30
0.0
 10
574.4440324628328
 20
1342.010454243858
 30
0.0
 10
574.3084898365527
 20
1342.001105112616
 30
0.0
 10
574.1995920322589
 20
1341.957226354534
 30
0.0
 10
574.146288321453
 20
1341.913050796247
 30
0.0
 10
574.1268814698191
 20
1341.896967328651
 30
0.0
  0
ARC
  5
360
330
1F
100
AcDbEntity
  8
1
  6
SLD-Сплошная
100
AcDbCircle
 10
590.646841402
 20
1359.0231007963
 30
0.0
 40
23.41191191624478
100
AcDbArc
 50
227.0134403894
 51
229.9175229087
  0
ARC
  5
361
330
1F
100
AcDbEntity
  8
1
  6
SLD-Сплошная
100
AcDbCircle
 10
557.1601591846
 20
1360.2553458038
 30
0.0
 40
26.56195549619713
100
AcDbArc
 50
313.8816987744
 51
316.1183012256
  0
ARC
  5
362
330
1F
100
AcDbEntity
  8
1
  6
SLD-Сплошная
100
AcDbCircle
 10
558.3924041923
 20
1326.7686635865
 30
0.0
 40
23.41191191609624
100
AcDbArc
 50
40.0824770913
 51
42.9865596106
  0
SPLINE
  5
363
330
1F
100
AcDbEntity
  8
1
  6
SLD-Сплошная
100
AcDbSpline
210
0.0
220
0.0
230
1.0
 70
     8
 71
     3
 72
    12
 73
     8
 74
     0
 42
0.00000001
 43
0.00000001
 40
0.0
 40
0.0
 40
0.0
 40
0.0
 40
0.2187857887072033
 40
0.4375776469534777
 40
0.6562353658863811
 40
0.8748419359490965
 40
1.0
 40
1.0
 40
1.0
 40
1.0
 10
575.5185376597593
 20
1343.288623518592
 30
0.0
 10
575.4915742336874
 20
1343.253298121723
 30
0.0
 10
575.4376466335258
 20
1343.18264634799
 30
0.0
 10
575.4050507445527
 20
1343.048683119349
 30
0.0
 10
575.4143998757947
 20
1342.913140493069
 30
0.0
 10
575.4582786338767
 20
1342.804242688776
 30
0.0
 10
575.5024541921632
 20
1342.75093897797
 30
0.0
 10
575.5185376597593
 20
1342.731532126336
 30
0.0
  0
ARC
  5
364
330
1F
100
AcDbEntity
  8
1
  6
SLD-Сплошная
100
AcDbCircle
 10
558.3924041925
 20
1359.2514920583
 30
0.0
 40
23.41191191580276
100
AcDbArc
 50
317.0134403894
 51
319.9175229087
  0
ARC
  5
365
330
1F
100
AcDbEntity
  8
1
  6
SLD-Сплошная
100
AcDbCircle
 10
557.1601591846
 20
1325.7648098411
 30
0.0
 40
26.56195549620212
100
AcDbArc
 50
43.8816987744
 51
46.1183012256
  0
ARC
  5
366
330
1F
100
AcDbEntity
  8
1
  6
SLD-Сплошная
100
AcDbCircle
 10
590.6468414021
 20
1326.9970548486
 30
0.0
 40
23.41191191634706
100
AcDbArc
 50
130.0824770913
 51
132.9865596106
  0
SPLINE
  5
367
330
1F
100
AcDbEntity
  8
1
  6
SLD-Сплошная
100
AcDbSpline
210
0.0
220
0.0
230
1.0
 70
     8
 71
     3
 72
    12
 73
     8
 74
     0
 42
0.00000001
 43
0.00000001
 40
0.0
 40
0.0
 40
0.0
 40
0.0
 40
0.2187857887071716
 40
0.4375776469534868
 40
0.6562353658863617
 40
0.874841935949109
 40
1.0
 40
1.0
 40
1.0
 40
1.0
 10
574.1268814698191
 20
1344.123188316276
 30
0.0
 10
574.162206866688
 20
1344.096224890204
 30
0.0
 10
574.2328586404205
 20
1344.042297290042
 30
0.0
 10
574.3668218690614
 20
1344.009701401069
 30
0.0
 10
574.5023644953416
 20
1344.019050532311
 30
0.0
 10
574.6112622996353
 20
1344.062929290393
 30
0.0
 10
574.6645660104413
 20
1344.10710484868
 30
0.0
 10
574.6839728620752
 20
1344.123188316276
 30
0.0
  0
ARC
  5
368
330
1F
100
AcDbEntity
  8
1
  6
SLD-Сплошная
100
AcDbCircle
 10
558.1640129298
 20
1326.9970548486
 30
0.0
 40
23.41191191639333
100
AcDbArc
 50
47.0134403894
 51
49.9175229087
  0
ARC
  5
369
330
1F
100
AcDbEntity
  8
1
  6
SLD-Сплошная
100
AcDbCircle
 10
591.6506951475
 20
1325.764809841
 30
0.0
 40
26.5619554964571
100
AcDbArc
 50
133.8816987744
 51
136.1183012256
  0
ARC
  5
36A
330
1F
100
AcDbEntity
  8
1
  6
SLD-Сплошная
100
AcDbCircle
 10
590.4184501393
 20
1359.2514920582
 30
0.0
 40
23.41191191571517
100
AcDbArc
 50
220.0824770913
 51
222.9865596106
  0
SPLINE
  5
36B
330
1F
100
AcDbEntity
  8
1
  6
SLD-Сплошная
100
AcDbSpline
210
0.0
220
0.0
230
1.0
 70
     8
 71
     3
 72
    12
 73
     8
 74
     0
 42
0.00000001
 43
0.00000001
 40
0.0
 40
0.0
 40
0.0
 40
0.0
 40
0.2187857887071835
 40
0.4375776469534734
 40
0.656235365886389
 40
0.8748419359491165
 40
1.0
 40
1.0
 40
1.0
 40
1.0
 10
573.2923166721349
 20
1342.731532126336
 30
0.0
 10
573.3192800982068
 20
1342.766857523205
 30
0.0
 10
573.3732076983684
 20
1342.837509296937
 30
0.0
 10
573.4058035873416
 20
1342.971472525578
 30
0.0
 10
573.3964544560995
 20
1343.107015151858
 30
0.0
 10
573.3525756980175
 20
1343.215912956152
 30
0.0
 10
573.308400139731
 20
1343.269216666958
 30
0.0
 10
573.2923166721349
 20
1343.288623518592
 30
0.0
  0
ARC
  5
36C
330
1F
100
AcDbEntity
  8
1
  6
SLD-Сплошная
100
AcDbCircle
 10
590.4184501396
 20
1326.7686635865
 30
0.0
 40
23.41191191609615
100
AcDbArc
 50
137.0134403894
 51
139.9175229087
  0
CIRCLE
  5
36D
330
1F
100
AcDbEntity
  8
1
  6
SLD-Сплошная
100
AcDbCircle
 10
574.4054271659
 20
1343.0100778225
 30
0.0
 40
3.499999999999948
  0
ELLIPSE
  5
36E
330
1F
100
AcDbEntity
  8
1
  6
SLD-Сплошная
100
AcDbEllipse
 10
573.3360403847
 20
1343.0100778225
 30
0.0
 11
0.4122489361055841
 21
0.0
 31
0.0
210
0.0
220
0.0
230
1.0
 40
0.9702875252
 41
5.512866274278446
 42
7.05350434008074
  0
ELLIPSE
  5
36F
330
1F
100
AcDbEntity
  8
1
  6
SLD-Сплошная
100
AcDbEllipse
 10
574.4054271659
 20
1341.9406910412
 30
0.0
 11
0.0
 21
0.4122489361054704
 31
0.0
210
0.0
220
0.0
230
1.0
 40
0.9702875252
 41
5.512866274278634
 42
7.053504340080551
  0
ELLIPSE
  5
370
330
1F
100
AcDbEntity
  8
1
  6
SLD-Сплошная
100
AcDbEllipse
 10
575.4748139472
 20
1343.0100778225
 30
0.0
 11
-0.4122489361055841
 21
0.0
 31
0.0
210
0.0
220
0.0
230
1.0
 40
0.9702875252
 41
5.512866274278163
 42
7.053504340081024
  0
ELLIPSE
  5
371
330
1F
100
AcDbEntity
  8
1
  6
SLD-Сплошная
100
AcDbEllipse
 10
574.4054271659
 20
1344.0794646037
 30
0.0
 11
0.0
 21
-0.4122489361054704
 31
0.0
210
0.0
220
0.0
230
1.0
 40
0.9702875252
 41
5.512866274278251
 42
7.053504340080936
  0
LINE
  5
372
330
1F
100
AcDbEntity
  8
1
  6
SLD-Сплошная
100
AcDbLine
 10
573.238700977
 20
1341.1102171687
 30
0.0
 11
573.238700977
 21
1341.3483768867
 31
0.0
  0
LINE
  5
373
330
1F
100
AcDbEntity
  8
1
  6
SLD-Сплошная
100
AcDbLine
 10
573.238700977
 20
1341.3483768867
 30
0.0
 11
574.1268814698
 21
1342.2365573795
 31
0.0
  0
LINE
  5
374
330
1F
100
AcDbEntity
  8
1
  6
SLD-Сплошная
100
AcDbLine
 10
573.238700977
 20
1344.9099384763
 30
0.0
 11
573.238700977
 21
1344.6717787583
 31
0.0
  0
LINE
  5
375
330
1F
100
AcDbEntity
  8
1
  6
SLD-Сплошная
100
AcDbLine
 10
574.1268814698
 20
1343.7835982654
 30
0.0
 11
573.238700977
 21
1344.6717787583
 31
0.0
  0
LINE
  5
376
330
1F
100
AcDbEntity
  8
1
  6
SLD-Сплошная
100
AcDbLine
 10
575.5721533549
 20
1341.1102171687
 30
0.0
 11
575.5721533549
 21
1341.3483768867
 31
0.0
  0
LINE
  5
377
330
1F
100
AcDbEntity
  8
1
  6
SLD-Сплошная
100
AcDbLine
 10
574.6839728621
 20
1342.2365573795
 30
0.0
 11
575.5721533549
 21
1341.3483768867
 31
0.0
  0
LINE
  5
378
330
1F
100
AcDbEntity
  8
1
  6
SLD-Сплошная
100
AcDbLine
 10
575.5721533549
 20
1344.9099384763
 30
0.0
 11
575.5721533549
 21
1344.6717787583
 31
0.0
  0
LINE
  5
379
330
1F
100
AcDbEntity
  8
1
  6
SLD-Сплошная
100
AcDbLine
 10
575.5721533549
 20
1344.6717787583
 30
0.0
 11
574.6839728621
 21
1343.7835982654
 31
0.0
  0
LINE
  5
37A
330
1F
100
AcDbEntity
  8
1
  6
SLD-Сплошная
100
AcDbLine
 10
576.3052878198
 20
1344.1768040114
 30
0.0
 11
576.0671281017
 21
1344.1768040114
 31
0.0
  0
LINE
  5
37B
330
1F
100
AcDbEntity
  8
1
  6
SLD-Сплошная
100
AcDbLine
 10
575.1789476089
 20
1343.2886235186
 30
0.0
 11
576.0671281017
 21
1344.1768040114
 31
0.0
  0
LINE
  5
37C
330
1F
100
AcDbEntity
  8
1
  6
SLD-Сплошная
100
AcDbLine
 10
572.5055665121
 20
1344.1768040114
 30
0.0
 11
572.7437262302
 21
1344.1768040114
 31
0.0
  0
LINE
  5
37D
330
1F
100
AcDbEntity
  8
1
  6
SLD-Сплошная
100
AcDbLine
 10
572.7437262302
 20
1344.1768040114
 30
0.0
 11
573.631906723
 21
1343.2886235186
 31
0.0
  0
LINE
  5
37E
330
1F
100
AcDbEntity
  8
1
  6
SLD-Сплошная
100
AcDbLine
 10
572.5055665121
 20
1341.8433516335
 30
0.0
 11
572.7437262302
 21
1341.8433516335
 31
0.0
  0
LINE
  5
37F
330
1F
100
AcDbEntity
  8
1
  6
SLD-Сплошная
100
AcDbLine
 10
573.631906723
 20
1342.7315321263
 30
0.0
 11
572.7437262302
 21
1341.8433516335
 31
0.0
  0
LINE
  5
380
330
1F
100
AcDbEntity
  8
1
  6
SLD-Сплошная
100
AcDbLine
 10
576.3052878198
 20
1341.8433516335
 30
0.0
 11
576.0671281017
 21
1341.8433516335
 31
0.0
  0
LINE
  5
381
330
1F
100
AcDbEntity
  8
1
  6
SLD-Сплошная
100
AcDbLine
 10
576.0671281017
 20
1341.8433516335
 30
0.0
 11
575.1789476089
 21
1342.7315321263
 31
0.0
  0
LINE
  5
382
330
1F
100
AcDbEntity
  8
1
  6
SLD-Сплошная
100
AcDbLine
 10
575.5721533549
 20
1341.3483768867
 30
0.0
 11
576.0671281017
 21
1341.8433516335
 31
0.0
  0
LINE
  5
383
330
1F
100
AcDbEntity
  8
1
  6
SLD-Сплошная
100
AcDbLine
 10
572.7437262302
 20
1341.8433516335
 30
0.0
 11
573.238700977
 21
1341.3483768867
 31
0.0
  0
LINE
  5
384
330
1F
100
AcDbEntity
  8
1
  6
SLD-Сплошная
100
AcDbLine
 10
576.0671281017
 20
1344.1768040114
 30
0.0
 11
575.5721533549
 21
1344.6717787583
 31
0.0
  0
LINE
  5
385
330
1F
100
AcDbEntity
  8
1
  6
SLD-Сплошная
100
AcDbLine
 10
573.238700977
 20
1344.6717787583
 30
0.0
 11
572.7437262302
 21
1344.1768040114
 31
0.0
  0
CIRCLE
  5
386
330
1F
100
AcDbEntity
  8
1
  6
SLD-Сплошная
100
AcDbCircle
 10
574.4054271659
 20
1343.0100778225
 30
0.0
 40
4.99999999999996
  0
ARC
  5
387
330
1F
100
AcDbEntity
  8
1
  6
SLD-Сплошная
100
AcDbCircle
 10
709.1506951475
 20
1377.755345804
 30
0.0
 40
26.56195549653374
100
AcDbArc
 50
223.8816987744
 51
226.1183012256
  0
ARC
  5
388
330
1F
100
AcDbEntity
  8
1
  6
SLD-Сплошная
100
AcDbCircle
 10
675.6640129299
 20
1376.5231007962
 30
0.0
 40
23.4119119162265
100
AcDbArc
 50
310.0824770913
 51
312.9865596106
  0
SPLINE
  5
389
330
1F
100
AcDbEntity
  8
1
  6
SLD-Сплошная
100
AcDbSpline
210
0.0
220
0.0
230
1.0
 70
     8
 71
     3
 72
    12
 73
     8
 74
     0
 42
0.00000001
 43
0.00000001
 40
0.0
 40
0.0
 40
0.0
 40
0.0
 40
0.2187857887072087
 40
0.4375776469534819
 40
0.6562353658863805
 40
0.8748419359491083
 40
1.0
 40
1.0
 40
1.0
 40
1.0
 10
692.1839728620752
 20
1359.396967328651
 30
0.0
 10
692.1486474652062
 20
1359.423930754723
 30
0.0
 10
692.0779956914738
 20
1359.477858354885
 30
0.0
 10
691.9440324628328
 20
1359.510454243858
 30
0.0
 10
691.8084898365528
 20
1359.501105112616
 30
0.0
 10
691.6995920322588
 20
1359.457226354534
 30
0.0
 10
691.646288321453
 20
1359.413050796248
 30
0.0
 10
691.6268814698191
 20
1359.396967328651
 30
0.0
  0
ARC
  5
38A
330
1F
100
AcDbEntity
  8
1
  6
SLD-Сплошная
100
AcDbCircle
 10
708.146841402
 20
1376.5231007962
 30
0.0
 40
23.4119119162265
100
AcDbArc
 50
227.0134403894
 51
229.9175229087
  0
ARC
  5
38B
330
1F
100
AcDbEntity
  8
1
  6
SLD-Сплошная
100
AcDbCircle
 10
674.6601591844
 20
1377.755345804
 30
0.0
 40
26.56195549653406
100
AcDbArc
 50
313.8816987744
 51
316.1183012256
  0
ARC
  5
38C
330
1F
100
AcDbEntity
  8
1
  6
SLD-Сплошная
100
AcDbCircle
 10
675.8924041921
 20
1344.2686635863
 30
0.0
 40
23.41191191637006
100
AcDbArc
 50
40.0824770913
 51
42.9865596106
  0
SPLINE
  5
38D
330
1F
100
AcDbEntity
  8
1
  6
SLD-Сплошная
100
AcDbSpline
210
0.0
220
0.0
230
1.0
 70
     8
 71
     3
 72
    12
 73
     8
 74
     0
 42
0.00000001
 43
0.00000001
 40
0.0
 40
0.0
 40
0.0
 40
0.0
 40
0.2187857887071986
 40
0.4375776469534816
 40
0.6562353658863895
 40
0.8748419359490992
 40
1.0
 40
1.0
 40
1.0
 40
1.0
 10
693.0185376597594
 20
1360.788623518592
 30
0.0
 10
692.9915742336873
 20
1360.753298121723
 30
0.0
 10
692.9376466335259
 20
1360.68264634799
 30
0.0
 10
692.9050507445528
 20
1360.548683119349
 30
0.0
 10
692.9143998757949
 20
1360.413140493069
 30
0.0
 10
692.9582786338766
 20
1360.304242688775
 30
0.0
 10
693.0024541921631
 20
1360.250938977969
 30
0.0
 10
693.0185376597594
 20
1360.231532126336
 30
0.0
  0
ARC
  5
38E
330
1F
100
AcDbEntity
  8
1
  6
SLD-Сплошная
100
AcDbCircle
 10
675.8924041922
 20
1376.7514920585
 30
0.0
 40
23.41191191616691
100
AcDbArc
 50
317.0134403894
 51
319.9175229087
  0
ARC
  5
38F
330
1F
100
AcDbEntity
  8
1
  6
SLD-Сплошная
100
AcDbCircle
 10
674.6601591847
 20
1343.2648098412
 30
0.0
 40
26.56195549614015
100
AcDbArc
 50
43.8816987744
 51
46.1183012256
  0
ARC
  5
390
330
1F
100
AcDbEntity
  8
1
  6
SLD-Сплошная
100
AcDbCircle
 10
708.1468414017
 20
1344.4970548491
 30
0.0
 40
23.41191191573368
100
AcDbArc
 50
130.0824770913
 51
132.9865596106
  0
SPLINE
  5
391
330
1F
100
AcDbEntity
  8
1
  6
SLD-Сплошная
100
AcDbSpline
210
0.0
220
0.0
230
1.0
 70
     8
 71
     3
 72
    12
 73
     8
 74
     0
 42
0.00000001
 43
0.00000001
 40
0.0
 40
0.0
 40
0.0
 40
0.0
 40
0.218785788707212
 40
0.4375776469534823
 40
0.6562353658864029
 40
0.874841935949109
 40
1.0
 40
1.0
 40
1.0
 40
1.0
 10
691.6268814698191
 20
1361.623188316276
 30
0.0
 10
691.662206866688
 20
1361.596224890204
 30
0.0
 10
691.7328586404204
 20
1361.542297290042
 30
0.0
 10
691.8668218690615
 20
1361.509701401069
 30
0.0
 10
692.0023644953415
 20
1361.519050532311
 30
0.0
 10
692.1112622996355
 20
1361.562929290393
 30
0.0
 10
692.1645660104413
 20
1361.60710484868
 30
0.0
 10
692.1839728620752
 20
1361.623188316276
 30
0.0
  0
ARC
  5
392
330
1F
100
AcDbEntity
  8
1
  6
SLD-Сплошная
100
AcDbCircle
 10
675.6640129302
 20
1344.4970548491
 30
0.0
 40
23.41191191573362
100
AcDbArc
 50
47.0134403894
 51
49.9175229087
  0
ARC
  5
393
330
1F
100
AcDbEntity
  8
1
  6
SLD-Сплошная
100
AcDbCircle
 10
709.1506951472
 20
1343.2648098412
 30
0.0
 40
26.56195549614015
100
AcDbArc
 50
133.8816987744
 51
136.1183012256
  0
ARC
  5
394
330
1F
100
AcDbEntity
  8
1
  6
SLD-Сплошная
100
AcDbCircle
 10
707.9184501397
 20
1376.7514920585
 30
0.0
 40
23.41191191616683
100
AcDbArc
 50
220.0824770913
 51
222.9865596106
  0
SPLINE
  5
395
330
1F
100
AcDbEntity
  8
1
  6
SLD-Сплошная
100
AcDbSpline
210
0.0
220
0.0
230
1.0
 70
     8
 71
     3
 72
    12
 73
     8
 74
     0
 42
0.00000001
 43
0.00000001
 40
0.0
 40
0.0
 40
0.0
 40
0.0
 40
0.2187857887071924
 40
0.4375776469534745
 40
0.6562353658863835
 40
0.8748419359490942
 40
1.0
 40
1.0
 40
1.0
 40
1.0
 10
690.7923166721348
 20
1360.231532126336
 30
0.0
 10
690.819280098207
 20
1360.266857523205
 30
0.0
 10
690.8732076983683
 20
1360.337509296937
 30
0.0
 10
690.9058035873416
 20
1360.471472525578
 30
0.0
 10
690.8964544560994
 20
1360.607015151858
 30
0.0
 10
690.8525756980176
 20
1360.715912956152
 30
0.0
 10
690.8084001397311
 20
1360.769216666958
 30
0.0
 10
690.7923166721348
 20
1360.788623518592
 30
0.0
  0
ARC
  5
396
330
1F
100
AcDbEntity
  8
1
  6
SLD-Сплошная
100
AcDbCircle
 10
707.9184501398
 20
1344.2686635863
 30
0.0
 40
23.41191191637014
100
AcDbArc
 50
137.0134403894
 51
139.9175229087
  0
CIRCLE
  5
397
330
1F
100
AcDbEntity
  8
1
  6
SLD-Сплошная
100
AcDbCircle
 10
691.9054271659
 20
1360.5100778225
 30
0.0
 40
3.500000000000028
  0
ELLIPSE
  5
398
330
1F
100
AcDbEntity
  8
1
  6
SLD-Сплошная
100
AcDbEllipse
 10
692.9748139472
 20
1360.5100778225
 30
0.0
 11
-0.4122489361056978
 21
0.0
 31
0.0
210
0.0
220
0.0
230
1.0
 40
0.9702875252
 41
5.512866274278409
 42
7.053504340080777
  0
ELLIPSE
  5
399
330
1F
100
AcDbEntity
  8
1
  6
SLD-Сплошная
100
AcDbEllipse
 10
690.8360403847
 20
1360.5100778225
 30
0.0
 11
0.4122489361056978
 21
0.0
 31
0.0
210
0.0
220
0.0
230
1.0
 40
0.9702875252
 41
5.512866274278409
 42
7.053504340080777
  0
ELLIPSE
  5
39A
330
1F
100
AcDbEntity
  8
1
  6
SLD-Сплошная
100
AcDbEllipse
 10
691.9054271659
 20
1359.4406910412
 30
0.0
 11
0.0
 21
0.4122489361059252
 31
0.0
210
0.0
220
0.0
230
1.0
 40
0.9702875252
 41
5.512866274278466
 42
7.053504340080719
  0
ELLIPSE
  5
39B
330
1F
100
AcDbEntity
  8
1
  6
SLD-Сплошная
100
AcDbEllipse
 10
691.9054271659
 20
1361.5794646037
 30
0.0
 11
0.0
 21
-0.4122489361056978
 31
0.0
210
0.0
220
0.0
230
1.0
 40
0.9702875252
 41
5.512866274278359
 42
7.053504340080828
  0
LINE
  5
39C
330
1F
100
AcDbEntity
  8
1
  6
SLD-Сплошная
100
AcDbLine
 10
693.8052878198
 20
1361.6768040114
 30
0.0
 11
693.5671281017
 21
1361.6768040114
 31
0.0
  0
LINE
  5
39D
330
1F
100
AcDbEntity
  8
1
  6
SLD-Сплошная
100
AcDbLine
 10
692.6789476089
 20
1360.7886235186
 30
0.0
 11
693.5671281017
 21
1361.6768040114
 31
0.0
  0
LINE
  5
39E
330
1F
100
AcDbEntity
  8
1
  6
SLD-Сплошная
100
AcDbLine
 10
690.738700977
 20
1362.4099384763
 30
0.0
 11
690.738700977
 21
1362.1717787583
 31
0.0
  0
LINE
  5
39F
330
1F
100
AcDbEntity
  8
1
  6
SLD-Сплошная
100
AcDbLine
 10
691.6268814698
 20
1361.2835982654
 30
0.0
 11
690.738700977
 21
1362.1717787583
 31
0.0
  0
LINE
  5
3A0
330
1F
100
AcDbEntity
  8
1
  6
SLD-Сплошная
100
AcDbLine
 10
693.0721533549
 20
1362.4099384763
 30
0.0
 11
693.0721533549
 21
1362.1717787583
 31
0.0
  0
LINE
  5
3A1
330
1F
100
AcDbEntity
  8
1
  6
SLD-Сплошная
100
AcDbLine
 10
693.0721533549
 20
1362.1717787583
 30
0.0
 11
692.1839728621
 21
1361.2835982654
 31
0.0
  0
LINE
  5
3A2
330
1F
100
AcDbEntity
  8
1
  6
SLD-Сплошная
100
AcDbLine
 10
693.0721533549
 20
1358.6102171687
 30
0.0
 11
693.0721533549
 21
1358.8483768867
 31
0.0
  0
LINE
  5
3A3
330
1F
100
AcDbEntity
  8
1
  6
SLD-Сплошная
100
AcDbLine
 10
692.1839728621
 20
1359.7365573795
 30
0.0
 11
693.0721533549
 21
1358.8483768867
 31
0.0
  0
LINE
  5
3A4
330
1F
100
AcDbEntity
  8
1
  6
SLD-Сплошная
100
AcDbLine
 10
690.738700977
 20
1358.6102171687
 30
0.0
 11
690.738700977
 21
1358.8483768867
 31
0.0
  0
LINE
  5
3A5
330
1F
100
AcDbEntity
  8
1
  6
SLD-Сплошная
100
AcDbLine
 10
690.738700977
 20
1358.8483768867
 30
0.0
 11
691.6268814698
 21
1359.7365573795
 31
0.0
  0
LINE
  5
3A6
330
1F
100
AcDbEntity
  8
1
  6
SLD-Сплошная
100
AcDbLine
 10
693.8052878198
 20
1359.3433516335
 30
0.0
 11
693.5671281017
 21
1359.3433516335
 31
0.0
  0
LINE
  5
3A7
330
1F
100
AcDbEntity
  8
1
  6
SLD-Сплошная
100
AcDbLine
 10
693.5671281017
 20
1359.3433516335
 30
0.0
 11
692.6789476089
 21
1360.2315321263
 31
0.0
  0
LINE
  5
3A8
330
1F
100
AcDbEntity
  8
1
  6
SLD-Сплошная
100
AcDbLine
 10
690.0055665121
 20
1359.3433516335
 30
0.0
 11
690.2437262302
 21
1359.3433516335
 31
0.0
  0
LINE
  5
3A9
330
1F
100
AcDbEntity
  8
1
  6
SLD-Сплошная
100
AcDbLine
 10
691.131906723
 20
1360.2315321263
 30
0.0
 11
690.2437262302
 21
1359.3433516335
 31
0.0
  0
LINE
  5
3AA
330
1F
100
AcDbEntity
  8
1
  6
SLD-Сплошная
100
AcDbLine
 10
690.0055665121
 20
1361.6768040114
 30
0.0
 11
690.2437262302
 21
1361.6768040114
 31
0.0
  0
LINE
  5
3AB
330
1F
100
AcDbEntity
  8
1
  6
SLD-Сплошная
100
AcDbLine
 10
690.2437262302
 20
1361.6768040114
 30
0.0
 11
691.131906723
 21
1360.7886235186
 31
0.0
  0
LINE
  5
3AC
330
1F
100
AcDbEntity
  8
1
  6
SLD-Сплошная
100
AcDbLine
 10
693.5671281017
 20
1361.6768040114
 30
0.0
 11
693.0721533549
 21
1362.1717787583
 31
0.0
  0
LINE
  5
3AD
330
1F
100
AcDbEntity
  8
1
  6
SLD-Сплошная
100
AcDbLine
 10
693.0721533549
 20
1358.8483768867
 30
0.0
 11
693.5671281017
 21
1359.3433516335
 31
0.0
  0
LINE
  5
3AE
330
1F
100
AcDbEntity
  8
1
  6
SLD-Сплошная
100
AcDbLine
 10
690.738700977
 20
1362.1717787583
 30
0.0
 11
690.2437262302
 21
1361.6768040114
 31
0.0
  0
LINE
  5
3AF
330
1F
100
AcDbEntity
  8
1
  6
SLD-Сплошная
100
AcDbLine
 10
690.2437262302
 20
1359.3433516335
 30
0.0
 11
690.738700977
 21
1358.8483768867
 31
0.0
  0
CIRCLE
  5
3B0
330
1F
100
AcDbEntity
  8
1
  6
SLD-Сплошная
100
AcDbCircle
 10
691.9054271659
 20
1360.5100778225
 30
0.0
 40
5.000000000000041
  0
ARC
  5
3B1
330
1F
100
AcDbEntity
  8
1
  6
SLD-Сплошная
100
AcDbCircle
 10
815.6055766448
 20
1366.2634637956
 30
0.0
 40
26.56195549582185
100
AcDbArc
 50
192.5267196435
 51
194.7633220947
  0
ARC
  5
3B2
330
1F
100
AcDbEntity
  8
1
  6
SLD-Сплошная
100
AcDbCircle
 10
786.3681071927
 20
1382.6355954131
 30
0.0
 40
23.41191191604009
100
AcDbArc
 50
278.7274979604
 51
281.6315804797
  0
SPLINE
  5
3B3
330
1F
100
AcDbEntity
  8
1
  6
SLD-Сплошная
100
AcDbSpline
210
0.0
220
0.0
230
1.0
 70
     8
 71
     3
 72
    12
 73
     8
 74
     0
 42
0.00000001
 43
0.00000001
 40
0.0
 40
0.0
 40
0.0
 40
0.0
 40
0.2187857887071894
 40
0.4375776469534765
 40
0.6562353658863845
 40
0.8748419359491019
 40
0.9999999999999999
 40
0.9999999999999999
 40
0.9999999999999999
 40
0.9999999999999999
 10
791.5640994676716
 20
1359.414587941791
 30
0.0
 10
791.5479631107698
 20
1359.455994801071
 30
0.0
 10
791.5156899493127
 20
1359.538809668337
 30
0.0
 10
791.4182516260265
 20
1359.636351514542
 30
0.0
 10
791.2976389396839
 20
1359.698895816337
 30
0.0
 10
791.1818127594811
 20
1359.718088866394
 30
0.0
 10
791.1133072704437
 20
1359.708100698026
 30
0.0
 10
791.0883657449523
 20
1359.704464198828
 30
0.0
  0
ARC
  5
3B4
330
1F
100
AcDbEntity
  8
1
  6
SLD-Сплошная
100
AcDbCircle
 10
814.1071409103
 20
1365.7335199794
 30
0.0
 40
23.41191191638877
100
AcDbArc
 50
195.6584612586
 51
198.5625437778
  0
ARC
  5
3B5
330
1F
100
AcDbEntity
  8
1
  6
SLD-Сплошная
100
AcDbCircle
 10
786.1520411926
 20
1384.2102273022
 30
0.0
 40
26.56195549673583
100
AcDbArc
 50
282.5267196436
 51
284.7633220947
  0
ARC
  5
3B6
330
1F
100
AcDbEntity
  8
1
  6
SLD-Сплошная
100
AcDbCircle
 10
769.7799095752
 20
1354.9727578492
 30
0.0
 40
23.41191191623654
100
AcDbArc
 50
8.7274979605
 51
11.6315804797
  0
SPLINE
  5
3B7
330
1F
100
AcDbEntity
  8
1
  6
SLD-Сплошная
100
AcDbSpline
210
0.0
220
0.0
230
1.0
 70
     8
 71
     3
 72
    12
 73
     8
 74
     0
 42
0.00000001
 43
0.00000001
 40
0.0
 40
0.0
 40
0.0
 40
0.0
 40
0.2187857887071981
 40
0.4375776469534807
 40
0.6562353658863856
 40
0.8748419359491004
 40
1.0
 40
1.0
 40
1.0
 40
1.0
 10
793.0009170466199
 20
1360.168750124188
 30
0.0
 10
792.9595101873399
 20
1360.152613767286
 30
0.0
 10
792.876695320074
 20
1360.120340605829
 30
0.0
 10
792.7791534738691
 20
1360.022902282543
 30
0.0
 10
792.7166091720736
 20
1359.9022895962
 30
0.0
 10
792.6974161220171
 20
1359.786463415998
 30
0.0
 10
792.707404290385
 20
1359.71795792696
 30
0.0
 10
792.7110407895834
 20
1359.693016401469
 30
0.0
  0
ARC
  5
3B8
330
1F
100
AcDbEntity
  8
1
  6
SLD-Сплошная
100
AcDbCircle
 10
786.681985009
 20
1382.7117915667
 30
0.0
 40
23.41191191626951
100
AcDbArc
 50
285.6584612586
 51
288.5625437778
  0
ARC
  5
3B9
330
1F
100
AcDbEntity
  8
1
  6
SLD-Сплошная
100
AcDbCircle
 10
768.2052776872
 20
1354.7566918493
 30
0.0
 40
26.56195549572058
100
AcDbArc
 50
12.5267196435
 51
14.7633220947
  0
ARC
  5
3BA
330
1F
100
AcDbEntity
  8
1
  6
SLD-Сплошная
100
AcDbCircle
 10
797.4427471392
 20
1338.3845602315
 30
0.0
 40
23.41191191642237
100
AcDbArc
 50
98.7274979605
 51
101.6315804797
  0
SPLINE
  5
3BB
330
1F
100
AcDbEntity
  8
1
  6
SLD-Сплошная
100
AcDbSpline
210
0.0
220
0.0
230
1.0
 70
     8
 71
     3
 72
    12
 73
     8
 74
     0
 42
0.00000001
 43
0.00000001
 40
0.0
 40
0.0
 40
0.0
 40
0.0
 40
0.2187857887072005
 40
0.4375776469534791
 40
0.6562353658863865
 40
0.8748419359491028
 40
0.9999999999999999
 40
0.9999999999999999
 40
0.9999999999999999
 40
0.9999999999999999
 10
792.2467548642227
 20
1361.605567703136
 30
0.0
 10
792.2628912211245
 20
1361.564160843856
 30
0.0
 10
792.2951643825816
 20
1361.48134597659
 30
0.0
 10
792.3926027058677
 20
1361.383804130386
 30
0.0
 10
792.5132153922103
 20
1361.32125982859
 30
0.0
 10
792.6290415724131
 20
1361.302066778534
 30
0.0
 10
792.6975470614506
 20
1361.312054946902
 30
0.0
 10
792.722488586942
 20
1361.3156914461
 30
0.0
  0
ARC
  5
3BC
330
1F
100
AcDbEntity
  8
1
  6
SLD-Сплошная
100
AcDbCircle
 10
769.7037134218
 20
1355.2866356656
 30
0.0
 40
23.41191191612891
100
AcDbArc
 50
15.6584612585
 51
18.5625437778
  0
ARC
  5
3BD
330
1F
100
AcDbEntity
  8
1
  6
SLD-Сплошная
100
AcDbCircle
 10
797.658813139
 20
1336.8099283439
 30
0.0
 40
26.56195549548405
100
AcDbArc
 50
102.5267196435
 51
104.7633220948
  0
ARC
  5
3BE
330
1F
100
AcDbEntity
  8
1
  6
SLD-Сплошная
100
AcDbCircle
 10
814.0309447566
 20
1366.0473977957
 30
0.0
 40
23.41191191605385
100
AcDbArc
 50
188.7274979604
 51
191.6315804797
  0
SPLINE
  5
3BF
330
1F
100
AcDbEntity
  8
1
  6
SLD-Сплошная
100
AcDbSpline
210
0.0
220
0.0
230
1.0
 70
     8
 71
     3
 72
    12
 73
     8
 74
     0
 42
0.00000001
 43
0.00000001
 40
0.0
 40
0.0
 40
0.0
 40
0.0
 40
0.2187857887071911
 40
0.4375776469534741
 40
0.6562353658863846
 40
0.8748419359491
 40
1.0
 40
1.0
 40
1.0
 40
1.0
 10
790.8099372852744
 20
1360.851405520739
 30
0.0
 10
790.8513441445543
 20
1360.867541877641
 30
0.0
 10
790.9341590118203
 20
1360.899815039098
 30
0.0
 10
791.0317008580251
 20
1360.997253362384
 30
0.0
 10
791.0942451598206
 20
1361.117866048727
 30
0.0
 10
791.1134382098772
 20
1361.23369222893
 30
0.0
 10
791.1034500415092
 20
1361.302197717967
 30
0.0
 10
791.0998135423108
 20
1361.327139243459
 30
0.0
  0
ARC
  5
3C0
330
1F
100
AcDbEntity
  8
1
  6
SLD-Сплошная
100
AcDbCircle
 10
797.128869323
 20
1338.308364078
 30
0.0
 40
23.41191191653756
100
AcDbArc
 50
105.6584612586
 51
108.5625437778
  0
CIRCLE
  5
3C1
330
1F
100
AcDbEntity
  8
1
  6
SLD-Сплошная
100
AcDbCircle
 10
791.9054271659
 20
1360.5100778225
 30
0.0
 40
3.499999999999991
  0
ELLIPSE
  5
3C2
330
1F
100
AcDbEntity
  8
1
  6
SLD-Сплошная
100
AcDbEllipse
 10
790.992213712
 20
1361.0665212387
 30
0.0
 11
0.3520440699438723
 21
-0.2145091096842861
 31
0.0
210
0.0
220
0.0
230
1.0
 40
0.9702875252
 41
5.512866274278794
 42
7.053504340081023
  0
ELLIPSE
  5
3C3
330
1F
100
AcDbEntity
  8
1
  6
SLD-Сплошная
100
AcDbEllipse
 10
792.4618705822
 20
1361.4232912764
 30
0.0
 11
-0.2145091096841725
 21
-0.3520440699442133
 31
0.0
210
0.0
220
0.0
230
1.0
 40
0.9702875252
 41
5.512866274278583
 42
7.053504340080248
  0
ELLIPSE
  5
3C4
330
1F
100
AcDbEntity
  8
1
  6
SLD-Сплошная
100
AcDbEllipse
 10
791.3489837497
 20
1359.5968643685
 30
0.0
 11
0.2145091096841725
 21
0.3520440699442133
 31
0.0
210
0.0
220
0.0
230
1.0
 40
0.9702875252
 41
5.512866274278583
 42
7.053504340080248
  0
ELLIPSE
  5
3C5
330
1F
100
AcDbEntity
  8
1
  6
SLD-Сплошная
100
AcDbEllipse
 10
792.8186406199
 20
1359.9536344062
 30
0.0
 11
-0.352044069943986
 21
0.2145091096845136
 31
0.0
210
0.0
220
0.0
230
1.0
 40
0.9702875252
 41
5.512866274279374
 42
7.05350434008088
  0
LINE
  5
3C6
330
1F
100
AcDbEntity
  8
1
  6
SLD-Сплошная
100
AcDbLine
 10
791.8976609392
 20
1362.7395755663
 30
0.0
 11
791.7737372014
 21
1362.5361967117
 31
0.0
  0
LINE
  5
3C7
330
1F
100
AcDbEntity
  8
1
  6
SLD-Сплошная
100
AcDbLine
 10
792.0700529905
 20
1361.3155714093
 30
0.0
 11
791.7737372014
 21
1362.5361967117
 31
0.0
  0
LINE
  5
3C8
330
1F
100
AcDbEntity
  8
1
  6
SLD-Сплошная
100
AcDbLine
 10
789.9205185785
 20
1359.4947658491
 30
0.0
 11
790.0444423163
 21
1359.6981447036
 31
0.0
  0
LINE
  5
3C9
330
1F
100
AcDbEntity
  8
1
  6
SLD-Сплошная
100
AcDbLine
 10
790.0444423163
 20
1359.6981447036
 30
0.0
 11
791.2650676187
 21
1359.9944604927
 31
0.0
  0
LINE
  5
3CA
330
1F
100
AcDbEntity
  8
1
  6
SLD-Сплошная
100
AcDbLine
 10
790.8901151925
 20
1362.4949864099
 30
0.0
 11
791.0934940471
 21
1362.3710626721
 31
0.0
  0
LINE
  5
3CB
330
1F
100
AcDbEntity
  8
1
  6
SLD-Сплошная
100
AcDbLine
 10
791.0934940471
 20
1362.3710626721
 30
0.0
 11
791.3898098362
 21
1361.1504373697
 31
0.0
  0
LINE
  5
3CC
330
1F
100
AcDbEntity
  8
1
  6
SLD-Сплошная
100
AcDbLine
 10
791.9131933927
 20
1358.2805800787
 30
0.0
 11
792.0371171305
 21
1358.4839589332
 31
0.0
  0
LINE
  5
3CD
330
1F
100
AcDbEntity
  8
1
  6
SLD-Сплошная
100
AcDbLine
 10
791.7408013414
 20
1359.7045842356
 30
0.0
 11
792.0371171305
 21
1358.4839589332
 31
0.0
  0
LINE
  5
3CE
330
1F
100
AcDbEntity
  8
1
  6
SLD-Сплошная
100
AcDbLine
 10
792.9207391394
 20
1358.525169235
 30
0.0
 11
792.7173602848
 21
1358.6490929728
 31
0.0
  0
LINE
  5
3CF
330
1F
100
AcDbEntity
  8
1
  6
SLD-Сплошная
100
AcDbLine
 10
792.7173602848
 20
1358.6490929728
 30
0.0
 11
792.4210444957
 21
1359.8697182752
 31
0.0
  0
LINE
  5
3D0
330
1F
100
AcDbEntity
  8
1
  6
SLD-Сплошная
100
AcDbLine
 10
794.1349249097
 20
1360.5178440492
 30
0.0
 11
793.9315460552
 21
1360.641767787
 31
0.0
  0
LINE
  5
3D1
330
1F
100
AcDbEntity
  8
1
  6
SLD-Сплошная
100
AcDbLine
 10
792.7109207528
 20
1360.3454519979
 30
0.0
 11
793.9315460552
 21
1360.641767787
 31
0.0
  0
LINE
  5
3D2
330
1F
100
AcDbEntity
  8
1
  6
SLD-Сплошная
100
AcDbLine
 10
793.8903357534
 20
1361.5253897959
 30
0.0
 11
793.7664120156
 21
1361.3220109413
 31
0.0
  0
LINE
  5
3D3
330
1F
100
AcDbEntity
  8
1
  6
SLD-Сплошная
100
AcDbLine
 10
793.7664120156
 20
1361.3220109413
 30
0.0
 11
792.5457867132
 21
1361.0256951522
 31
0.0
  0
LINE
  5
3D4
330
1F
100
AcDbEntity
  8
1
  6
SLD-Сплошная
100
AcDbLine
 10
789.6759294221
 20
1360.5023115958
 30
0.0
 11
789.8793082767
 21
1360.3783878579
 31
0.0
  0
LINE
  5
3D5
330
1F
100
AcDbEntity
  8
1
  6
SLD-Сплошная
100
AcDbLine
 10
791.0999335791
 20
1360.674703647
 30
0.0
 11
789.8793082767
 21
1360.3783878579
 31
0.0
  0
LINE
  5
3D6
330
1F
100
AcDbEntity
  8
1
  6
SLD-Сплошная
100
AcDbLine
 10
791.7737372014
 20
1362.5361967117
 30
0.0
 11
791.0934940471
 21
1362.3710626721
 31
0.0
  0
LINE
  5
3D7
330
1F
100
AcDbEntity
  8
1
  6
SLD-Сплошная
100
AcDbLine
 10
792.0371171305
 20
1358.4839589332
 30
0.0
 11
792.7173602848
 21
1358.6490929728
 31
0.0
  0
LINE
  5
3D8
330
1F
100
AcDbEntity
  8
1
  6
SLD-Сплошная
100
AcDbLine
 10
793.9315460552
 20
1360.641767787
 30
0.0
 11
793.7664120156
 21
1361.3220109413
 31
0.0
  0
LINE
  5
3D9
330
1F
100
AcDbEntity
  8
1
  6
SLD-Сплошная
100
AcDbLine
 10
789.8793082767
 20
1360.3783878579
 30
0.0
 11
790.0444423163
 21
1359.6981447036
 31
0.0
  0
CIRCLE
  5
3DA
330
1F
100
AcDbEntity
  8
1
  6
SLD-Сплошная
100
AcDbCircle
 10
791.9054271659
 20
1360.5100778225
 30
0.0
 40
4.999999999999972
  0
ARC
  5
3DB
330
1F
100
AcDbEntity
  8
1
  6
SLD-Сплошная
100
AcDbCircle
 10
609.1506951474
 20
1377.7553458039
 30
0.0
 40
26.56195549639309
100
AcDbArc
 50
223.8816987744
 51
226.1183012256
  0
ARC
  5
3DC
330
1F
100
AcDbEntity
  8
1
  6
SLD-Сплошная
100
AcDbCircle
 10
575.6640129298
 20
1376.5231007963
 30
0.0
 40
23.41191191632681
100
AcDbArc
 50
310.0824770913
 51
312.9865596106
  0
SPLINE
  5
3DD
330
1F
100
AcDbEntity
  8
1
  6
SLD-Сплошная
100
AcDbSpline
210
0.0
220
0.0
230
1.0
 70
     8
 71
     3
 72
    12
 73
     8
 74
     0
 42
0.00000001
 43
0.00000001
 40
0.0
 40
0.0
 40
0.0
 40
0.0
 40
0.2187857887072029
 40
0.4375776469534793
 40
0.6562353658864007
 40
0.8748419359491081
 40
1.0
 40
1.0
 40
1.0
 40
1.0
 10
592.183972862075
 20
1359.396967328651
 30
0.0
 10
592.1486474652061
 20
1359.423930754723
 30
0.0
 10
592.0779956914738
 20
1359.477858354885
 30
0.0
 10
591.9440324628326
 20
1359.510454243858
 30
0.0
 10
591.8084898365528
 20
1359.501105112616
 30
0.0
 10
591.6995920322588
 20
1359.457226354534
 30
0.0
 10
591.646288321453
 20
1359.413050796248
 30
0.0
 10
591.6268814698191
 20
1359.396967328651
 30
0.0
  0
ARC
  5
3DE
330
1F
100
AcDbEntity
  8
1
  6
SLD-Сплошная
100
AcDbCircle
 10
608.146841402
 20
1376.5231007962
 30
0.0
 40
23.4119119162265
100
AcDbArc
 50
227.0134403894
 51
229.9175229087
  0
ARC
  5
3DF
330
1F
100
AcDbEntity
  8
1
  6
SLD-Сплошная
100
AcDbCircle
 10
574.6601591843
 20
1377.7553458042
 30
0.0
 40
26.56195549672205
100
AcDbArc
 50
313.8816987744
 51
316.1183012256
  0
ARC
  5
3E0
330
1F
100
AcDbEntity
  8
1
  6
SLD-Сплошная
100
AcDbCircle
 10
575.892404192
 20
1344.2686635862
 30
0.0
 40
23.41191191648937
100
AcDbArc
 50
40.0824770913
 51
42.9865596106
  0
SPLINE
  5
3E1
330
1F
100
AcDbEntity
  8
1
  6
SLD-Сплошная
100
AcDbSpline
210
0.0
220
0.0
230
1.0
 70
     8
 71
     3
 72
    12
 73
     8
 74
     0
 42
0.00000001
 43
0.00000001
 40
0.0
 40
0.0
 40
0.0
 40
0.0
 40
0.2187857887072079
 40
0.4375776469534822
 40
0.6562353658863856
 40
0.8748419359491009
 40
1.0
 40
1.0
 40
1.0
 40
1.0
 10
593.0185376597594
 20
1360.788623518592
 30
0.0
 10
592.9915742336873
 20
1360.753298121723
 30
0.0
 10
592.9376466335258
 20
1360.68264634799
 30
0.0
 10
592.9050507445526
 20
1360.548683119349
 30
0.0
 10
592.9143998757949
 20
1360.413140493069
 30
0.0
 10
592.9582786338765
 20
1360.304242688775
 30
0.0
 10
593.0024541921631
 20
1360.25093897797
 30
0.0
 10
593.0185376597594
 20
1360.231532126336
 30
0.0
  0
ARC
  5
3E2
330
1F
100
AcDbEntity
  8
1
  6
SLD-Сплошная
100
AcDbCircle
 10
575.8924041921
 20
1376.7514920586
 30
0.0
 40
23.41191191628608
100
AcDbArc
 50
317.0134403894
 51
319.9175229087
  0
ARC
  5
3E3
330
1F
100
AcDbEntity
  8
1
  6
SLD-Сплошная
100
AcDbCircle
 10
574.6601591845
 20
1343.264809841
 30
0.0
 40
26.5619554963283
100
AcDbArc
 50
43.8816987744
 51
46.1183012256
  0
ARC
  5
3E4
330
1F
100
AcDbEntity
  8
1
  6
SLD-Сплошная
100
AcDbCircle
 10
608.1468414017
 20
1344.4970548491
 30
0.0
 40
23.41191191573369
100
AcDbArc
 50
130.0824770913
 51
132.9865596106
  0
SPLINE
  5
3E5
330
1F
100
AcDbEntity
  8
1
  6
SLD-Сплошная
100
AcDbSpline
210
0.0
220
0.0
230
1.0
 70
     8
 71
     3
 72
    12
 73
     8
 74
     0
 42
0.00000001
 43
0.00000001
 40
0.0
 40
0.0
 40
0.0
 40
0.0
 40
0.2187857887071742
 40
0.4375776469534876
 40
0.6562353658863623
 40
0.8748419359491093
 40
1.0
 40
1.0
 40
1.0
 40
1.0
 10
591.6268814698191
 20
1361.623188316276
 30
0.0
 10
591.662206866688
 20
1361.596224890204
 30
0.0
 10
591.7328586404204
 20
1361.542297290042
 30
0.0
 10
591.8668218690615
 20
1361.509701401069
 30
0.0
 10
592.0023644953415
 20
1361.519050532311
 30
0.0
 10
592.1112622996353
 20
1361.562929290393
 30
0.0
 10
592.1645660104413
 20
1361.60710484868
 30
0.0
 10
592.1839728620752
 20
1361.623188316276
 30
0.0
  0
ARC
  5
3E6
330
1F
100
AcDbEntity
  8
1
  6
SLD-Сплошная
100
AcDbCircle
 10
575.6640129301
 20
1344.497054849
 30
0.0
 40
23.41191191583417
100
AcDbArc
 50
47.0134403894
 51
49.9175229087
  0
ARC
  5
3E7
330
1F
100
AcDbEntity
  8
1
  6
SLD-Сплошная
100
AcDbCircle
 10
609.1506951471
 20
1343.2648098413
 30
0.0
 40
26.56195549599917
100
AcDbArc
 50
133.8816987744
 51
136.1183012256
  0
ARC
  5
3E8
330
1F
100
AcDbEntity
  8
1
  6
SLD-Сплошная
100
AcDbCircle
 10
607.9184501396
 20
1376.7514920584
 30
0.0
 40
23.41191191607858
100
AcDbArc
 50
220.0824770913
 51
222.9865596106
  0
SPLINE
  5
3E9
330
1F
100
AcDbEntity
  8
1
  6
SLD-Сплошная
100
AcDbSpline
210
0.0
220
0.0
230
1.0
 70
     8
 71
     3
 72
    12
 73
     8
 74
     0
 42
0.00000001
 43
0.00000001
 40
0.0
 40
0.0
 40
0.0
 40
0.0
 40
0.2187857887071884
 40
0.4375776469534731
 40
0.6562353658863888
 40
0.8748419359491165
 40
1.0
 40
1.0
 40
1.0
 40
1.0
 10
590.7923166721348
 20
1360.231532126336
 30
0.0
 10
590.819280098207
 20
1360.266857523205
 30
0.0
 10
590.8732076983683
 20
1360.337509296937
 30
0.0
 10
590.9058035873416
 20
1360.471472525578
 30
0.0
 10
590.8964544560994
 20
1360.607015151858
 30
0.0
 10
590.8525756980175
 20
1360.715912956152
 30
0.0
 10
590.8084001397311
 20
1360.769216666958
 30
0.0
 10
590.7923166721348
 20
1360.788623518592
 30
0.0
  0
ARC
  5
3EA
330
1F
100
AcDbEntity
  8
1
  6
SLD-Сплошная
100
AcDbCircle
 10
607.9184501398
 20
1344.2686635863
 30
0.0
 40
23.41191191637006
100
AcDbArc
 50
137.0134403894
 51
139.9175229087
  0
CIRCLE
  5
3EB
330
1F
100
AcDbEntity
  8
1
  6
SLD-Сплошная
100
AcDbCircle
 10
591.9054271659
 20
1360.5100778225
 30
0.0
 40
3.500000000000028
  0
ELLIPSE
  5
3EC
330
1F
100
AcDbEntity
  8
1
  6
SLD-Сплошная
100
AcDbEllipse
 10
591.9054271659
 20
1359.4406910412
 30
0.0
 11
0.0
 21
0.4122489361056978
 31
0.0
210
0.0
220
0.0
230
1.0
 40
0.9702875252
 41
5.512866274278359
 42
7.053504340080828
  0
ELLIPSE
  5
3ED
330
1F
100
AcDbEntity
  8
1
  6
SLD-Сплошная
100
AcDbEllipse
 10
591.9054271659
 20
1361.5794646037
 30
0.0
 11
0.0
 21
-0.4122489361056978
 31
0.0
210
0.0
220
0.0
230
1.0
 40
0.9702875252
 41
5.512866274278359
 42
7.053504340080828
  0
ELLIPSE
  5
3EE
330
1F
100
AcDbEntity
  8
1
  6
SLD-Сплошная
100
AcDbEllipse
 10
592.9748139472
 20
1360.5100778225
 30
0.0
 11
-0.4122489361056978
 21
0.0
 31
0.0
210
0.0
220
0.0
230
1.0
 40
0.9702875252
 41
5.512866274278409
 42
7.053504340080777
  0
ELLIPSE
  5
3EF
330
1F
100
AcDbEntity
  8
1
  6
SLD-Сплошная
100
AcDbEllipse
 10
590.8360403847
 20
1360.5100778225
 30
0.0
 11
0.4122489361055841
 21
0.0
 31
0.0
210
0.0
220
0.0
230
1.0
 40
0.9702875252
 41
5.512866274278546
 42
7.053504340080639
  0
LINE
  5
3F0
330
1F
100
AcDbEntity
  8
1
  6
SLD-Сплошная
100
AcDbLine
 10
590.738700977
 20
1362.4099384763
 30
0.0
 11
590.738700977
 21
1362.1717787583
 31
0.0
  0
LINE
  5
3F1
330
1F
100
AcDbEntity
  8
1
  6
SLD-Сплошная
100
AcDbLine
 10
591.6268814698
 20
1361.2835982654
 30
0.0
 11
590.738700977
 21
1362.1717787583
 31
0.0
  0
LINE
  5
3F2
330
1F
100
AcDbEntity
  8
1
  6
SLD-Сплошная
100
AcDbLine
 10
593.0721533549
 20
1358.6102171687
 30
0.0
 11
593.0721533549
 21
1358.8483768867
 31
0.0
  0
LINE
  5
3F3
330
1F
100
AcDbEntity
  8
1
  6
SLD-Сплошная
100
AcDbLine
 10
592.1839728621
 20
1359.7365573795
 30
0.0
 11
593.0721533549
 21
1358.8483768867
 31
0.0
  0
LINE
  5
3F4
330
1F
100
AcDbEntity
  8
1
  6
SLD-Сплошная
100
AcDbLine
 10
590.738700977
 20
1358.6102171687
 30
0.0
 11
590.738700977
 21
1358.8483768867
 31
0.0
  0
LINE
  5
3F5
330
1F
100
AcDbEntity
  8
1
  6
SLD-Сплошная
100
AcDbLine
 10
590.738700977
 20
1358.8483768867
 30
0.0
 11
591.6268814698
 21
1359.7365573795
 31
0.0
  0
LINE
  5
3F6
330
1F
100
AcDbEntity
  8
1
  6
SLD-Сплошная
100
AcDbLine
 10
593.8052878198
 20
1361.6768040114
 30
0.0
 11
593.5671281017
 21
1361.6768040114
 31
0.0
  0
LINE
  5
3F7
330
1F
100
AcDbEntity
  8
1
  6
SLD-Сплошная
100
AcDbLine
 10
592.6789476089
 20
1360.7886235186
 30
0.0
 11
593.5671281017
 21
1361.6768040114
 31
0.0
  0
LINE
  5
3F8
330
1F
100
AcDbEntity
  8
1
  6
SLD-Сплошная
100
AcDbLine
 10
590.0055665121
 20
1359.3433516335
 30
0.0
 11
590.2437262302
 21
1359.3433516335
 31
0.0
  0
LINE
  5
3F9
330
1F
100
AcDbEntity
  8
1
  6
SLD-Сплошная
100
AcDbLine
 10
591.131906723
 20
1360.2315321263
 30
0.0
 11
590.2437262302
 21
1359.3433516335
 31
0.0
  0
LINE
  5
3FA
330
1F
100
AcDbEntity
  8
1
  6
SLD-Сплошная
100
AcDbLine
 10
593.8052878198
 20
1359.3433516335
 30
0.0
 11
593.5671281017
 21
1359.3433516335
 31
0.0
  0
LINE
  5
3FB
330
1F
100
AcDbEntity
  8
1
  6
SLD-Сплошная
100
AcDbLine
 10
593.5671281017
 20
1359.3433516335
 30
0.0
 11
592.6789476089
 21
1360.2315321263
 31
0.0
  0
LINE
  5
3FC
330
1F
100
AcDbEntity
  8
1
  6
SLD-Сплошная
100
AcDbLine
 10
590.0055665121
 20
1361.6768040114
 30
0.0
 11
590.2437262302
 21
1361.6768040114
 31
0.0
  0
LINE
  5
3FD
330
1F
100
AcDbEntity
  8
1
  6
SLD-Сплошная
100
AcDbLine
 10
590.2437262302
 20
1361.6768040114
 30
0.0
 11
591.131906723
 21
1360.7886235186
 31
0.0
  0
LINE
  5
3FE
330
1F
100
AcDbEntity
  8
1
  6
SLD-Сплошная
100
AcDbLine
 10
593.0721533549
 20
1362.4099384763
 30
0.0
 11
593.0721533549
 21
1362.1717787583
 31
0.0
  0
LINE
  5
3FF
330
1F
100
AcDbEntity
  8
1
  6
SLD-Сплошная
100
AcDbLine
 10
593.0721533549
 20
1362.1717787583
 30
0.0
 11
592.1839728621
 21
1361.2835982654
 31
0.0
  0
LINE
  5
400
330
1F
100
AcDbEntity
  8
1
  6
SLD-Сплошная
100
AcDbLine
 10
593.0721533549
 20
1358.8483768867
 30
0.0
 11
593.5671281017
 21
1359.3433516335
 31
0.0
  0
LINE
  5
401
330
1F
100
AcDbEntity
  8
1
  6
SLD-Сплошная
100
AcDbLine
 10
593.5671281017
 20
1361.6768040114
 30
0.0
 11
593.0721533549
 21
1362.1717787583
 31
0.0
  0
LINE
  5
402
330
1F
100
AcDbEntity
  8
1
  6
SLD-Сплошная
100
AcDbLine
 10
590.2437262302
 20
1359.3433516335
 30
0.0
 11
590.738700977
 21
1358.8483768867
 31
0.0
  0
LINE
  5
403
330
1F
100
AcDbEntity
  8
1
  6
SLD-Сплошная
100
AcDbLine
 10
590.738700977
 20
1362.1717787583
 30
0.0
 11
590.2437262302
 21
1361.6768040114
 31
0.0
  0
CIRCLE
  5
404
330
1F
100
AcDbEntity
  8
1
  6
SLD-Сплошная
100
AcDbCircle
 10
591.9054271659
 20
1360.5100778225
 30
0.0
 40
5.000000000000121
  0
ARC
  5
405
330
1F
100
AcDbEntity
  8
1
  6
SLD-Сплошная
100
AcDbCircle
 10
1009.1506951481
 20
1377.7553458046
 30
0.0
 40
26.56195549737517
100
AcDbArc
 50
223.8816987745
 51
226.1183012255
  0
ARC
  5
406
330
1F
100
AcDbEntity
  8
1
  6
SLD-Сплошная
100
AcDbCircle
 10
975.6640129295
 20
1376.5231007966
 30
0.0
 40
23.41191191673675
100
AcDbArc
 50
310.0824770914
 51
312.9865596106
  0
SPLINE
  5
407
330
1F
100
AcDbEntity
  8
1
  6
SLD-Сплошная
100
AcDbSpline
210
0.0
220
0.0
230
1.0
 70
     8
 71
     3
 72
    12
 73
     8
 74
     0
 42
0.00000001
 43
0.00000001
 40
0.0
 40
0.0
 40
0.0
 40
0.0
 40
0.2187857887072029
 40
0.4375776469534793
 40
0.6562353658864007
 40
0.8748419359491081
 40
1.0
 40
1.0
 40
1.0
 40
1.0
 10
992.1839728620752
 20
1359.396967328651
 30
0.0
 10
992.1486474652063
 20
1359.423930754724
 30
0.0
 10
992.0779956914738
 20
1359.477858354885
 30
0.0
 10
991.9440324628328
 20
1359.510454243858
 30
0.0
 10
991.8084898365528
 20
1359.501105112616
 30
0.0
 10
991.6995920322588
 20
1359.457226354534
 30
0.0
 10
991.646288321453
 20
1359.413050796248
 30
0.0
 10
991.6268814698192
 20
1359.396967328651
 30
0.0
  0
ARC
  5
408
330
1F
100
AcDbEntity
  8
1
  6
SLD-Сплошная
100
AcDbCircle
 10
1008.1468414022
 20
1376.5231007964
 30
0.0
 40
23.41191191650395
100
AcDbArc
 50
227.0134403894
 51
229.9175229087
  0
ARC
  5
409
330
1F
100
AcDbEntity
  8
1
  6
SLD-Сплошная
100
AcDbCircle
 10
974.6601591838
 20
1377.7553458046
 30
0.0
 40
26.56195549737509
100
AcDbArc
 50
313.8816987745
 51
316.1183012255
  0
ARC
  5
40A
330
1F
100
AcDbEntity
  8
1
  6
SLD-Сплошная
100
AcDbCircle
 10
975.8924041924
 20
1344.2686635866
 30
0.0
 40
23.41191191589265
100
AcDbArc
 50
40.0824770913
 51
42.9865596106
  0
SPLINE
  5
40B
330
1F
100
AcDbEntity
  8
1
  6
SLD-Сплошная
100
AcDbSpline
210
0.0
220
0.0
230
1.0
 70
     8
 71
     3
 72
    12
 73
     8
 74
     0
 42
0.00000001
 43
0.00000001
 40
0.0
 40
0.0
 40
0.0
 40
0.0
 40
0.2187857887072079
 40
0.4375776469534822
 40
0.6562353658863856
 40
0.8748419359491009
 40
1.0
 40
1.0
 40
1.0
 40
1.0
 10
993.0185376597593
 20
1360.788623518592
 30
0.0
 10
992.9915742336873
 20
1360.753298121723
 30
0.0
 10
992.9376466335258
 20
1360.68264634799
 30
0.0
 10
992.9050507445527
 20
1360.548683119349
 30
0.0
 10
992.9143998757947
 20
1360.413140493069
 30
0.0
 10
992.9582786338766
 20
1360.304242688776
 30
0.0
 10
993.0024541921631
 20
1360.25093897797
 30
0.0
 10
993.0185376597593
 20
1360.231532126336
 30
0.0
  0
ARC
  5
40C
330
1F
100
AcDbEntity
  8
1
  6
SLD-Сплошная
100
AcDbCircle
 10
975.8924041924
 20
1376.7514920583
 30
0.0
 40
23.41191191589279
100
AcDbArc
 50
317.0134403894
 51
319.9175229087
  0
ARC
  5
40D
330
1F
100
AcDbEntity
  8
1
  6
SLD-Сплошная
100
AcDbCircle
 10
974.6601591842
 20
1343.2648098407
 30
0.0
 40
26.56195549685298
100
AcDbArc
 50
43.8816987744
 51
46.1183012256
  0
ARC
  5
40E
330
1F
100
AcDbEntity
  8
1
  6
SLD-Сплошная
100
AcDbCircle
 10
1008.146841402
 20
1344.4970548487
 30
0.0
 40
23.4119119161701
100
AcDbArc
 50
130.0824770913
 51
132.9865596106
  0
SPLINE
  5
40F
330
1F
100
AcDbEntity
  8
1
  6
SLD-Сплошная
100
AcDbSpline
210
0.0
220
0.0
230
1.0
 70
     8
 71
     3
 72
    12
 73
     8
 74
     0
 42
0.00000001
 43
0.00000001
 40
0.0
 40
0.0
 40
0.0
 40
0.0
 40
0.2187857887071742
 40
0.4375776469534876
 40
0.6562353658863623
 40
0.8748419359491093
 40
1.0
 40
1.0
 40
1.0
 40
1.0
 10
991.6268814698192
 20
1361.623188316276
 30
0.0
 10
991.662206866688
 20
1361.596224890204
 30
0.0
 10
991.7328586404205
 20
1361.542297290042
 30
0.0
 10
991.8668218690615
 20
1361.509701401069
 30
0.0
 10
992.0023644953415
 20
1361.519050532311
 30
0.0
 10
992.1112622996355
 20
1361.562929290393
 30
0.0
 10
992.1645660104414
 20
1361.60710484868
 30
0.0
 10
992.1839728620752
 20
1361.623188316276
 30
0.0
  0
ARC
  5
410
330
1F
100
AcDbEntity
  8
1
  6
SLD-Сплошная
100
AcDbCircle
 10
975.66401293
 20
1344.4970548489
 30
0.0
 40
23.41191191598984
100
AcDbArc
 50
47.0134403894
 51
49.9175229087
  0
ARC
  5
411
330
1F
100
AcDbEntity
  8
1
  6
SLD-Сплошная
100
AcDbCircle
 10
1009.1506951474
 20
1343.264809841
 30
0.0
 40
26.56195549632822
100
AcDbArc
 50
133.8816987744
 51
136.1183012256
  0
ARC
  5
412
330
1F
100
AcDbEntity
  8
1
  6
SLD-Сплошная
100
AcDbCircle
 10
1007.9184501396
 20
1376.7514920584
 30
0.0
 40
23.41191191605115
100
AcDbArc
 50
220.0824770913
 51
222.9865596106
  0
SPLINE
  5
413
330
1F
100
AcDbEntity
  8
1
  6
SLD-Сплошная
100
AcDbSpline
210
0.0
220
0.0
230
1.0
 70
     8
 71
     3
 72
    12
 73
     8
 74
     0
 42
0.00000001
 43
0.00000001
 40
0.0
 40
0.0
 40
0.0
 40
0.0
 40
0.2187857887071884
 40
0.4375776469534731
 40
0.6562353658863888
 40
0.8748419359491165
 40
1.0
 40
1.0
 40
1.0
 40
1.0
 10
990.7923166721348
 20
1360.231532126336
 30
0.0
 10
990.819280098207
 20
1360.266857523205
 30
0.0
 10
990.8732076983684
 20
1360.337509296937
 30
0.0
 10
990.9058035873414
 20
1360.471472525578
 30
0.0
 10
990.8964544560994
 20
1360.607015151858
 30
0.0
 10
990.8525756980175
 20
1360.715912956152
 30
0.0
 10
990.808400139731
 20
1360.769216666958
 30
0.0
 10
990.7923166721348
 20
1360.788623518592
 30
0.0
  0
ARC
  5
414
330
1F
100
AcDbEntity
  8
1
  6
SLD-Сплошная
100
AcDbCircle
 10
1007.9184501396
 20
1344.2686635865
 30
0.0
 40
23.41191191605115
100
AcDbArc
 50
137.0134403894
 51
139.9175229087
  0
CIRCLE
  5
415
330
1F
100
AcDbEntity
  8
1
  6
SLD-Сплошная
100
AcDbCircle
 10
991.9054271659
 20
1360.5100778225
 30
0.0
 40
3.499999999999948
  0
ELLIPSE
  5
416
330
1F
100
AcDbEntity
  8
1
  6
SLD-Сплошная
100
AcDbEllipse
 10
991.9054271659
 20
1359.4406910412
 30
0.0
 11
0.0
 21
0.4122489361056978
 31
0.0
210
0.0
220
0.0
230
1.0
 40
0.9702875252
 41
5.512866274278359
 42
7.053504340080623
  0
ELLIPSE
  5
417
330
1F
100
AcDbEntity
  8
1
  6
SLD-Сплошная
100
AcDbEllipse
 10
992.9748139472
 20
1360.5100778225
 30
0.0
 11
-0.4122489361056978
 21
0.0
 31
0.0
210
0.0
220
0.0
230
1.0
 40
0.9702875252
 41
5.512866274278217
 42
7.05350434008097
  0
ELLIPSE
  5
418
330
1F
100
AcDbEntity
  8
1
  6
SLD-Сплошная
100
AcDbEllipse
 10
991.9054271659
 20
1361.5794646037
 30
0.0
 11
0.0
 21
-0.4122489361056978
 31
0.0
210
0.0
220
0.0
230
1.0
 40
0.9702875252
 41
5.512866274278562
 42
7.053504340080828
  0
ELLIPSE
  5
419
330
1F
100
AcDbEntity
  8
1
  6
SLD-Сплошная
100
AcDbEllipse
 10
990.8360403847
 20
1360.5100778225
 30
0.0
 11
0.4122489361055841
 21
0.0
 31
0.0
210
0.0
220
0.0
230
1.0
 40
0.9702875252
 41
5.512866274278546
 42
7.053504340080639
  0
LINE
  5
41A
330
1F
100
AcDbEntity
  8
1
  6
SLD-Сплошная
100
AcDbLine
 10
993.8052878198
 20
1361.6768040114
 30
0.0
 11
993.5671281017
 21
1361.6768040114
 31
0.0
  0
LINE
  5
41B
330
1F
100
AcDbEntity
  8
1
  6
SLD-Сплошная
100
AcDbLine
 10
992.6789476089
 20
1360.7886235186
 30
0.0
 11
993.5671281017
 21
1361.6768040114
 31
0.0
  0
LINE
  5
41C
330
1F
100
AcDbEntity
  8
1
  6
SLD-Сплошная
100
AcDbLine
 10
993.0721533549
 20
1358.6102171687
 30
0.0
 11
993.0721533549
 21
1358.8483768867
 31
0.0
  0
LINE
  5
41D
330
1F
100
AcDbEntity
  8
1
  6
SLD-Сплошная
100
AcDbLine
 10
992.1839728621
 20
1359.7365573795
 30
0.0
 11
993.0721533549
 21
1358.8483768867
 31
0.0
  0
LINE
  5
41E
330
1F
100
AcDbEntity
  8
1
  6
SLD-Сплошная
100
AcDbLine
 10
990.738700977
 20
1358.6102171687
 30
0.0
 11
990.738700977
 21
1358.8483768867
 31
0.0
  0
LINE
  5
41F
330
1F
100
AcDbEntity
  8
1
  6
SLD-Сплошная
100
AcDbLine
 10
990.738700977
 20
1358.8483768867
 30
0.0
 11
991.6268814698
 21
1359.7365573795
 31
0.0
  0
LINE
  5
420
330
1F
100
AcDbEntity
  8
1
  6
SLD-Сплошная
100
AcDbLine
 10
990.738700977
 20
1362.4099384763
 30
0.0
 11
990.738700977
 21
1362.1717787583
 31
0.0
  0
LINE
  5
421
330
1F
100
AcDbEntity
  8
1
  6
SLD-Сплошная
100
AcDbLine
 10
991.6268814698
 20
1361.2835982654
 30
0.0
 11
990.738700977
 21
1362.1717787583
 31
0.0
  0
LINE
  5
422
330
1F
100
AcDbEntity
  8
1
  6
SLD-Сплошная
100
AcDbLine
 10
993.8052878198
 20
1359.3433516335
 30
0.0
 11
993.5671281017
 21
1359.3433516335
 31
0.0
  0
LINE
  5
423
330
1F
100
AcDbEntity
  8
1
  6
SLD-Сплошная
100
AcDbLine
 10
993.5671281017
 20
1359.3433516335
 30
0.0
 11
992.6789476089
 21
1360.2315321263
 31
0.0
  0
LINE
  5
424
330
1F
100
AcDbEntity
  8
1
  6
SLD-Сплошная
100
AcDbLine
 10
993.0721533549
 20
1362.4099384763
 30
0.0
 11
993.0721533549
 21
1362.1717787583
 31
0.0
  0
LINE
  5
425
330
1F
100
AcDbEntity
  8
1
  6
SLD-Сплошная
100
AcDbLine
 10
993.0721533549
 20
1362.1717787583
 30
0.0
 11
992.1839728621
 21
1361.2835982654
 31
0.0
  0
LINE
  5
426
330
1F
100
AcDbEntity
  8
1
  6
SLD-Сплошная
100
AcDbLine
 10
990.0055665121
 20
1359.3433516335
 30
0.0
 11
990.2437262302
 21
1359.3433516335
 31
0.0
  0
LINE
  5
427
330
1F
100
AcDbEntity
  8
1
  6
SLD-Сплошная
100
AcDbLine
 10
991.131906723
 20
1360.2315321263
 30
0.0
 11
990.2437262302
 21
1359.3433516335
 31
0.0
  0
LINE
  5
428
330
1F
100
AcDbEntity
  8
1
  6
SLD-Сплошная
100
AcDbLine
 10
990.0055665121
 20
1361.6768040114
 30
0.0
 11
990.2437262302
 21
1361.6768040114
 31
0.0
  0
LINE
  5
429
330
1F
100
AcDbEntity
  8
1
  6
SLD-Сплошная
100
AcDbLine
 10
990.2437262302
 20
1361.6768040114
 30
0.0
 11
991.131906723
 21
1360.7886235186
 31
0.0
  0
LINE
  5
42A
330
1F
100
AcDbEntity
  8
1
  6
SLD-Сплошная
100
AcDbLine
 10
993.0721533549
 20
1358.8483768867
 30
0.0
 11
993.5671281017
 21
1359.3433516335
 31
0.0
  0
LINE
  5
42B
330
1F
100
AcDbEntity
  8
1
  6
SLD-Сплошная
100
AcDbLine
 10
990.738700977
 20
1362.1717787583
 30
0.0
 11
990.2437262302
 21
1361.6768040114
 31
0.0
  0
LINE
  5
42C
330
1F
100
AcDbEntity
  8
1
  6
SLD-Сплошная
100
AcDbLine
 10
993.5671281017
 20
1361.6768040114
 30
0.0
 11
993.0721533549
 21
1362.1717787583
 31
0.0
  0
LINE
  5
42D
330
1F
100
AcDbEntity
  8
1
  6
SLD-Сплошная
100
AcDbLine
 10
990.2437262302
 20
1359.3433516335
 30
0.0
 11
990.738700977
 21
1358.8483768867
 31
0.0
  0
CIRCLE
  5
42E
330
1F
100
AcDbEntity
  8
1
  6
SLD-Сплошная
100
AcDbCircle
 10
991.9054271659
 20
1360.5100778225
 30
0.0
 40
4.999999999999879
  0
ARC
  5
42F
330
1F
100
AcDbEntity
  8
1
  6
SLD-Сплошная
100
AcDbCircle
 10
1026.6506951472
 20
1360.2553458037
 30
0.0
 40
26.56195549613448
100
AcDbArc
 50
223.8816987744
 51
226.1183012256
  0
ARC
  5
430
330
1F
100
AcDbEntity
  8
1
  6
SLD-Сплошная
100
AcDbCircle
 10
993.16401293
 20
1359.0231007961
 30
0.0
 40
23.41191191604471
100
AcDbArc
 50
310.0824770913
 51
312.9865596106
  0
SPLINE
  5
431
330
1F
100
AcDbEntity
  8
1
  6
SLD-Сплошная
100
AcDbSpline
210
0.0
220
0.0
230
1.0
 70
     8
 71
     3
 72
    12
 73
     8
 74
     0
 42
0.00000001
 43
0.00000001
 40
0.0
 40
0.0
 40
0.0
 40
0.0
 40
0.2187857887072029
 40
0.4375776469534793
 40
0.6562353658864007
 40
0.8748419359491081
 40
1.0
 40
1.0
 40
1.0
 40
1.0
 10
1009.683972862075
 20
1341.896967328651
 30
0.0
 10
1009.648647465206
 20
1341.923930754723
 30
0.0
 10
1009.577995691474
 20
1341.977858354885
 30
0.0
 10
1009.444032462833
 20
1342.010454243858
 30
0.0
 10
1009.308489836553
 20
1342.001105112616
 30
0.0
 10
1009.199592032259
 20
1341.957226354534
 30
0.0
 10
1009.146288321453
 20
1341.913050796247
 30
0.0
 10
1009.126881469819
 20
1341.896967328651
 30
0.0
  0
ARC
  5
432
330
1F
100
AcDbEntity
  8
1
  6
SLD-Сплошная
100
AcDbCircle
 10
1025.6468414019
 20
1359.0231007961
 30
0.0
 40
23.4119119160435
100
AcDbArc
 50
227.0134403894
 51
229.9175229087
  0
ARC
  5
433
330
1F
100
AcDbEntity
  8
1
  6
SLD-Сплошная
100
AcDbCircle
 10
992.1601591851
 20
1360.2553458033
 30
0.0
 40
26.56195549549178
100
AcDbArc
 50
313.8816987744
 51
316.1183012256
  0
ARC
  5
434
330
1F
100
AcDbEntity
  8
1
  6
SLD-Сплошная
100
AcDbCircle
 10
993.3924041915
 20
1326.7686635858
 30
0.0
 40
23.41191191712794
100
AcDbArc
 50
40.0824770914
 51
42.9865596105
  0
SPLINE
  5
435
330
1F
100
AcDbEntity
  8
1
  6
SLD-Сплошная
100
AcDbSpline
210
0.0
220
0.0
230
1.0
 70
     8
 71
     3
 72
    12
 73
     8
 74
     0
 42
0.00000001
 43
0.00000001
 40
0.0
 40
0.0
 40
0.0
 40
0.0
 40
0.2187857887072033
 40
0.4375776469534777
 40
0.6562353658863811
 40
0.8748419359490965
 40
1.0
 40
1.0
 40
1.0
 40
1.0
 10
1010.518537659759
 20
1343.288623518592
 30
0.0
 10
1010.491574233687
 20
1343.253298121723
 30
0.0
 10
1010.437646633526
 20
1343.18264634799
 30
0.0
 10
1010.405050744553
 20
1343.048683119349
 30
0.0
 10
1010.414399875795
 20
1342.913140493069
 30
0.0
 10
1010.458278633876
 20
1342.804242688776
 30
0.0
 10
1010.502454192163
 20
1342.75093897797
 30
0.0
 10
1010.518537659759
 20
1342.731532126336
 30
0.0
  0
ARC
  5
436
330
1F
100
AcDbEntity
  8
1
  6
SLD-Сплошная
100
AcDbCircle
 10
993.3924041922
 20
1359.2514920585
 30
0.0
 40
23.41191191622773
100
AcDbArc
 50
317.0134403894
 51
319.9175229087
  0
ARC
  5
437
330
1F
100
AcDbEntity
  8
1
  6
SLD-Сплошная
100
AcDbCircle
 10
992.1601591851
 20
1325.7648098416
 30
0.0
 40
26.56195549549161
100
AcDbArc
 50
43.8816987744
 51
46.1183012256
  0
ARC
  5
438
330
1F
100
AcDbEntity
  8
1
  6
SLD-Сплошная
100
AcDbCircle
 10
1025.6468414018
 20
1326.9970548489
 30
0.0
 40
23.41191191596882
100
AcDbArc
 50
130.0824770913
 51
132.9865596106
  0
SPLINE
  5
439
330
1F
100
AcDbEntity
  8
1
  6
SLD-Сплошная
100
AcDbSpline
210
0.0
220
0.0
230
1.0
 70
     8
 71
     3
 72
    12
 73
     8
 74
     0
 42
0.00000001
 43
0.00000001
 40
0.0
 40
0.0
 40
0.0
 40
0.0
 40
0.2187857887071716
 40
0.4375776469534868
 40
0.6562353658863617
 40
0.874841935949109
 40
1.0
 40
1.0
 40
1.0
 40
1.0
 10
1009.126881469819
 20
1344.123188316276
 30
0.0
 10
1009.162206866688
 20
1344.096224890204
 30
0.0
 10
1009.23285864042
 20
1344.042297290042
 30
0.0
 10
1009.366821869062
 20
1344.009701401069
 30
0.0
 10
1009.502364495341
 20
1344.019050532311
 30
0.0
 10
1009.611262299635
 20
1344.062929290393
 30
0.0
 10
1009.664566010441
 20
1344.10710484868
 30
0.0
 10
1009.683972862075
 20
1344.123188316276
 30
0.0
  0
ARC
  5
43A
330
1F
100
AcDbEntity
  8
1
  6
SLD-Сплошная
100
AcDbCircle
 10
993.16401293
 20
1326.9970548489
 30
0.0
 40
23.41191191597004
100
AcDbArc
 50
47.0134403894
 51
49.9175229087
  0
ARC
  5
43B
330
1F
100
AcDbEntity
  8
1
  6
SLD-Сплошная
100
AcDbCircle
 10
1026.6506951469
 20
1325.7648098415
 30
0.0
 40
26.56195549562677
100
AcDbArc
 50
133.8816987744
 51
136.1183012256
  0
ARC
  5
43C
330
1F
100
AcDbEntity
  8
1
  6
SLD-Сплошная
100
AcDbCircle
 10
1025.4184501402
 20
1359.2514920589
 30
0.0
 40
23.41191191681074
100
AcDbArc
 50
220.0824770914
 51
222.9865596105
  0
SPLINE
  5
43D
330
1F
100
AcDbEntity
  8
1
  6
SLD-Сплошная
100
AcDbSpline
210
0.0
220
0.0
230
1.0
 70
     8
 71
     3
 72
    12
 73
     8
 74
     0
 42
0.00000001
 43
0.00000001
 40
0.0
 40
0.0
 40
0.0
 40
0.0
 40
0.2187857887071835
 40
0.4375776469534734
 40
0.656235365886389
 40
0.8748419359491165
 40
1.0
 40
1.0
 40
1.0
 40
1.0
 10
1008.292316672135
 20
1342.731532126336
 30
0.0
 10
1008.319280098207
 20
1342.766857523205
 30
0.0
 10
1008.373207698368
 20
1342.837509296937
 30
0.0
 10
1008.405803587341
 20
1342.971472525578
 30
0.0
 10
1008.396454456099
 20
1343.107015151858
 30
0.0
 10
1008.352575698018
 20
1343.215912956152
 30
0.0
 10
1008.308400139731
 20
1343.269216666958
 30
0.0
 10
1008.292316672135
 20
1343.288623518592
 30
0.0
  0
ARC
  5
43E
330
1F
100
AcDbEntity
  8
1
  6
SLD-Сплошная
100
AcDbCircle
 10
1025.4184501405
 20
1326.7686635858
 30
0.0
 40
23.41191191719222
100
AcDbArc
 50
137.0134403895
 51
139.9175229086
  0
CIRCLE
  5
43F
330
1F
100
AcDbEntity
  8
1
  6
SLD-Сплошная
100
AcDbCircle
 10
1009.4054271659
 20
1343.0100778225
 30
0.0
 40
3.499999999999948
  0
ELLIPSE
  5
440
330
1F
100
AcDbEntity
  8
1
  6
SLD-Сплошная
100
AcDbEllipse
 10
1010.4748139472
 20
1343.0100778225
 30
0.0
 11
-0.4122489361055841
 21
0.0
 31
0.0
210
0.0
220
0.0
230
1.0
 40
0.9702875252
 41
5.512866274278639
 42
7.05350434008014
  0
ELLIPSE
  5
441
330
1F
100
AcDbEntity
  8
1
  6
SLD-Сплошная
100
AcDbEllipse
 10
1008.3360403847
 20
1343.0100778225
 30
0.0
 11
0.4122489361058115
 21
0.0
 31
0.0
210
0.0
220
0.0
230
1.0
 40
0.9702875252
 41
5.512866274279155
 42
7.05350434008044
  0
ELLIPSE
  5
442
330
1F
100
AcDbEntity
  8
1
  6
SLD-Сплошная
100
AcDbEllipse
 10
1009.4054271659
 20
1341.9406910412
 30
0.0
 11
0.0
 21
0.4122489361054704
 31
0.0
210
0.0
220
0.0
230
1.0
 40
0.9702875252
 41
5.512866274278814
 42
7.053504340080169
  0
ELLIPSE
  5
443
330
1F
100
AcDbEntity
  8
1
  6
SLD-Сплошная
100
AcDbEllipse
 10
1009.4054271659
 20
1344.0794646037
 30
0.0
 11
0.0
 21
-0.4122489361056978
 31
0.0
210
0.0
220
0.0
230
1.0
 40
0.9702875252
 41
5.512866274278217
 42
7.053504340081174
  0
LINE
  5
444
330
1F
100
AcDbEntity
  8
1
  6
SLD-Сплошная
100
AcDbLine
 10
1011.3052878198
 20
1344.1768040114
 30
0.0
 11
1011.0671281017
 21
1344.1768040114
 31
0.0
  0
LINE
  5
445
330
1F
100
AcDbEntity
  8
1
  6
SLD-Сплошная
100
AcDbLine
 10
1010.1789476089
 20
1343.2886235186
 30
0.0
 11
1011.0671281017
 21
1344.1768040114
 31
0.0
  0
LINE
  5
446
330
1F
100
AcDbEntity
  8
1
  6
SLD-Сплошная
100
AcDbLine
 10
1008.238700977
 20
1344.9099384763
 30
0.0
 11
1008.238700977
 21
1344.6717787583
 31
0.0
  0
LINE
  5
447
330
1F
100
AcDbEntity
  8
1
  6
SLD-Сплошная
100
AcDbLine
 10
1009.1268814698
 20
1343.7835982654
 30
0.0
 11
1008.238700977
 21
1344.6717787583
 31
0.0
  0
LINE
  5
448
330
1F
100
AcDbEntity
  8
1
  6
SLD-Сплошная
100
AcDbLine
 10
1010.5721533549
 20
1341.1102171687
 30
0.0
 11
1010.5721533549
 21
1341.3483768867
 31
0.0
  0
LINE
  5
449
330
1F
100
AcDbEntity
  8
1
  6
SLD-Сплошная
100
AcDbLine
 10
1009.6839728621
 20
1342.2365573795
 30
0.0
 11
1010.5721533549
 21
1341.3483768867
 31
0.0
  0
LINE
  5
44A
330
1F
100
AcDbEntity
  8
1
  6
SLD-Сплошная
100
AcDbLine
 10
1010.5721533549
 20
1344.9099384763
 30
0.0
 11
1010.5721533549
 21
1344.6717787583
 31
0.0
  0
LINE
  5
44B
330
1F
100
AcDbEntity
  8
1
  6
SLD-Сплошная
100
AcDbLine
 10
1010.5721533549
 20
1344.6717787583
 30
0.0
 11
1009.6839728621
 21
1343.7835982654
 31
0.0
  0
LINE
  5
44C
330
1F
100
AcDbEntity
  8
1
  6
SLD-Сплошная
100
AcDbLine
 10
1007.5055665121
 20
1344.1768040114
 30
0.0
 11
1007.7437262302
 21
1344.1768040114
 31
0.0
  0
LINE
  5
44D
330
1F
100
AcDbEntity
  8
1
  6
SLD-Сплошная
100
AcDbLine
 10
1007.7437262302
 20
1344.1768040114
 30
0.0
 11
1008.631906723
 21
1343.2886235186
 31
0.0
  0
LINE
  5
44E
330
1F
100
AcDbEntity
  8
1
  6
SLD-Сплошная
100
AcDbLine
 10
1007.5055665121
 20
1341.8433516335
 30
0.0
 11
1007.7437262302
 21
1341.8433516335
 31
0.0
  0
LINE
  5
44F
330
1F
100
AcDbEntity
  8
1
  6
SLD-Сплошная
100
AcDbLine
 10
1008.631906723
 20
1342.7315321263
 30
0.0
 11
1007.7437262302
 21
1341.8433516335
 31
0.0
  0
LINE
  5
450
330
1F
100
AcDbEntity
  8
1
  6
SLD-Сплошная
100
AcDbLine
 10
1011.3052878198
 20
1341.8433516335
 30
0.0
 11
1011.0671281017
 21
1341.8433516335
 31
0.0
  0
LINE
  5
451
330
1F
100
AcDbEntity
  8
1
  6
SLD-Сплошная
100
AcDbLine
 10
1011.0671281017
 20
1341.8433516335
 30
0.0
 11
1010.1789476089
 21
1342.7315321263
 31
0.0
  0
LINE
  5
452
330
1F
100
AcDbEntity
  8
1
  6
SLD-Сплошная
100
AcDbLine
 10
1008.238700977
 20
1341.1102171687
 30
0.0
 11
1008.238700977
 21
1341.3483768867
 31
0.0
  0
LINE
  5
453
330
1F
100
AcDbEntity
  8
1
  6
SLD-Сплошная
100
AcDbLine
 10
1008.238700977
 20
1341.3483768867
 30
0.0
 11
1009.1268814698
 21
1342.2365573795
 31
0.0
  0
LINE
  5
454
330
1F
100
AcDbEntity
  8
1
  6
SLD-Сплошная
100
AcDbLine
 10
1008.238700977
 20
1344.6717787583
 30
0.0
 11
1007.7437262302
 21
1344.1768040114
 31
0.0
  0
LINE
  5
455
330
1F
100
AcDbEntity
  8
1
  6
SLD-Сплошная
100
AcDbLine
 10
1011.0671281017
 20
1344.1768040114
 30
0.0
 11
1010.5721533549
 21
1344.6717787583
 31
0.0
  0
LINE
  5
456
330
1F
100
AcDbEntity
  8
1
  6
SLD-Сплошная
100
AcDbLine
 10
1007.7437262302
 20
1341.8433516335
 30
0.0
 11
1008.238700977
 21
1341.3483768867
 31
0.0
  0
LINE
  5
457
330
1F
100
AcDbEntity
  8
1
  6
SLD-Сплошная
100
AcDbLine
 10
1010.5721533549
 20
1341.3483768867
 30
0.0
 11
1011.0671281017
 21
1341.8433516335
 31
0.0
  0
CIRCLE
  5
458
330
1F
100
AcDbEntity
  8
1
  6
SLD-Сплошная
100
AcDbCircle
 10
1009.4054271659
 20
1343.0100778225
 30
0.0
 40
4.999999999999799
  0
ARC
  5
459
330
1F
100
AcDbEntity
  8
1
  6
SLD-Сплошная
100
AcDbCircle
 10
574.660159185
 20
1267.7553458034
 30
0.0
 40
26.56195549568958
100
AcDbArc
 50
313.8816987744
 51
316.1183012256
  0
ARC
  5
45A
330
1F
100
AcDbEntity
  8
1
  6
SLD-Сплошная
100
AcDbCircle
 10
575.892404192
 20
1234.2686635863
 30
0.0
 40
23.411911916397
100
AcDbArc
 50
40.0824770913
 51
42.9865596106
  0
SPLINE
  5
45B
330
1F
100
AcDbEntity
  8
1
  6
SLD-Сплошная
100
AcDbSpline
210
0.0
220
0.0
230
1.0
 70
     8
 71
     3
 72
    12
 73
     8
 74
     0
 42
0.00000001
 43
0.00000001
 40
0.0
 40
0.0
 40
0.0
 40
0.0
 40
0.2187857887071841
 40
0.4375776469534907
 40
0.6562353658863597
 40
0.8748419359491056
 40
1.0
 40
1.0
 40
1.0
 40
1.0
 10
593.0185376597593
 20
1250.788623518592
 30
0.0
 10
592.9915742336873
 20
1250.753298121723
 30
0.0
 10
592.9376466335257
 20
1250.68264634799
 30
0.0
 10
592.9050507445527
 20
1250.548683119349
 30
0.0
 10
592.9143998757949
 20
1250.413140493069
 30
0.0
 10
592.9582786338766
 20
1250.304242688775
 30
0.0
 10
593.002454192163
 20
1250.250938977969
 30
0.0
 10
593.0185376597594
 20
1250.231532126335
 30
0.0
  0
ARC
  5
45C
330
1F
100
AcDbEntity
  8
1
  6
SLD-Сплошная
100
AcDbCircle
 10
575.892404192
 20
1266.7514920586
 30
0.0
 40
23.41191191639729
100
AcDbArc
 50
317.0134403894
 51
319.9175229087
  0
ARC
  5
45D
330
1F
100
AcDbEntity
  8
1
  6
SLD-Сплошная
100
AcDbCircle
 10
574.6601591853
 20
1233.2648098418
 30
0.0
 40
26.56195549531086
100
AcDbArc
 50
43.8816987744
 51
46.1183012256
  0
ARC
  5
45E
330
1F
100
AcDbEntity
  8
1
  6
SLD-Сплошная
100
AcDbCircle
 10
608.1468414021
 20
1234.4970548486
 30
0.0
 40
23.41191191637931
100
AcDbArc
 50
130.0824770913
 51
132.9865596106
  0
SPLINE
  5
45F
330
1F
100
AcDbEntity
  8
1
  6
SLD-Сплошная
100
AcDbSpline
210
0.0
220
0.0
230
1.0
 70
     8
 71
     3
 72
    12
 73
     8
 74
     0
 42
0.00000001
 43
0.00000001
 40
0.0
 40
0.0
 40
0.0
 40
0.0
 40
0.2187857887071623
 40
0.4375776469534822
 40
0.6562353658863613
 40
0.8748419359490999
 40
1.0
 40
1.0
 40
1.0
 40
1.0
 10
591.6268814698191
 20
1251.623188316276
 30
0.0
 10
591.662206866688
 20
1251.596224890204
 30
0.0
 10
591.7328586404203
 20
1251.542297290042
 30
0.0
 10
591.8668218690615
 20
1251.509701401069
 30
0.0
 10
592.0023644953413
 20
1251.519050532311
 30
0.0
 10
592.1112622996354
 20
1251.562929290393
 30
0.0
 10
592.1645660104413
 20
1251.607104848679
 30
0.0
 10
592.1839728620752
 20
1251.623188316276
 30
0.0
  0
ARC
  5
460
330
1F
100
AcDbEntity
  8
1
  6
SLD-Сплошная
100
AcDbCircle
 10
575.6640129299
 20
1234.4970548487
 30
0.0
 40
23.41191191624437
100
AcDbArc
 50
47.0134403894
 51
49.9175229087
  0
ARC
  5
461
330
1F
100
AcDbEntity
  8
1
  6
SLD-Сплошная
100
AcDbCircle
 10
609.1506951464
 20
1233.264809842
 30
0.0
 40
26.56195549498181
100
AcDbArc
 50
133.8816987744
 51
136.1183012256
  0
ARC
  5
462
330
1F
100
AcDbEntity
  8
1
  6
SLD-Сплошная
100
AcDbCircle
 10
607.9184501399
 20
1266.7514920586
 30
0.0
 40
23.41191191639715
100
AcDbArc
 50
220.0824770913
 51
222.9865596106
  0
SPLINE
  5
463
330
1F
100
AcDbEntity
  8
1
  6
SLD-Сплошная
100
AcDbSpline
210
0.0
220
0.0
230
1.0
 70
     8
 71
     3
 72
    12
 73
     8
 74
     0
 42
0.00000001
 43
0.00000001
 40
0.0
 40
0.0
 40
0.0
 40
0.0
 40
0.2187857887072001
 40
0.4375776469534771
 40
0.6562353658864017
 40
0.8748419359490995
 40
1.0
 40
1.0
 40
1.0
 40
1.0
 10
590.7923166721348
 20
1250.231532126335
 30
0.0
 10
590.8192800982068
 20
1250.266857523204
 30
0.0
 10
590.8732076983683
 20
1250.337509296937
 30
0.0
 10
590.9058035873414
 20
1250.471472525578
 30
0.0
 10
590.8964544560993
 20
1250.607015151858
 30
0.0
 10
590.8525756980176
 20
1250.715912956152
 30
0.0
 10
590.8084001397311
 20
1250.769216666958
 30
0.0
 10
590.7923166721348
 20
1250.788623518592
 30
0.0
  0
ARC
  5
464
330
1F
100
AcDbEntity
  8
1
  6
SLD-Сплошная
100
AcDbCircle
 10
607.9184501398
 20
1234.2686635864
 30
0.0
 40
23.41191191627792
100
AcDbArc
 50
137.0134403894
 51
139.9175229087
  0
ARC
  5
465
330
1F
100
AcDbEntity
  8
1
  6
SLD-Сплошная
100
AcDbCircle
 10
609.1506951465
 20
1267.7553458031
 30
0.0
 40
26.56195549517486
100
AcDbArc
 50
223.8816987744
 51
226.1183012256
  0
ARC
  5
466
330
1F
100
AcDbEntity
  8
1
  6
SLD-Сплошная
100
AcDbCircle
 10
575.6640129298
 20
1266.5231007964
 30
0.0
 40
23.41191191640133
100
AcDbArc
 50
310.0824770913
 51
312.9865596106
  0
SPLINE
  5
467
330
1F
100
AcDbEntity
  8
1
  6
SLD-Сплошная
100
AcDbSpline
210
0.0
220
0.0
230
1.0
 70
     8
 71
     3
 72
    12
 73
     8
 74
     0
 42
0.00000001
 43
0.00000001
 40
0.0
 40
0.0
 40
0.0
 40
0.0
 40
0.218785788707222
 40
0.4375776469534855
 40
0.6562353658864003
 40
0.8748419359491052
 40
1.0
 40
1.0
 40
1.0
 40
1.0
 10
592.1839728620752
 20
1249.396967328651
 30
0.0
 10
592.1486474652062
 20
1249.423930754723
 30
0.0
 10
592.0779956914738
 20
1249.477858354885
 30
0.0
 10
591.9440324628326
 20
1249.510454243858
 30
0.0
 10
591.8084898365528
 20
1249.501105112616
 30
0.0
 10
591.6995920322588
 20
1249.457226354534
 30
0.0
 10
591.646288321453
 20
1249.413050796247
 30
0.0
 10
591.6268814698191
 20
1249.396967328651
 30
0.0
  0
ARC
  5
468
330
1F
100
AcDbEntity
  8
1
  6
SLD-Сплошная
100
AcDbCircle
 10
608.1468414021
 20
1266.5231007963
 30
0.0
 40
23.41191191630077
100
AcDbArc
 50
227.0134403894
 51
229.9175229087
  0
CIRCLE
  5
469
330
1F
100
AcDbEntity
  8
1
  6
SLD-Сплошная
100
AcDbCircle
 10
591.9054271659
 20
1250.5100778225
 30
0.0
 40
3.50000000000027
  0
ELLIPSE
  5
46A
330
1F
100
AcDbEntity
  8
1
  6
SLD-Сплошная
100
AcDbEllipse
 10
591.9054271659
 20
1249.4406910412
 30
0.0
 11
0.0
 21
0.4122489361056978
 31
0.0
210
0.0
220
0.0
230
1.0
 40
0.9702875252
 41
5.512866274278742
 42
7.053504340080444
  0
ELLIPSE
  5
46B
330
1F
100
AcDbEntity
  8
1
  6
SLD-Сплошная
100
AcDbEllipse
 10
590.8360403847
 20
1250.5100778225
 30
0.0
 11
0.4122489361055841
 21
0.0
 31
0.0
210
0.0
220
0.0
230
1.0
 40
0.9702875252
 41
5.512866274278706
 42
7.053504340079664
  0
ELLIPSE
  5
46C
330
1F
100
AcDbEntity
  8
1
  6
SLD-Сплошная
100
AcDbEllipse
 10
592.9748139472
 20
1250.5100778225
 30
0.0
 11
-0.4122489361056978
 21
0.0
 31
0.0
210
0.0
220
0.0
230
1.0
 40
0.9702875252
 41
5.512866274278816
 42
7.053504340081186
  0
ELLIPSE
  5
46D
330
1F
100
AcDbEntity
  8
1
  6
SLD-Сплошная
100
AcDbEllipse
 10
591.9054271659
 20
1251.5794646037
 30
0.0
 11
0.0
 21
-0.4122489361054704
 31
0.0
210
0.0
220
0.0
230
1.0
 40
0.9702875252
 41
5.512866274279018
 42
7.053504340080169
  0
LINE
  5
46E
330
1F
100
AcDbEntity
  8
1
  6
SLD-Сплошная
100
AcDbLine
 10
590.0055665121
 20
1249.3433516335
 30
0.0
 11
590.2437262302
 21
1249.3433516335
 31
0.0
  0
LINE
  5
46F
330
1F
100
AcDbEntity
  8
1
  6
SLD-Сплошная
100
AcDbLine
 10
591.131906723
 20
1250.2315321263
 30
0.0
 11
590.2437262302
 21
1249.3433516335
 31
0.0
  0
LINE
  5
470
330
1F
100
AcDbEntity
  8
1
  6
SLD-Сплошная
100
AcDbLine
 10
590.0055665121
 20
1251.6768040114
 30
0.0
 11
590.2437262302
 21
1251.6768040114
 31
0.0
  0
LINE
  5
471
330
1F
100
AcDbEntity
  8
1
  6
SLD-Сплошная
100
AcDbLine
 10
590.2437262302
 20
1251.6768040114
 30
0.0
 11
591.131906723
 21
1250.7886235186
 31
0.0
  0
LINE
  5
472
330
1F
100
AcDbEntity
  8
1
  6
SLD-Сплошная
100
AcDbLine
 10
593.0721533549
 20
1252.4099384763
 30
0.0
 11
593.0721533549
 21
1252.1717787583
 31
0.0
  0
LINE
  5
473
330
1F
100
AcDbEntity
  8
1
  6
SLD-Сплошная
100
AcDbLine
 10
593.0721533549
 20
1252.1717787583
 30
0.0
 11
592.1839728621
 21
1251.2835982654
 31
0.0
  0
LINE
  5
474
330
1F
100
AcDbEntity
  8
1
  6
SLD-Сплошная
100
AcDbLine
 10
593.8052878198
 20
1249.3433516335
 30
0.0
 11
593.5671281017
 21
1249.3433516335
 31
0.0
  0
LINE
  5
475
330
1F
100
AcDbEntity
  8
1
  6
SLD-Сплошная
100
AcDbLine
 10
593.5671281017
 20
1249.3433516335
 30
0.0
 11
592.6789476089
 21
1250.2315321263
 31
0.0
  0
LINE
  5
476
330
1F
100
AcDbEntity
  8
1
  6
SLD-Сплошная
100
AcDbLine
 10
590.738700977
 20
1248.6102171687
 30
0.0
 11
590.738700977
 21
1248.8483768867
 31
0.0
  0
LINE
  5
477
330
1F
100
AcDbEntity
  8
1
  6
SLD-Сплошная
100
AcDbLine
 10
590.738700977
 20
1248.8483768867
 30
0.0
 11
591.6268814698
 21
1249.7365573795
 31
0.0
  0
LINE
  5
478
330
1F
100
AcDbEntity
  8
1
  6
SLD-Сплошная
100
AcDbLine
 10
590.738700977
 20
1252.4099384763
 30
0.0
 11
590.738700977
 21
1252.1717787583
 31
0.0
  0
LINE
  5
479
330
1F
100
AcDbEntity
  8
1
  6
SLD-Сплошная
100
AcDbLine
 10
591.6268814698
 20
1251.2835982654
 30
0.0
 11
590.738700977
 21
1252.1717787583
 31
0.0
  0
LINE
  5
47A
330
1F
100
AcDbEntity
  8
1
  6
SLD-Сплошная
100
AcDbLine
 10
593.8052878198
 20
1251.6768040114
 30
0.0
 11
593.5671281017
 21
1251.6768040114
 31
0.0
  0
LINE
  5
47B
330
1F
100
AcDbEntity
  8
1
  6
SLD-Сплошная
100
AcDbLine
 10
592.6789476089
 20
1250.7886235186
 30
0.0
 11
593.5671281017
 21
1251.6768040114
 31
0.0
  0
LINE
  5
47C
330
1F
100
AcDbEntity
  8
1
  6
SLD-Сплошная
100
AcDbLine
 10
593.0721533549
 20
1248.6102171687
 30
0.0
 11
593.0721533549
 21
1248.8483768867
 31
0.0
  0
LINE
  5
47D
330
1F
100
AcDbEntity
  8
1
  6
SLD-Сплошная
100
AcDbLine
 10
592.1839728621
 20
1249.7365573795
 30
0.0
 11
593.0721533549
 21
1248.8483768867
 31
0.0
  0
LINE
  5
47E
330
1F
100
AcDbEntity
  8
1
  6
SLD-Сплошная
100
AcDbLine
 10
590.738700977
 20
1252.1717787583
 30
0.0
 11
590.2437262302
 21
1251.6768040114
 31
0.0
  0
LINE
  5
47F
330
1F
100
AcDbEntity
  8
1
  6
SLD-Сплошная
100
AcDbLine
 10
590.2437262302
 20
1249.3433516335
 30
0.0
 11
590.738700977
 21
1248.8483768867
 31
0.0
  0
LINE
  5
480
330
1F
100
AcDbEntity
  8
1
  6
SLD-Сплошная
100
AcDbLine
 10
593.0721533549
 20
1248.8483768867
 30
0.0
 11
593.5671281017
 21
1249.3433516335
 31
0.0
  0
LINE
  5
481
330
1F
100
AcDbEntity
  8
1
  6
SLD-Сплошная
100
AcDbLine
 10
593.5671281017
 20
1251.6768040114
 30
0.0
 11
593.0721533549
 21
1252.1717787583
 31
0.0
  0
CIRCLE
  5
482
330
1F
100
AcDbEntity
  8
1
  6
SLD-Сплошная
100
AcDbCircle
 10
591.9054271659
 20
1250.5100778225
 30
0.0
 40
5.000000000000121
  0
ARC
  5
483
330
1F
100
AcDbEntity
  8
1
  6
SLD-Сплошная
100
AcDbCircle
 10
674.6601591851
 20
1267.7553458033
 30
0.0
 40
26.5619554955015
100
AcDbArc
 50
313.8816987744
 51
316.1183012256
  0
ARC
  5
484
330
1F
100
AcDbEntity
  8
1
  6
SLD-Сплошная
100
AcDbCircle
 10
675.8924041921
 20
1234.2686635864
 30
0.0
 40
23.41191191627792
100
AcDbArc
 50
40.0824770913
 51
42.9865596106
  0
SPLINE
  5
485
330
1F
100
AcDbEntity
  8
1
  6
SLD-Сплошная
100
AcDbSpline
210
0.0
220
0.0
230
1.0
 70
     8
 71
     3
 72
    12
 73
     8
 74
     0
 42
0.00000001
 43
0.00000001
 40
0.0
 40
0.0
 40
0.0
 40
0.0
 40
0.2187857887071764
 40
0.4375776469534876
 40
0.6562353658863611
 40
0.874841935949103
 40
0.9999999999999999
 40
0.9999999999999999
 40
0.9999999999999999
 40
0.9999999999999999
 10
693.0185376597594
 20
1250.788623518592
 30
0.0
 10
692.9915742336873
 20
1250.753298121723
 30
0.0
 10
692.9376466335259
 20
1250.68264634799
 30
0.0
 10
692.9050507445528
 20
1250.548683119349
 30
0.0
 10
692.9143998757949
 20
1250.413140493069
 30
0.0
 10
692.9582786338767
 20
1250.304242688775
 30
0.0
 10
693.0024541921631
 20
1250.250938977969
 30
0.0
 10
693.0185376597594
 20
1250.231532126335
 30
0.0
  0
ARC
  5
486
330
1F
100
AcDbEntity
  8
1
  6
SLD-Сплошная
100
AcDbCircle
 10
675.8924041921
 20
1266.7514920586
 30
0.0
 40
23.41191191627792
100
AcDbArc
 50
317.0134403894
 51
319.9175229087
  0
ARC
  5
487
330
1F
100
AcDbEntity
  8
1
  6
SLD-Сплошная
100
AcDbCircle
 10
674.6601591854
 20
1233.2648098419
 30
0.0
 40
26.56195549512262
100
AcDbArc
 50
43.8816987744
 51
46.1183012256
  0
ARC
  5
488
330
1F
100
AcDbEntity
  8
1
  6
SLD-Сплошная
100
AcDbCircle
 10
708.1468414021
 20
1234.4970548486
 30
0.0
 40
23.41191191637931
100
AcDbArc
 50
130.0824770913
 51
132.9865596106
  0
SPLINE
  5
489
330
1F
100
AcDbEntity
  8
1
  6
SLD-Сплошная
100
AcDbSpline
210
0.0
220
0.0
230
1.0
 70
     8
 71
     3
 72
    12
 73
     8
 74
     0
 42
0.00000001
 43
0.00000001
 40
0.0
 40
0.0
 40
0.0
 40
0.0
 40
0.2187857887071817
 40
0.4375776469534588
 40
0.6562353658863838
 40
0.8748419359490818
 40
1.0
 40
1.0
 40
1.0
 40
1.0
 10
691.6268814698191
 20
1251.623188316276
 30
0.0
 10
691.662206866688
 20
1251.596224890204
 30
0.0
 10
691.7328586404204
 20
1251.542297290042
 30
0.0
 10
691.8668218690615
 20
1251.509701401069
 30
0.0
 10
692.0023644953415
 20
1251.519050532311
 30
0.0
 10
692.1112622996354
 20
1251.562929290393
 30
0.0
 10
692.1645660104413
 20
1251.607104848679
 30
0.0
 10
692.1839728620752
 20
1251.623188316276
 30
0.0
  0
ARC
  5
48A
330
1F
100
AcDbEntity
  8
1
  6
SLD-Сплошная
100
AcDbCircle
 10
675.6640129299
 20
1234.4970548487
 30
0.0
 40
23.41191191614365
100
AcDbArc
 50
47.0134403894
 51
49.9175229087
  0
ARC
  5
48B
330
1F
100
AcDbEntity
  8
1
  6
SLD-Сплошная
100
AcDbCircle
 10
709.1506951465
 20
1233.2648098419
 30
0.0
 40
26.56195549512246
100
AcDbArc
 50
133.8816987744
 51
136.1183012256
  0
ARC
  5
48C
330
1F
100
AcDbEntity
  8
1
  6
SLD-Сплошная
100
AcDbCircle
 10
707.9184501398
 20
1266.7514920586
 30
0.0
 40
23.411911916278
100
AcDbArc
 50
220.0824770913
 51
222.9865596106
  0
SPLINE
  5
48D
330
1F
100
AcDbEntity
  8
1
  6
SLD-Сплошная
100
AcDbSpline
210
0.0
220
0.0
230
1.0
 70
     8
 71
     3
 72
    12
 73
     8
 74
     0
 42
0.00000001
 43
0.00000001
 40
0.0
 40
0.0
 40
0.0
 40
0.0
 40
0.2187857887072047
 40
0.4375776469534796
 40
0.6562353658863966
 40
0.874841935949104
 40
1.0
 40
1.0
 40
1.0
 40
1.0
 10
690.7923166721348
 20
1250.231532126335
 30
0.0
 10
690.819280098207
 20
1250.266857523205
 30
0.0
 10
690.8732076983684
 20
1250.337509296937
 30
0.0
 10
690.9058035873414
 20
1250.471472525578
 30
0.0
 10
690.8964544560994
 20
1250.607015151858
 30
0.0
 10
690.8525756980176
 20
1250.715912956152
 30
0.0
 10
690.8084001397311
 20
1250.769216666958
 30
0.0
 10
690.7923166721348
 20
1250.788623518592
 30
0.0
  0
ARC
  5
48E
330
1F
100
AcDbEntity
  8
1
  6
SLD-Сплошная
100
AcDbCircle
 10
707.9184501398
 20
1234.2686635864
 30
0.0
 40
23.411911916278
100
AcDbArc
 50
137.0134403894
 51
139.9175229087
  0
ARC
  5
48F
330
1F
100
AcDbEntity
  8
1
  6
SLD-Сплошная
100
AcDbCircle
 10
709.1506951468
 20
1267.7553458033
 30
0.0
 40
26.56195549550166
100
AcDbArc
 50
223.8816987744
 51
226.1183012256
  0
ARC
  5
490
330
1F
100
AcDbEntity
  8
1
  6
SLD-Сплошная
100
AcDbCircle
 10
675.6640129298
 20
1266.5231007963
 30
0.0
 40
23.41191191630077
100
AcDbArc
 50
310.0824770913
 51
312.9865596106
  0
SPLINE
  5
491
330
1F
100
AcDbEntity
  8
1
  6
SLD-Сплошная
100
AcDbSpline
210
0.0
220
0.0
230
1.0
 70
     8
 71
     3
 72
    12
 73
     8
 74
     0
 42
0.00000001
 43
0.00000001
 40
0.0
 40
0.0
 40
0.0
 40
0.0
 40
0.2187857887072036
 40
0.4375776469534673
 40
0.6562353658863823
 40
0.8748419359490875
 40
1.0
 40
1.0
 40
1.0
 40
1.0
 10
692.1839728620752
 20
1249.396967328651
 30
0.0
 10
692.1486474652062
 20
1249.423930754723
 30
0.0
 10
692.0779956914739
 20
1249.477858354885
 30
0.0
 10
691.9440324628328
 20
1249.510454243858
 30
0.0
 10
691.8084898365528
 20
1249.501105112616
 30
0.0
 10
691.6995920322588
 20
1249.457226354534
 30
0.0
 10
691.646288321453
 20
1249.413050796247
 30
0.0
 10
691.6268814698191
 20
1249.396967328651
 30
0.0
  0
ARC
  5
492
330
1F
100
AcDbEntity
  8
1
  6
SLD-Сплошная
100
AcDbCircle
 10
708.1468414021
 20
1266.5231007963
 30
0.0
 40
23.41191191630077
100
AcDbArc
 50
227.0134403894
 51
229.9175229087
  0
CIRCLE
  5
493
330
1F
100
AcDbEntity
  8
1
  6
SLD-Сплошная
100
AcDbCircle
 10
691.9054271659
 20
1250.5100778225
 30
0.0
 40
3.500000000000349
  0
ELLIPSE
  5
494
330
1F
100
AcDbEntity
  8
1
  6
SLD-Сплошная
100
AcDbEllipse
 10
691.9054271659
 20
1249.4406910412
 30
0.0
 11
0.0
 21
0.4122489361056978
 31
0.0
210
0.0
220
0.0
230
1.0
 40
0.9702875252
 41
5.512866274278742
 42
7.053504340080444
  0
ELLIPSE
  5
495
330
1F
100
AcDbEntity
  8
1
  6
SLD-Сплошная
100
AcDbEllipse
 10
690.8360403847
 20
1250.5100778225
 30
0.0
 11
0.4122489361056978
 21
0.0
 31
0.0
210
0.0
220
0.0
230
1.0
 40
0.9702875252
 41
5.512866274278569
 42
7.053504340079802
  0
ELLIPSE
  5
496
330
1F
100
AcDbEntity
  8
1
  6
SLD-Сплошная
100
AcDbEllipse
 10
692.9748139472
 20
1250.5100778225
 30
0.0
 11
-0.4122489361056978
 21
0.0
 31
0.0
210
0.0
220
0.0
230
1.0
 40
0.9702875252
 41
5.512866274278816
 42
7.053504340081186
  0
ELLIPSE
  5
497
330
1F
100
AcDbEntity
  8
1
  6
SLD-Сплошная
100
AcDbEllipse
 10
691.9054271659
 20
1251.5794646037
 30
0.0
 11
0.0
 21
-0.4122489361054704
 31
0.0
210
0.0
220
0.0
230
1.0
 40
0.9702875252
 41
5.512866274279018
 42
7.053504340080169
  0
LINE
  5
498
330
1F
100
AcDbEntity
  8
1
  6
SLD-Сплошная
100
AcDbLine
 10
690.0055665121
 20
1249.3433516335
 30
0.0
 11
690.2437262302
 21
1249.3433516335
 31
0.0
  0
LINE
  5
499
330
1F
100
AcDbEntity
  8
1
  6
SLD-Сплошная
100
AcDbLine
 10
691.131906723
 20
1250.2315321263
 30
0.0
 11
690.2437262302
 21
1249.3433516335
 31
0.0
  0
LINE
  5
49A
330
1F
100
AcDbEntity
  8
1
  6
SLD-Сплошная
100
AcDbLine
 10
690.0055665121
 20
1251.6768040114
 30
0.0
 11
690.2437262302
 21
1251.6768040114
 31
0.0
  0
LINE
  5
49B
330
1F
100
AcDbEntity
  8
1
  6
SLD-Сплошная
100
AcDbLine
 10
690.2437262302
 20
1251.6768040114
 30
0.0
 11
691.131906723
 21
1250.7886235186
 31
0.0
  0
LINE
  5
49C
330
1F
100
AcDbEntity
  8
1
  6
SLD-Сплошная
100
AcDbLine
 10
693.8052878198
 20
1249.3433516335
 30
0.0
 11
693.5671281017
 21
1249.3433516335
 31
0.0
  0
LINE
  5
49D
330
1F
100
AcDbEntity
  8
1
  6
SLD-Сплошная
100
AcDbLine
 10
693.5671281017
 20
1249.3433516335
 30
0.0
 11
692.6789476089
 21
1250.2315321263
 31
0.0
  0
LINE
  5
49E
330
1F
100
AcDbEntity
  8
1
  6
SLD-Сплошная
100
AcDbLine
 10
693.0721533549
 20
1248.6102171687
 30
0.0
 11
693.0721533549
 21
1248.8483768867
 31
0.0
  0
LINE
  5
49F
330
1F
100
AcDbEntity
  8
1
  6
SLD-Сплошная
100
AcDbLine
 10
692.1839728621
 20
1249.7365573795
 30
0.0
 11
693.0721533549
 21
1248.8483768867
 31
0.0
  0
LINE
  5
4A0
330
1F
100
AcDbEntity
  8
1
  6
SLD-Сплошная
100
AcDbLine
 10
690.738700977
 20
1248.6102171687
 30
0.0
 11
690.738700977
 21
1248.8483768867
 31
0.0
  0
LINE
  5
4A1
330
1F
100
AcDbEntity
  8
1
  6
SLD-Сплошная
100
AcDbLine
 10
690.738700977
 20
1248.8483768867
 30
0.0
 11
691.6268814698
 21
1249.7365573795
 31
0.0
  0
LINE
  5
4A2
330
1F
100
AcDbEntity
  8
1
  6
SLD-Сплошная
100
AcDbLine
 10
693.0721533549
 20
1252.4099384763
 30
0.0
 11
693.0721533549
 21
1252.1717787583
 31
0.0
  0
LINE
  5
4A3
330
1F
100
AcDbEntity
  8
1
  6
SLD-Сплошная
100
AcDbLine
 10
693.0721533549
 20
1252.1717787583
 30
0.0
 11
692.1839728621
 21
1251.2835982654
 31
0.0
  0
LINE
  5
4A4
330
1F
100
AcDbEntity
  8
1
  6
SLD-Сплошная
100
AcDbLine
 10
690.738700977
 20
1252.4099384763
 30
0.0
 11
690.738700977
 21
1252.1717787583
 31
0.0
  0
LINE
  5
4A5
330
1F
100
AcDbEntity
  8
1
  6
SLD-Сплошная
100
AcDbLine
 10
691.6268814698
 20
1251.2835982654
 30
0.0
 11
690.738700977
 21
1252.1717787583
 31
0.0
  0
LINE
  5
4A6
330
1F
100
AcDbEntity
  8
1
  6
SLD-Сплошная
100
AcDbLine
 10
693.8052878198
 20
1251.6768040114
 30
0.0
 11
693.5671281017
 21
1251.6768040114
 31
0.0
  0
LINE
  5
4A7
330
1F
100
AcDbEntity
  8
1
  6
SLD-Сплошная
100
AcDbLine
 10
692.6789476089
 20
1250.7886235186
 30
0.0
 11
693.5671281017
 21
1251.6768040114
 31
0.0
  0
LINE
  5
4A8
330
1F
100
AcDbEntity
  8
1
  6
SLD-Сплошная
100
AcDbLine
 10
690.738700977
 20
1252.1717787583
 30
0.0
 11
690.2437262302
 21
1251.6768040114
 31
0.0
  0
LINE
  5
4A9
330
1F
100
AcDbEntity
  8
1
  6
SLD-Сплошная
100
AcDbLine
 10
693.5671281017
 20
1251.6768040114
 30
0.0
 11
693.0721533549
 21
1252.1717787583
 31
0.0
  0
LINE
  5
4AA
330
1F
100
AcDbEntity
  8
1
  6
SLD-Сплошная
100
AcDbLine
 10
693.0721533549
 20
1248.8483768867
 30
0.0
 11
693.5671281017
 21
1249.3433516335
 31
0.0
  0
LINE
  5
4AB
330
1F
100
AcDbEntity
  8
1
  6
SLD-Сплошная
100
AcDbLine
 10
690.2437262302
 20
1249.3433516335
 30
0.0
 11
690.738700977
 21
1248.8483768867
 31
0.0
  0
CIRCLE
  5
4AC
330
1F
100
AcDbEntity
  8
1
  6
SLD-Сплошная
100
AcDbCircle
 10
691.9054271659
 20
1250.5100778225
 30
0.0
 40
5.000000000000041
  0
ARC
  5
4AD
330
1F
100
AcDbEntity
  8
1
  6
SLD-Сплошная
100
AcDbCircle
 10
974.6601591847
 20
1267.7553458037
 30
0.0
 40
26.56195549606114
100
AcDbArc
 50
313.8816987744
 51
316.1183012256
  0
ARC
  5
4AE
330
1F
100
AcDbEntity
  8
1
  6
SLD-Сплошная
100
AcDbCircle
 10
975.8924041923
 20
1234.2686635865
 30
0.0
 40
23.41191191600388
100
AcDbArc
 50
40.0824770913
 51
42.9865596106
  0
SPLINE
  5
4AF
330
1F
100
AcDbEntity
  8
1
  6
SLD-Сплошная
100
AcDbSpline
210
0.0
220
0.0
230
1.0
 70
     8
 71
     3
 72
    12
 73
     8
 74
     0
 42
0.00000001
 43
0.00000001
 40
0.0
 40
0.0
 40
0.0
 40
0.0
 40
0.2187857887072228
 40
0.4375776469534871
 40
0.6562353658863576
 40
0.8748419359491049
 40
1.0
 40
1.0
 40
1.0
 40
1.0
 10
993.0185376597594
 20
1250.788623518592
 30
0.0
 10
992.9915742336873
 20
1250.753298121723
 30
0.0
 10
992.9376466335259
 20
1250.68264634799
 30
0.0
 10
992.9050507445527
 20
1250.548683119349
 30
0.0
 10
992.9143998757947
 20
1250.413140493069
 30
0.0
 10
992.9582786338766
 20
1250.304242688775
 30
0.0
 10
993.0024541921631
 20
1250.250938977969
 30
0.0
 10
993.0185376597593
 20
1250.231532126335
 30
0.0
  0
ARC
  5
4B0
330
1F
100
AcDbEntity
  8
1
  6
SLD-Сплошная
100
AcDbCircle
 10
975.8924041922
 20
1266.7514920585
 30
0.0
 40
23.41191191622028
100
AcDbArc
 50
317.0134403894
 51
319.9175229087
  0
ARC
  5
4B1
330
1F
100
AcDbEntity
  8
1
  6
SLD-Сплошная
100
AcDbCircle
 10
974.6601591853
 20
1233.2648098418
 30
0.0
 40
26.56195549531069
100
AcDbArc
 50
43.8816987744
 51
46.1183012256
  0
ARC
  5
4B2
330
1F
100
AcDbEntity
  8
1
  6
SLD-Сплошная
100
AcDbCircle
 10
1008.146841402
 20
1234.4970548487
 30
0.0
 40
23.41191191624445
100
AcDbArc
 50
130.0824770913
 51
132.9865596106
  0
SPLINE
  5
4B3
330
1F
100
AcDbEntity
  8
1
  6
SLD-Сплошная
100
AcDbSpline
210
0.0
220
0.0
230
1.0
 70
     8
 71
     3
 72
    12
 73
     8
 74
     0
 42
0.00000001
 43
0.00000001
 40
0.0
 40
0.0
 40
0.0
 40
0.0
 40
0.2187857887071623
 40
0.4375776469534822
 40
0.6562353658863613
 40
0.8748419359490999
 40
1.0
 40
1.0
 40
1.0
 40
1.0
 10
991.6268814698192
 20
1251.623188316276
 30
0.0
 10
991.662206866688
 20
1251.596224890204
 30
0.0
 10
991.7328586404205
 20
1251.542297290042
 30
0.0
 10
991.8668218690614
 20
1251.509701401069
 30
0.0
 10
992.0023644953416
 20
1251.519050532311
 30
0.0
 10
992.1112622996354
 20
1251.562929290393
 30
0.0
 10
992.1645660104414
 20
1251.60710484868
 30
0.0
 10
992.1839728620752
 20
1251.623188316276
 30
0.0
  0
ARC
  5
4B4
330
1F
100
AcDbEntity
  8
1
  6
SLD-Сплошная
100
AcDbCircle
 10
975.6640129297
 20
1234.4970548485
 30
0.0
 40
23.41191191647717
100
AcDbArc
 50
47.0134403894
 51
49.9175229087
  0
ARC
  5
4B5
330
1F
100
AcDbEntity
  8
1
  6
SLD-Сплошная
100
AcDbCircle
 10
1009.1506951466
 20
1233.2648098418
 30
0.0
 40
26.56195549531069
100
AcDbArc
 50
133.8816987744
 51
136.1183012256
  0
ARC
  5
4B6
330
1F
100
AcDbEntity
  8
1
  6
SLD-Сплошная
100
AcDbCircle
 10
1007.91845014
 20
1266.7514920588
 30
0.0
 40
23.41191191665084
100
AcDbArc
 50
220.0824770914
 51
222.9865596106
  0
SPLINE
  5
4B7
330
1F
100
AcDbEntity
  8
1
  6
SLD-Сплошная
100
AcDbSpline
210
0.0
220
0.0
230
1.0
 70
     8
 71
     3
 72
    12
 73
     8
 74
     0
 42
0.00000001
 43
0.00000001
 40
0.0
 40
0.0
 40
0.0
 40
0.0
 40
0.2187857887072001
 40
0.4375776469534771
 40
0.6562353658864017
 40
0.8748419359490995
 40
1.0
 40
1.0
 40
1.0
 40
1.0
 10
990.7923166721348
 20
1250.231532126335
 30
0.0
 10
990.819280098207
 20
1250.266857523204
 30
0.0
 10
990.8732076983684
 20
1250.337509296937
 30
0.0
 10
990.9058035873414
 20
1250.471472525578
 30
0.0
 10
990.8964544560994
 20
1250.607015151858
 30
0.0
 10
990.8525756980175
 20
1250.715912956152
 30
0.0
 10
990.808400139731
 20
1250.769216666958
 30
0.0
 10
990.7923166721348
 20
1250.788623518592
 30
0.0
  0
ARC
  5
4B8
330
1F
100
AcDbEntity
  8
1
  6
SLD-Сплошная
100
AcDbCircle
 10
1007.9184501397
 20
1234.2686635864
 30
0.0
 40
23.41191191616207
100
AcDbArc
 50
137.0134403894
 51
139.9175229087
  0
ARC
  5
4B9
330
1F
100
AcDbEntity
  8
1
  6
SLD-Сплошная
100
AcDbCircle
 10
1009.1506951471
 20
1267.7553458036
 30
0.0
 40
26.56195549592033
100
AcDbArc
 50
223.8816987744
 51
226.1183012256
  0
ARC
  5
4BA
330
1F
100
AcDbEntity
  8
1
  6
SLD-Сплошная
100
AcDbCircle
 10
975.6640129296
 20
1266.5231007965
 30
0.0
 40
23.41191191663413
100
AcDbArc
 50
310.0824770913
 51
312.9865596105
  0
SPLINE
  5
4BB
330
1F
100
AcDbEntity
  8
1
  6
SLD-Сплошная
100
AcDbSpline
210
0.0
220
0.0
230
1.0
 70
     8
 71
     3
 72
    12
 73
     8
 74
     0
 42
0.00000001
 43
0.00000001
 40
0.0
 40
0.0
 40
0.0
 40
0.0
 40
0.218785788707222
 40
0.4375776469534855
 40
0.6562353658864003
 40
0.8748419359491052
 40
1.0
 40
1.0
 40
1.0
 40
1.0
 10
992.1839728620752
 20
1249.396967328651
 30
0.0
 10
992.1486474652062
 20
1249.423930754723
 30
0.0
 10
992.0779956914738
 20
1249.477858354885
 30
0.0
 10
991.9440324628328
 20
1249.510454243858
 30
0.0
 10
991.8084898365527
 20
1249.501105112616
 30
0.0
 10
991.6995920322589
 20
1249.457226354534
 30
0.0
 10
991.646288321453
 20
1249.413050796247
 30
0.0
 10
991.6268814698192
 20
1249.396967328651
 30
0.0
  0
ARC
  5
4BC
330
1F
100
AcDbEntity
  8
1
  6
SLD-Сплошная
100
AcDbCircle
 10
1008.1468414021
 20
1266.5231007964
 30
0.0
 40
23.41191191640126
100
AcDbArc
 50
227.0134403894
 51
229.9175229087
  0
CIRCLE
  5
4BD
330
1F
100
AcDbEntity
  8
1
  6
SLD-Сплошная
100
AcDbCircle
 10
991.9054271659
 20
1250.5100778225
 30
0.0
 40
3.500000000000109
  0
ELLIPSE
  5
4BE
330
1F
100
AcDbEntity
  8
1
  6
SLD-Сплошная
100
AcDbEllipse
 10
991.9054271659
 20
1249.4406910412
 30
0.0
 11
0.0
 21
0.4122489361054704
 31
0.0
210
0.0
220
0.0
230
1.0
 40
0.9702875252
 41
5.512866274278634
 42
7.053504340080348
  0
ELLIPSE
  5
4BF
330
1F
100
AcDbEntity
  8
1
  6
SLD-Сплошная
100
AcDbEllipse
 10
990.8360403847
 20
1250.5100778225
 30
0.0
 11
0.4122489361055841
 21
0.0
 31
0.0
210
0.0
220
0.0
230
1.0
 40
0.9702875252
 41
5.512866274278423
 42
7.053504340079948
  0
ELLIPSE
  5
4C0
330
1F
100
AcDbEntity
  8
1
  6
SLD-Сплошная
100
AcDbEllipse
 10
991.9054271659
 20
1251.5794646037
 30
0.0
 11
0.0
 21
-0.4122489361054704
 31
0.0
210
0.0
220
0.0
230
1.0
 40
0.9702875252
 41
5.512866274279222
 42
7.053504340080169
  0
ELLIPSE
  5
4C1
330
1F
100
AcDbEntity
  8
1
  6
SLD-Сплошная
100
AcDbEllipse
 10
992.9748139472
 20
1250.5100778225
 30
0.0
 11
-0.4122489361056978
 21
0.0
 31
0.0
210
0.0
220
0.0
230
1.0
 40
0.9702875252
 41
5.512866274278624
 42
7.053504340081377
  0
LINE
  5
4C2
330
1F
100
AcDbEntity
  8
1
  6
SLD-Сплошная
100
AcDbLine
 10
990.0055665121
 20
1249.3433516335
 30
0.0
 11
990.2437262302
 21
1249.3433516335
 31
0.0
  0
LINE
  5
4C3
330
1F
100
AcDbEntity
  8
1
  6
SLD-Сплошная
100
AcDbLine
 10
991.131906723
 20
1250.2315321263
 30
0.0
 11
990.2437262302
 21
1249.3433516335
 31
0.0
  0
LINE
  5
4C4
330
1F
100
AcDbEntity
  8
1
  6
SLD-Сплошная
100
AcDbLine
 10
993.8052878198
 20
1251.6768040114
 30
0.0
 11
993.5671281017
 21
1251.6768040114
 31
0.0
  0
LINE
  5
4C5
330
1F
100
AcDbEntity
  8
1
  6
SLD-Сплошная
100
AcDbLine
 10
992.6789476089
 20
1250.7886235186
 30
0.0
 11
993.5671281017
 21
1251.6768040114
 31
0.0
  0
LINE
  5
4C6
330
1F
100
AcDbEntity
  8
1
  6
SLD-Сплошная
100
AcDbLine
 10
993.0721533549
 20
1248.6102171687
 30
0.0
 11
993.0721533549
 21
1248.8483768867
 31
0.0
  0
LINE
  5
4C7
330
1F
100
AcDbEntity
  8
1
  6
SLD-Сплошная
100
AcDbLine
 10
992.1839728621
 20
1249.7365573795
 30
0.0
 11
993.0721533549
 21
1248.8483768867
 31
0.0
  0
LINE
  5
4C8
330
1F
100
AcDbEntity
  8
1
  6
SLD-Сплошная
100
AcDbLine
 10
993.0721533549
 20
1252.4099384763
 30
0.0
 11
993.0721533549
 21
1252.1717787583
 31
0.0
  0
LINE
  5
4C9
330
1F
100
AcDbEntity
  8
1
  6
SLD-Сплошная
100
AcDbLine
 10
993.0721533549
 20
1252.1717787583
 30
0.0
 11
992.1839728621
 21
1251.2835982654
 31
0.0
  0
LINE
  5
4CA
330
1F
100
AcDbEntity
  8
1
  6
SLD-Сплошная
100
AcDbLine
 10
990.0055665121
 20
1251.6768040114
 30
0.0
 11
990.2437262302
 21
1251.6768040114
 31
0.0
  0
LINE
  5
4CB
330
1F
100
AcDbEntity
  8
1
  6
SLD-Сплошная
100
AcDbLine
 10
990.2437262302
 20
1251.6768040114
 30
0.0
 11
991.131906723
 21
1250.7886235186
 31
0.0
  0
LINE
  5
4CC
330
1F
100
AcDbEntity
  8
1
  6
SLD-Сплошная
100
AcDbLine
 10
990.738700977
 20
1248.6102171687
 30
0.0
 11
990.738700977
 21
1248.8483768867
 31
0.0
  0
LINE
  5
4CD
330
1F
100
AcDbEntity
  8
1
  6
SLD-Сплошная
100
AcDbLine
 10
990.738700977
 20
1248.8483768867
 30
0.0
 11
991.6268814698
 21
1249.7365573795
 31
0.0
  0
LINE
  5
4CE
330
1F
100
AcDbEntity
  8
1
  6
SLD-Сплошная
100
AcDbLine
 10
990.738700977
 20
1252.4099384763
 30
0.0
 11
990.738700977
 21
1252.1717787583
 31
0.0
  0
LINE
  5
4CF
330
1F
100
AcDbEntity
  8
1
  6
SLD-Сплошная
100
AcDbLine
 10
991.6268814698
 20
1251.2835982654
 30
0.0
 11
990.738700977
 21
1252.1717787583
 31
0.0
  0
LINE
  5
4D0
330
1F
100
AcDbEntity
  8
1
  6
SLD-Сплошная
100
AcDbLine
 10
993.8052878198
 20
1249.3433516335
 30
0.0
 11
993.5671281017
 21
1249.3433516335
 31
0.0
  0
LINE
  5
4D1
330
1F
100
AcDbEntity
  8
1
  6
SLD-Сплошная
100
AcDbLine
 10
993.5671281017
 20
1249.3433516335
 30
0.0
 11
992.6789476089
 21
1250.2315321263
 31
0.0
  0
LINE
  5
4D2
330
1F
100
AcDbEntity
  8
1
  6
SLD-Сплошная
100
AcDbLine
 10
990.738700977
 20
1252.1717787583
 30
0.0
 11
990.2437262302
 21
1251.6768040114
 31
0.0
  0
LINE
  5
4D3
330
1F
100
AcDbEntity
  8
1
  6
SLD-Сплошная
100
AcDbLine
 10
993.5671281017
 20
1251.6768040114
 30
0.0
 11
993.0721533549
 21
1252.1717787583
 31
0.0
  0
LINE
  5
4D4
330
1F
100
AcDbEntity
  8
1
  6
SLD-Сплошная
100
AcDbLine
 10
990.2437262302
 20
1249.3433516335
 30
0.0
 11
990.738700977
 21
1248.8483768867
 31
0.0
  0
LINE
  5
4D5
330
1F
100
AcDbEntity
  8
1
  6
SLD-Сплошная
100
AcDbLine
 10
993.0721533549
 20
1248.8483768867
 30
0.0
 11
993.5671281017
 21
1249.3433516335
 31
0.0
  0
CIRCLE
  5
4D6
330
1F
100
AcDbEntity
  8
1
  6
SLD-Сплошная
100
AcDbCircle
 10
991.9054271659
 20
1250.5100778225
 30
0.0
 40
5.000000000000121
  0
CIRCLE
  5
4D7
330
1F
100
AcDbEntity
  8
1
  6
SLD-Сплошная
100
AcDbCircle
 10
1076.9054271659
 20
1377.7600778225
 30
0.0
 40
8.300000000000182
  0
LINE
  5
4D8
330
1F
100
AcDbEntity
  8
1
  6
SLD-Сплошная
100
AcDbLine
 10
509.2485434527
 20
1392.7600778225
 30
0.0
 11
509.8334129729
 21
1392.8876499392
 31
0.0
  0
ELLIPSE
  5
4D9
330
1F
100
AcDbEntity
  8
1
  6
SLD-Сплошная
100
AcDbEllipse
 10
513.8523464757
 20
1389.2025943494
 30
0.0
 11
-9.167878707749196
 21
0.0
 31
5.115907697472721E-13
210
5.580252379591884E-14
220
7.278730463883711E-14
230
1.0
 40
0.4472135955
 41
4.946265032411598
 42
5.166174585903247
  0
LINE
  5
4DA
330
1F
100
AcDbEntity
  8
1
  6
SLD-Сплошная
100
AcDbLine
 10
507.9554271659
 20
1393.3025943494
 30
0.0
 11
511.7946452898
 21
1393.3025943494
 31
0.0
  0
LINE
  5
4DB
330
1F
100
AcDbEntity
  8
1
  6
SLD-Сплошная
100
AcDbLine
 10
563.1054271659
 20
1419.8600778225
 30
0.0
 11
535.1054271659
 21
1419.8600778225
 31
0.0
  0
LINE
  5
4DC
330
1F
100
AcDbEntity
  8
1
  6
SLD-Сплошная
100
AcDbLine
 10
560.1054271659
 20
1422.8600778225
 30
0.0
 11
538.1054271659
 21
1422.8600778225
 31
0.0
  0
LINE
  5
4DD
330
1F
100
AcDbEntity
  8
1
  6
SLD-Сплошная
100
AcDbLine
 10
1087.9054271659
 20
1393.7600778225
 30
0.0
 11
1087.9054271659
 21
1392.7600778225
 31
0.0
  0
LINE
  5
4DE
330
1F
100
AcDbEntity
  8
1
  6
SLD-Сплошная
100
AcDbLine
 10
1085.9054271659
 20
1394.7600778225
 30
0.0
 11
1086.9054271659
 21
1394.7600778225
 31
0.0
  0
SPLINE
  5
4DF
330
1F
100
AcDbEntity
  8
1
  6
SLD-Сплошная
100
AcDbSpline
210
0.0
220
0.0
230
1.0
 70
     8
 71
     3
 72
    12
 73
     8
 74
     0
 42
0.00000001
 43
0.00000001
 40
0.0
 40
0.0
 40
0.0
 40
0.0
 40
0.2178231110881949
 40
0.4765675029999367
 40
0.8410160589292636
 40
0.9961871477581012
 40
1.0
 40
1.0
 40
1.0
 40
1.0
 10
1086.905427165936
 20
1394.760077822464
 30
0.0
 10
1087.046563735969
 20
1394.740724629053
 30
0.0
 10
1087.355351460223
 20
1394.698382459699
 30
0.0
 10
1087.713161588584
 20
1394.40423470483
 30
0.0
 10
1087.879411854606
 20
1394.07024421023
 30
0.0
 10
1087.905300759425
 20
1393.833572023839
 30
0.0
 10
1087.905424205378
 20
1393.761799124983
 30
0.0
 10
1087.905427165936
 20
1393.760077822464
 30
0.0
  0
LINE
  5
4E0
330
1F
100
AcDbEntity
  8
1
  6
SLD-Сплошная
100
AcDbLine
 10
1075.4054271659
 20
1394.7600778225
 30
0.0
 11
1085.9054271659
 21
1394.7600778225
 31
0.0
  0
ARC
  5
4E1
330
1F
100
AcDbEntity
  8
1
  6
SLD-Сплошная
100
AcDbCircle
 10
1075.4054271659
 20
1395.7600778225
 30
0.0
 40
1.0
100
AcDbArc
 50
180.0
 51
270.0
  0
ARC
  5
4E2
330
1F
100
AcDbEntity
  8
1
  6
SLD-Сплошная
100
AcDbCircle
 10
1075.4054271659
 20
1395.7600778225
 30
0.0
 40
3.0
100
AcDbArc
 50
180.0
 51
270.0
  0
LINE
  5
4E3
330
1F
100
AcDbEntity
  8
1
  6
SLD-Сплошная
100
AcDbLine
 10
1072.4054271659
 20
1399.8600778225
 30
0.0
 11
1072.4054271659
 21
1395.7600778225
 31
0.0
  0
LINE
  5
4E4
330
1F
100
AcDbEntity
  8
1
  6
SLD-Сплошная
100
AcDbLine
 10
1074.4054271659
 20
1399.8600778225
 30
0.0
 11
1074.4054271659
 21
1395.7600778225
 31
0.0
  0
LINE
  5
4E5
330
1F
100
AcDbEntity
  8
1
  6
SLD-Сплошная
100
AcDbLine
 10
1084.1581183594
 20
1395.2600778225
 30
0.0
 11
1085.5054271659
 21
1395.2600778225
 31
0.0
  0
LINE
  5
4E6
330
1F
100
AcDbEntity
  8
1
  6
SLD-Сплошная
100
AcDbLine
 10
1076.3054271659
 20
1395.2600778225
 30
0.0
 11
1084.1581183594
 21
1395.2600778225
 31
0.0
  0
LINE
  5
4E7
330
1F
100
AcDbEntity
  8
1
  6
SLD-Сплошная
100
AcDbLine
 10
1084.1581183594
 20
1394.8600778225
 30
0.0
 11
1085.5054271659
 21
1394.8600778225
 31
0.0
  0
LINE
  5
4E8
330
1F
100
AcDbEntity
  8
1
  6
SLD-Сплошная
100
AcDbLine
 10
1076.3054271659
 20
1394.8600778225
 30
0.0
 11
1084.1581183594
 21
1394.8600778225
 31
0.0
  0
LINE
  5
4E9
330
1F
100
AcDbEntity
  8
1
  6
SLD-Сплошная
100
AcDbLine
 10
1072.4054271659
 20
1395.7600778225
 30
0.0
 11
1072.4054271659
 21
1395.2600778225
 31
0.0
  0
ARC
  5
4EA
330
1F
100
AcDbEntity
  8
1
  6
SLD-Сплошная
100
AcDbCircle
 10
1074.9054271659
 20
1395.2600778225
 30
0.0
 40
2.5
100
AcDbArc
 50
180.0
 51
270.0
  0
ENDSEC
  0
SECTION
  2
OBJECTS
  0
DICTIONARY
  5
C
330
0
100
AcDbDictionary
281
     1
  3
ACAD_GROUP
350
D
  3
ACAD_LAYOUT
350
1A
  3
ACAD_MLINESTYLE
350
17
  3
ACAD_PLOTSETTINGS
350
19
  3
ACAD_PLOTSTYLENAME
350
E
  3
ACAD_SCALELIST
350
47
  3
DWGPROPS
350
4EB
  0
DICTIONARY
  5
D
102
{ACAD_REACTORS
330
C
102
}
330
C
100
AcDbDictionary
281
     1
  0
DICTIONARY
  5
1A
102
{ACAD_REACTORS
330
C
102
}
330
C
100
AcDbDictionary
281
     1
  3
Layout1
350
1E
  3
Layout2
350
26
  3
Model
350
22
  0
DICTIONARY
  5
17
102
{ACAD_REACTORS
330
C
102
}
330
C
100
AcDbDictionary
281
     1
  3
Standard
350
18
  0
DICTIONARY
  5
19
102
{ACAD_REACTORS
330
C
102
}
330
C
100
AcDbDictionary
281
     1
  0
ACDBDICTIONARYWDFLT
  5
E
102
{ACAD_REACTORS
330
C
102
}
330
C
100
AcDbDictionary
281
     1
  3
Normal
350
F
100
AcDbDictionaryWithDefault
340
F
  0
DICTIONARY
  5
47
102
{ACAD_REACTORS
330
C
102
}
330
C
100
AcDbDictionary
281
     1
  3
A0
350
48
  3
A1
350
49
  3
A2
350
4A
  3
A3
350
4B
  3
A4
350
4C
  3
A5
350
4D
  3
A6
350
4E
  3
A7
350
4F
  3
A8
350
50
  3
A9
350
51
  3
B0
350
52
  3
B1
350
53
  3
B2
350
54
  3
B3
350
55
  3
B4
350
56
  3
B5
350
57
  3
B6
350
58
  0
XRECORD
  5
4EB
102
{ACAD_REACTORS
330
C
102
}
330
C
100
AcDbXrecord
280
     1
  1
DWGPROPS COOKIE
  2

  3

  4

  6

  7

  8
ignatieved
  9

300
=
301
=
302
=
303
=
304
=
305
=
306
=
307
=
308
=
309
=
 40
0.0
 41
2460213.50101272
 42
2460213.501013287
  1

 90
        0
  0
LAYOUT
  5
1E
102
{ACAD_REACTORS
330
1A
102
}
330
1A
100
AcDbPlotSettings
  1

  2
none_device
  4

  6

 40
0.0
 41
0.0
 42
0.0
 43
0.0
 44
0.0
 45
0.0
 46
0.0
 47
0.0
 48
0.0
 49
0.0
140
0.0
141
0.0
142
1.0
143
1.0
 70
   688
 72
     1
 73
     0
 74
     5
  7

 75
    16
147
1.0
148
0.0
149
0.0
100
AcDbLayout
  1
Layout1
 70
     1
 71
     1
 10
0.0
 20
0.0
 11
420.0
 21
297.0
 12
0.0
 22
0.0
 32
0.0
 14
1.0000000000E+20
 24
1.0000000000E+20
 34
1.0000000000E+20
 15
-1.0000000000E+20
 25
-1.0000000000E+20
 35
-1.0000000000E+20
146
0.0
 13
0.0
 23
0.0
 33
0.0
 16
1.0
 26
0.0
 36
0.0
 17
0.0
 27
1.0
 37
0.0
 76
     0
330
1B
  0
LAYOUT
  5
26
102
{ACAD_REACTORS
330
1A
102
}
330
1A
100
AcDbPlotSettings
  1

  2
none_device
  4

  6

 40
0.0
 41
0.0
 42
0.0
 43
0.0
 44
0.0
 45
0.0
 46
0.0
 47
0.0
 48
0.0
 49
0.0
140
0.0
141
0.0
142
1.0
143
1.0
 70
   688
 72
     1
 73
     0
 74
     5
  7

 75
    16
147
1.0
148
0.0
149
0.0
100
AcDbLayout
  1
Layout2
 70
     1
 71
     2
 10
0.0
 20
0.0
 11
0.0
 21
0.0
 12
0.0
 22
0.0
 32
0.0
 14
0.0
 24
0.0
 34
0.0
 15
0.0
 25
0.0
 35
0.0
146
0.0
 13
0.0
 23
0.0
 33
0.0
 16
1.0
 26
0.0
 36
0.0
 17
0.0
 27
1.0
 37
0.0
 76
     0
330
23
  0
LAYOUT
  5
22
102
{ACAD_REACTORS
330
1A
102
}
330
1A
100
AcDbPlotSettings
  1

  2
none_device
  4
Letter_(8.50_x_11.00_Inches)
  6

 40
6.35
 41
6.35
 42
6.35000508
 43
6.35000508
 44
215.9
 45
279.4
 46
0.0
 47
0.0
 48
0.0
 49
0.0
140
0.0
141
0.0
142
1.0
143
1.0
 70
  1712
 72
     1
 73
     0
 74
     0
  7

 75
     0
147
1.0
148
0.0
149
0.0
100
AcDbLayout
  1
Model
 70
     1
 71
     0
 10
0.0
 20
0.0
 11
2000.0
 21
2000.0
 12
0.0
 22
0.0
 32
0.0
 14
0.0
 24
0.0
 34
0.0
 15
2000.0
 25
2000.0
 35
0.0
146
0.0
 13
0.0
 23
0.0
 33
0.0
 16
1.0
 26
0.0
 36
0.0
 17
0.0
 27
1.0
 37
0.0
 76
     0
330
1F
331
29
  0
MLINESTYLE
  5
18
102
{ACAD_REACTORS
330
17
102
}
330
17
100
AcDbMlineStyle
  2
Standard
 70
     0
  3

 62
   256
 51
90.0
 52
90.0
 71
     2
 49
0.5
 62
   256
  6
BYLAYER
 49
-0.5
 62
   256
  6
BYLAYER
  0
ACDBPLACEHOLDER
  5
F
102
{ACAD_REACTORS
330
E
102
}
330
E
  0
SCALE
  5
48
102
{ACAD_REACTORS
330
47
102
}
330
47
100
AcDbScale
 70
     0
300
1:1
140
1.0
141
1.0
290
     1
  0
SCALE
  5
49
102
{ACAD_REACTORS
330
47
102
}
330
47
100
AcDbScale
 70
     0
300
1:2
140
1.0
141
2.0
290
     0
  0
SCALE
  5
4A
102
{ACAD_REACTORS
330
47
102
}
330
47
100
AcDbScale
 70
     0
300
1:4
140
1.0
141
4.0
290
     0
  0
SCALE
  5
4B
102
{ACAD_REACTORS
330
47
102
}
330
47
100
AcDbScale
 70
     0
300
1:5
140
1.0
141
5.0
290
     0
  0
SCALE
  5
4C
102
{ACAD_REACTORS
330
47
102
}
330
47
100
AcDbScale
 70
     0
300
1:8
140
1.0
141
8.0
290
     0
  0
SCALE
  5
4D
102
{ACAD_REACTORS
330
47
102
}
330
47
100
AcDbScale
 70
     0
300
1:10
140
1.0
141
10.0
290
     0
  0
SCALE
  5
4E
102
{ACAD_REACTORS
330
47
102
}
330
47
100
AcDbScale
 70
     0
300
1:16
140
1.0
141
16.0
290
     0
  0
SCALE
  5
4F
102
{ACAD_REACTORS
330
47
102
}
330
47
100
AcDbScale
 70
     0
300
1:20
140
1.0
141
20.0
290
     0
  0
SCALE
  5
50
102
{ACAD_REACTORS
330
47
102
}
330
47
100
AcDbScale
 70
     0
300
1:30
140
1.0
141
30.0
290
     0
  0
SCALE
  5
51
102
{ACAD_REACTORS
330
47
102
}
330
47
100
AcDbScale
 70
     0
300
1:40
140
1.0
141
40.0
290
     0
  0
SCALE
  5
52
102
{ACAD_REACTORS
330
47
102
}
330
47
100
AcDbScale
 70
     0
300
1:50
140
1.0
141
50.0
290
     0
  0
SCALE
  5
53
102
{ACAD_REACTORS
330
47
102
}
330
47
100
AcDbScale
 70
     0
300
1:100
140
1.0
141
100.0
290
     0
  0
SCALE
  5
54
102
{ACAD_REACTORS
330
47
102
}
330
47
100
AcDbScale
 70
     0
300
2:1
140
2.0
141
1.0
290
     0
  0
SCALE
  5
55
102
{ACAD_REACTORS
330
47
102
}
330
47
100
AcDbScale
 70
     0
300
4:1
140
4.0
141
1.0
290
     0
  0
SCALE
  5
56
102
{ACAD_REACTORS
330
47
102
}
330
47
100
AcDbScale
 70
     0
300
8:1
140
8.0
141
1.0
290
     0
  0
SCALE
  5
57
102
{ACAD_REACTORS
330
47
102
}
330
47
100
AcDbScale
 70
     0
300
10:1
140
10.0
141
1.0
290
     0
  0
SCALE
  5
58
102
{ACAD_REACTORS
330
47
102
}
330
47
100
AcDbScale
 70
     0
300
100:1
140
100.0
141
1.0
290
     0
  0
ENDSEC
  0
EOF
