ISO-10303-21;
HEADER;
FILE_DESCRIPTION (( 'STEP AP203' ),
    '1' );
FILE_NAME ('CTR10-050-K41-015I Òðóáà ãëàäêàÿ æåñòêàÿ ÏÂÕ d50 ÈÝÊ ñåðàÿ (15ì),3ì.STEP',
    '2016-04-27T08:18:06',
    ( '' ),
    ( '' ),
    'SwSTEP 2.0',
    'SolidWorks 2014',
    '' );
FILE_SCHEMA (( 'CONFIG_CONTROL_DESIGN' ));
ENDSEC;

DATA;
#1 = PERSON_AND_ORGANIZATION ( #45, #123 ) ;
#2 = APPROVAL_STATUS ( 'not_yet_approved' ) ;
#3 = AXIS2_PLACEMENT_3D ( 'NONE', #103, #116, #41 ) ;
#4 = FACE_OUTER_BOUND ( 'NONE', #107, .T. ) ;
#5 = CALENDAR_DATE ( 2016, 27, 4 ) ;
#6 = PERSON_AND_ORGANIZATION ( #45, #123 ) ;
#7 = APPROVAL ( #153, 'UNSPECIFIED' ) ;
#8 = FACE_OUTER_BOUND ( 'NONE', #83, .T. ) ;
#9 = SECURITY_CLASSIFICATION_LEVEL ( 'unclassified' ) ;
#10 = PERSON_AND_ORGANIZATION ( #45, #123 ) ;
#11 = AXIS2_PLACEMENT_3D ( 'NONE', #162, #81, #82 ) ;
#12 = EDGE_LOOP ( 'NONE', ( #48 ) ) ;
#13 = CC_DESIGN_APPROVAL ( #7, ( #169 ) ) ;
#14 = ORIENTED_EDGE ( 'NONE', *, *, #144, .F. ) ;
#15 = DIRECTION ( 'NONE',  ( 1.000000000000000000, 0.0000000000000000000, 0.0000000000000000000 ) ) ;
#16 = AXIS2_PLACEMENT_3D ( 'NONE', #92, #17, #106 ) ;
#17 = DIRECTION ( 'NONE',  ( 1.000000000000000000, 0.0000000000000000000, 0.0000000000000000000 ) ) ;
#18 = DATE_TIME_ROLE ( 'classification_date' ) ;
#19 =( NAMED_UNIT ( * ) PLANE_ANGLE_UNIT ( ) SI_UNIT ( $, .RADIAN. ) );
#20 = CC_DESIGN_PERSON_AND_ORGANIZATION_ASSIGNMENT ( #66, #166, ( #169 ) ) ;
#21 = CARTESIAN_POINT ( 'NONE',  ( 0.0000000000000000000, 0.0000000000000000000, 0.0000000000000000000 ) ) ;
#22 = CYLINDRICAL_SURFACE ( 'NONE', #43, 25.00000000000000000 ) ;
#23 = AXIS2_PLACEMENT_3D ( 'NONE', #51, #146, #138 ) ;
#24 = APPROVAL_PERSON_ORGANIZATION ( #59, #124, #86 ) ;
#25 = DATE_AND_TIME ( #61, #94 ) ;
#26 = ADVANCED_FACE ( 'NONE', ( #161, #38 ), #34, .F. ) ;
#27 = CARTESIAN_POINT ( 'NONE',  ( 0.0000000000000000000, 0.0000000000000000000, -23.44999999999999900 ) ) ;
#28 = DIRECTION ( 'NONE',  ( -1.000000000000000000, -0.0000000000000000000, -0.0000000000000000000 ) ) ;
#29 = CC_DESIGN_PERSON_AND_ORGANIZATION_ASSIGNMENT ( #32, #85, ( #169 ) ) ;
#30 = SHAPE_DEFINITION_REPRESENTATION ( #60, #145 ) ;
#31 = APPROVAL_DATE_TIME ( #64, #124 ) ;
#32 = PERSON_AND_ORGANIZATION ( #45, #123 ) ;
#33 = AXIS2_PLACEMENT_3D ( 'NONE', #53, #152, #69 ) ;
#34 = CYLINDRICAL_SURFACE ( 'NONE', #3, 23.44999999999999900 ) ;
#35 = FACE_BOUND ( 'NONE', #80, .T. ) ;
#36 = LOCAL_TIME ( 11, 18, 6.000000000000000000, #71 ) ;
#37 = DATE_AND_TIME ( #72, #105 ) ;
#38 = FACE_OUTER_BOUND ( 'NONE', #118, .T. ) ;
#39 = SECURITY_CLASSIFICATION ( '', '', #9 ) ;
#40 = CARTESIAN_POINT ( 'NONE',  ( 0.0000000000000000000, 0.0000000000000000000, -25.00000000000000000 ) ) ;
#41 = DIRECTION ( 'NONE',  ( 0.0000000000000000000, 0.0000000000000000000, 1.000000000000000000 ) ) ;
#42 = ADVANCED_FACE ( 'NONE', ( #141, #35 ), #147, .T. ) ;
#43 = AXIS2_PLACEMENT_3D ( 'NONE', #58, #28, #65 ) ;
#44 = APPROVAL_DATE_TIME ( #79, #63 ) ;
#45 = PERSON ( 'UNSPECIFIED', 'UNSPECIFIED', 'UNSPECIFIED', ('UNSPECIFIED'), ('UNSPECIFIED'), ('UNSPECIFIED') ) ;
#46 = ORIENTED_EDGE ( 'NONE', *, *, #119, .F. ) ;
#47 = DIRECTION ( 'NONE',  ( 1.000000000000000000, 0.0000000000000000000, 0.0000000000000000000 ) ) ;
#48 = ORIENTED_EDGE ( 'NONE', *, *, #119, .T. ) ;
#49 = CC_DESIGN_PERSON_AND_ORGANIZATION_ASSIGNMENT ( #10, #95, ( #39 ) ) ;
#50 = DIRECTION ( 'NONE',  ( 1.000000000000000000, 0.0000000000000000000, 0.0000000000000000000 ) ) ;
#51 = CARTESIAN_POINT ( 'NONE',  ( 3000.000000000000000, 0.0000000000000000000, 0.0000000000000000000 ) ) ;
#52 = CC_DESIGN_DATE_AND_TIME_ASSIGNMENT ( #37, #18, ( #39 ) ) ;
#53 = CARTESIAN_POINT ( 'NONE',  ( 3000.000000000000000, 0.0000000000000000000, 0.0000000000000000000 ) ) ;
#54 = DATE_TIME_ROLE ( 'creation_date' ) ;
#55 = CIRCLE ( 'NONE', #33, 25.00000000000000000 ) ;
#56 = EDGE_LOOP ( 'NONE', ( #75 ) ) ;
#57 =( GEOMETRIC_REPRESENTATION_CONTEXT ( 3 ) GLOBAL_UNCERTAINTY_ASSIGNED_CONTEXT ( ( #108 ) ) GLOBAL_UNIT_ASSIGNED_CONTEXT ( ( #96, #19, #112 ) ) REPRESENTATION_CONTEXT ( 'NONE', 'WORKASPACE' ) );
#58 = CARTESIAN_POINT ( 'NONE',  ( 3000.000000000000000, 0.0000000000000000000, 0.0000000000000000000 ) ) ;
#59 = PERSON_AND_ORGANIZATION ( #45, #123 ) ;
#60 = PRODUCT_DEFINITION_SHAPE ( 'NONE', 'NONE',  #117 ) ;
#61 = CALENDAR_DATE ( 2016, 27, 4 ) ;
#62 = PERSON_AND_ORGANIZATION_ROLE ( 'design_owner' ) ;
#63 = APPROVAL ( #109, 'UNSPECIFIED' ) ;
#64 = DATE_AND_TIME ( #88, #120 ) ;
#65 = DIRECTION ( 'NONE',  ( 0.0000000000000000000, 0.0000000000000000000, 1.000000000000000000 ) ) ;
#66 = PERSON_AND_ORGANIZATION ( #45, #123 ) ;
#67 = AXIS2_PLACEMENT_3D ( 'NONE', #73, #15, #126 ) ;
#68 = CIRCLE ( 'NONE', #16, 23.44999999999999900 ) ;
#69 = DIRECTION ( 'NONE',  ( 0.0000000000000000000, 0.0000000000000000000, -1.000000000000000000 ) ) ;
#70 = APPROVAL_ROLE ( '' ) ;
#71 = COORDINATED_UNIVERSAL_TIME_OFFSET ( 3, 0, .AHEAD. ) ;
#72 = CALENDAR_DATE ( 2016, 27, 4 ) ;
#73 = CARTESIAN_POINT ( 'NONE',  ( 0.0000000000000000000, 0.0000000000000000000, 0.0000000000000000000 ) ) ;
#74 = CARTESIAN_POINT ( 'NONE',  ( 3000.000000000000000, 0.0000000000000000000, -23.44999999999999900 ) ) ;
#75 = ORIENTED_EDGE ( 'NONE', *, *, #115, .T. ) ;
#76 = CC_DESIGN_APPROVAL ( #63, ( #39 ) ) ;
#77 = APPLICATION_PROTOCOL_DEFINITION ( 'international standard', 'config_control_design', 1994, #157 ) ;
#78 = APPROVAL_ROLE ( '' ) ;
#79 = DATE_AND_TIME ( #110, #149 ) ;
#80 = EDGE_LOOP ( 'NONE', ( #14 ) ) ;
#81 = DIRECTION ( 'NONE',  ( 1.000000000000000000, 0.0000000000000000000, 0.0000000000000000000 ) ) ;
#82 = DIRECTION ( 'NONE',  ( 0.0000000000000000000, 0.0000000000000000000, -1.000000000000000000 ) ) ;
#83 = EDGE_LOOP ( 'NONE', ( #90 ) ) ;
#84 = CC_DESIGN_SECURITY_CLASSIFICATION ( #39, ( #169 ) ) ;
#85 = PERSON_AND_ORGANIZATION_ROLE ( 'design_supplier' ) ;
#86 = APPROVAL_ROLE ( '' ) ;
#87 = ORIENTED_EDGE ( 'NONE', *, *, #129, .F. ) ;
#88 = CALENDAR_DATE ( 2016, 27, 4 ) ;
#89 = PRODUCT_RELATED_PRODUCT_CATEGORY ( 'detail', '', ( #158 ) ) ;
#90 = ORIENTED_EDGE ( 'NONE', *, *, #115, .F. ) ;
#91 = PERSON_AND_ORGANIZATION ( #45, #123 ) ;
#92 = CARTESIAN_POINT ( 'NONE',  ( 0.0000000000000000000, 0.0000000000000000000, 0.0000000000000000000 ) ) ;
#93 = VERTEX_POINT ( 'NONE', #156 ) ;
#94 = LOCAL_TIME ( 11, 18, 6.000000000000000000, #127 ) ;
#95 = PERSON_AND_ORGANIZATION_ROLE ( 'classification_officer' ) ;
#96 =( LENGTH_UNIT ( ) NAMED_UNIT ( * ) SI_UNIT ( .MILLI., .METRE. ) );
#97 = VERTEX_POINT ( 'NONE', #40 ) ;
#98 = CIRCLE ( 'NONE', #154, 25.00000000000000000 ) ;
#99 = APPROVAL_DATE_TIME ( #134, #7 ) ;
#100 = COORDINATED_UNIVERSAL_TIME_OFFSET ( 3, 0, .AHEAD. ) ;
#101 = AXIS2_PLACEMENT_3D ( 'NONE', #139, #168, #50 ) ;
#102 = FACE_OUTER_BOUND ( 'NONE', #56, .T. ) ;
#103 = CARTESIAN_POINT ( 'NONE',  ( 3000.000000000000000, 0.0000000000000000000, 0.0000000000000000000 ) ) ;
#104 = APPROVAL_PERSON_ORGANIZATION ( #165, #7, #70 ) ;
#105 = LOCAL_TIME ( 11, 18, 6.000000000000000000, #143 ) ;
#106 = DIRECTION ( 'NONE',  ( 0.0000000000000000000, 0.0000000000000000000, -1.000000000000000000 ) ) ;
#107 = EDGE_LOOP ( 'NONE', ( #87 ) ) ;
#108 = UNCERTAINTY_MEASURE_WITH_UNIT (LENGTH_MEASURE( 1.000000000000000100E-005 ), #96, 'distance_accuracy_value', 'NONE');
#109 = APPROVAL_STATUS ( 'not_yet_approved' ) ;
#110 = CALENDAR_DATE ( 2016, 27, 4 ) ;
#111 = CC_DESIGN_PERSON_AND_ORGANIZATION_ASSIGNMENT ( #91, #62, ( #158 ) ) ;
#112 =( NAMED_UNIT ( * ) SI_UNIT ( $, .STERADIAN. ) SOLID_ANGLE_UNIT ( ) );
#113 = CLOSED_SHELL ( 'NONE', ( #42, #148, #128, #26 ) ) ;
#114 = APPLICATION_PROTOCOL_DEFINITION ( 'international standard', 'config_control_design', 1994, #121 ) ;
#115 = EDGE_CURVE ( 'NONE', #97, #97, #98, .T. ) ;
#116 = DIRECTION ( 'NONE',  ( -1.000000000000000000, -0.0000000000000000000, -0.0000000000000000000 ) ) ;
#117 = PRODUCT_DEFINITION ( 'UNKNOWN', '', #169, #131 ) ;
#118 = EDGE_LOOP ( 'NONE', ( #46 ) ) ;
#119 = EDGE_CURVE ( 'NONE', #125, #125, #68, .T. ) ;
#120 = LOCAL_TIME ( 11, 18, 6.000000000000000000, #164 ) ;
#121 = APPLICATION_CONTEXT ( 'configuration controlled 3d designs of mechanical parts and assemblies' ) ;
#122 = MANIFOLD_SOLID_BREP ( 'Áîáûøêà-Âûòÿíóòü1', #113 ) ;
#123 = ORGANIZATION ( 'UNSPECIFIED', 'UNSPECIFIED', '' ) ;
#124 = APPROVAL ( #2, 'UNSPECIFIED' ) ;
#125 = VERTEX_POINT ( 'NONE', #27 ) ;
#126 = DIRECTION ( 'NONE',  ( 0.0000000000000000000, 0.0000000000000000000, -1.000000000000000000 ) ) ;
#127 = COORDINATED_UNIVERSAL_TIME_OFFSET ( 3, 0, .AHEAD. ) ;
#128 = ADVANCED_FACE ( 'NONE', ( #4, #102 ), #22, .T. ) ;
#129 = EDGE_CURVE ( 'NONE', #93, #93, #55, .T. ) ;
#130 = FACE_BOUND ( 'NONE', #12, .T. ) ;
#131 = DESIGN_CONTEXT ( 'detailed design', #157, 'design' ) ;
#132 = VERTEX_POINT ( 'NONE', #74 ) ;
#133 = PERSON_AND_ORGANIZATION_ROLE ( 'creator' ) ;
#134 = DATE_AND_TIME ( #5, #36 ) ;
#135 = EDGE_LOOP ( 'NONE', ( #163 ) ) ;
#136 = APPROVAL_PERSON_ORGANIZATION ( #6, #63, #78 ) ;
#137 = DIRECTION ( 'NONE',  ( 0.0000000000000000000, 0.0000000000000000000, -1.000000000000000000 ) ) ;
#138 = DIRECTION ( 'NONE',  ( 0.0000000000000000000, 0.0000000000000000000, -1.000000000000000000 ) ) ;
#139 = CARTESIAN_POINT ( 'NONE',  ( 0.0000000000000000000, 0.0000000000000000000, 0.0000000000000000000 ) ) ;
#140 = CC_DESIGN_APPROVAL ( #124, ( #117 ) ) ;
#141 = FACE_OUTER_BOUND ( 'NONE', #135, .T. ) ;
#142 = MECHANICAL_CONTEXT ( 'NONE', #121, 'mechanical' ) ;
#143 = COORDINATED_UNIVERSAL_TIME_OFFSET ( 3, 0, .AHEAD. ) ;
#144 = EDGE_CURVE ( 'NONE', #132, #132, #160, .T. ) ;
#145 = ADVANCED_BREP_SHAPE_REPRESENTATION ( 'CTR10-050-K41-015I T¨ºñð óûðôúð  öõ¸ªúð  ¦T- d50 L¦¦ ¸õ¨ð  (15ü),3ü', ( #122, #101 ), #57 ) ;
#146 = DIRECTION ( 'NONE',  ( 1.000000000000000000, 0.0000000000000000000, 0.0000000000000000000 ) ) ;
#147 = PLANE ( 'NONE',  #11 ) ;
#148 = ADVANCED_FACE ( 'NONE', ( #8, #130 ), #155, .F. ) ;
#149 = LOCAL_TIME ( 11, 18, 6.000000000000000000, #100 ) ;
#150 = CC_DESIGN_PERSON_AND_ORGANIZATION_ASSIGNMENT ( #1, #133, ( #117 ) ) ;
#151 = EDGE_LOOP ( 'NONE', ( #167 ) ) ;
#152 = DIRECTION ( 'NONE',  ( 1.000000000000000000, 0.0000000000000000000, 0.0000000000000000000 ) ) ;
#153 = APPROVAL_STATUS ( 'not_yet_approved' ) ;
#154 = AXIS2_PLACEMENT_3D ( 'NONE', #21, #47, #137 ) ;
#155 = PLANE ( 'NONE',  #67 ) ;
#156 = CARTESIAN_POINT ( 'NONE',  ( 3000.000000000000000, 0.0000000000000000000, -25.00000000000000000 ) ) ;
#157 = APPLICATION_CONTEXT ( 'configuration controlled 3d designs of mechanical parts and assemblies' ) ;
#158 = PRODUCT ( 'CTR10-050-K41-015I Òðóáà ãëàäêàÿ æåñòêàÿ ÏÂÕ d50 ÈÝÊ ñåðàÿ (15ì),3ì', 'CTR10-050-K41-015I Òðóáà ãëàäêàÿ æåñòêàÿ ÏÂÕ d50 ÈÝÊ ñåðàÿ (15ì),3ì', '', ( #142 ) ) ;
#159 = CC_DESIGN_DATE_AND_TIME_ASSIGNMENT ( #25, #54, ( #117 ) ) ;
#160 = CIRCLE ( 'NONE', #23, 23.44999999999999900 ) ;
#161 = FACE_OUTER_BOUND ( 'NONE', #151, .T. ) ;
#162 = CARTESIAN_POINT ( 'NONE',  ( 3000.000000000000000, 0.0000000000000000000, 0.0000000000000000000 ) ) ;
#163 = ORIENTED_EDGE ( 'NONE', *, *, #129, .T. ) ;
#164 = COORDINATED_UNIVERSAL_TIME_OFFSET ( 3, 0, .AHEAD. ) ;
#165 = PERSON_AND_ORGANIZATION ( #45, #123 ) ;
#166 = PERSON_AND_ORGANIZATION_ROLE ( 'creator' ) ;
#167 = ORIENTED_EDGE ( 'NONE', *, *, #144, .T. ) ;
#168 = DIRECTION ( 'NONE',  ( 0.0000000000000000000, 0.0000000000000000000, 1.000000000000000000 ) ) ;
#169 = PRODUCT_DEFINITION_FORMATION_WITH_SPECIFIED_SOURCE ( 'ANY', '', #158, .NOT_KNOWN. ) ;
ENDSEC;
END-ISO-10303-21;
