ISO-10303-21;
HEADER;
FILE_DESCRIPTION (( 'STEP AP203' ),
    '1' );
FILE_NAME ('Ñîåäèíèòåëüíàÿ íàêëàäêà CGB_37354.STEP',
    '2012-11-09T08:54:44',
    ( 'Àñååâ' ),
    ( '' ),
    'SwSTEP 2.0',
    'SolidWorks 2012',
    '' );
FILE_SCHEMA (( 'CONFIG_CONTROL_DESIGN' ));
ENDSEC;

DATA;
#1 = CARTESIAN_POINT ( 'NONE',  ( 97.00000000000000000, -1.136793165984400000E-010, -65.00000000000000000 ) ) ;
#2 = DIRECTION ( 'NONE',  ( 1.000000000000000000, 0.0000000000000000000, 0.0000000000000000000 ) ) ;
#3 = CARTESIAN_POINT ( 'NONE',  ( 7.118865045865724100E-013, -9.200000000091030500, -17.50000000000000000 ) ) ;
#4 = DIRECTION ( 'NONE',  ( -1.000000000000000000, 9.384881465365242100E-013, 0.0000000000000000000 ) ) ;
#5 = CARTESIAN_POINT ( 'NONE',  ( -97.00000000000000000, 0.0000000000000000000, 0.0000000000000000000 ) ) ;
#6 = DIRECTION ( 'NONE',  ( -1.000000000000000000, 0.0000000000000000000, 0.0000000000000000000 ) ) ;
#7 = DIRECTION ( 'NONE',  ( 5.162867488026211000E-018, 1.000000000000000000, 0.0000000000000000000 ) ) ;
#8 = PLANE ( 'NONE',  #109 ) ;
#9 = DIRECTION ( 'NONE',  ( 5.162867488026211000E-018, 1.000000000000000000, 0.0000000000000000000 ) ) ;
#10 = CARTESIAN_POINT ( 'NONE',  ( -97.00000000000000000, 0.8000000000000016000, -65.00000000000000000 ) ) ;
#11 = DIRECTION ( 'NONE',  ( 9.384881465365242100E-013, 1.000000000000000000, -0.0000000000000000000 ) ) ;
#12 = CARTESIAN_POINT ( 'NONE',  ( 7.118865045865724100E-013, -9.200000000091030500, -47.50000000000000000 ) ) ;
#13 = DIRECTION ( 'NONE',  ( 1.000000000000000000, 0.0000000000000000000, 0.0000000000000000000 ) ) ;
#14 = DIRECTION ( 'NONE',  ( -1.000000000000000000, 9.384881465365244100E-013, -0.0000000000000000000 ) ) ;
#15 = DIRECTION ( 'NONE',  ( 5.162867488026211000E-018, 1.000000000000000000, 0.0000000000000000000 ) ) ;
#16 = CARTESIAN_POINT ( 'NONE',  ( 97.00000000000000000, -1.136793165984400000E-010, 0.0000000000000000000 ) ) ;
#17 = APPROVAL_ROLE ( '' ) ;
#18 = DIRECTION ( 'NONE',  ( 0.0000000000000000000, 0.0000000000000000000, 1.000000000000000000 ) ) ;
#19 = APPROVAL_STATUS ( 'not_yet_approved' ) ;
#20 = CARTESIAN_POINT ( 'NONE',  ( 7.119381332614527600E-013, 0.7999999999089683100, -17.50000000000000000 ) ) ;
#21 = DATE_TIME_ROLE ( 'classification_date' ) ;
#22 = PERSON_AND_ORGANIZATION_ROLE ( 'classification_officer' ) ;
#23 = SECURITY_CLASSIFICATION_LEVEL ( 'unclassified' ) ;
#24 = CARTESIAN_POINT ( 'NONE',  ( 7.119381332614527600E-013, 0.7999999999089683100, -47.50000000000000000 ) ) ;
#25 = PERSON_AND_ORGANIZATION_ROLE ( 'design_supplier' ) ;
#26 = PERSON_AND_ORGANIZATION_ROLE ( 'creator' ) ;
#27 = APPROVAL_ROLE ( '' ) ;
#28 = CARTESIAN_POINT ( 'NONE',  ( -97.00000000000000000, 0.0000000000000000000, -65.00000000000000000 ) ) ;
#29 = DIRECTION ( 'NONE',  ( -0.0000000000000000000, 0.0000000000000000000, 1.000000000000000000 ) ) ;
#30 = APPROVAL_STATUS ( 'not_yet_approved' ) ;
#31 = PLANE ( 'NONE',  #107 ) ;
#32 = DATE_TIME_ROLE ( 'creation_date' ) ;
#33 = PERSON_AND_ORGANIZATION_ROLE ( 'creator' ) ;
#34 = DIRECTION ( 'NONE',  ( 0.0000000000000000000, 0.0000000000000000000, 1.000000000000000000 ) ) ;
#35 = DIRECTION ( 'NONE',  ( -0.0000000000000000000, -1.000000000000000000, -0.0000000000000000000 ) ) ;
#36 = APPROVAL_ROLE ( '' ) ;
#37 = APPROVAL_STATUS ( 'not_yet_approved' ) ;
#38 = CARTESIAN_POINT ( 'NONE',  ( -97.00000000000000000, 0.0000000000000000000, -65.00000000000000000 ) ) ;
#39 = APPLICATION_PROTOCOL_DEFINITION ( 'international standard', 'config_control_design', 1994, #40 ) ;
#40 = APPLICATION_CONTEXT ( 'configuration controlled 3d designs of mechanical parts and assemblies' ) ;
#41 = DIRECTION ( 'NONE',  ( 1.248107174912679000E-005, 0.9999999999221113000, 0.0000000000000000000 ) ) ;
#42 = PERSON_AND_ORGANIZATION_ROLE ( 'design_owner' ) ;
#43 = MECHANICAL_CONTEXT ( 'NONE', #46, 'mechanical' ) ;
#44 = DIRECTION ( 'NONE',  ( -1.000000000000000000, 0.0000000000000000000, 0.0000000000000000000 ) ) ;
#45 = DIRECTION ( 'NONE',  ( 1.000000000000000000, 0.0000000000000000000, 0.0000000000000000000 ) ) ;
#46 = APPLICATION_CONTEXT ( 'configuration controlled 3d designs of mechanical parts and assemblies' ) ;
#47 = CARTESIAN_POINT ( 'NONE',  ( -97.00000000000000000, 0.8000000000000016000, -65.00000000000000000 ) ) ;
#48 = APPLICATION_PROTOCOL_DEFINITION ( 'international standard', 'config_control_design', 1994, #46 ) ;
#49 = DIRECTION ( 'NONE',  ( 1.000000000000000000, 0.0000000000000000000, 0.0000000000000000000 ) ) ;
#50 =( NAMED_UNIT ( * ) SI_UNIT ( $, .STERADIAN. ) SOLID_ANGLE_UNIT ( ) );
#51 = DIRECTION ( 'NONE',  ( -5.162867488026211000E-018, -1.000000000000000000, 0.0000000000000000000 ) ) ;
#52 =( NAMED_UNIT ( * ) PLANE_ANGLE_UNIT ( ) SI_UNIT ( $, .RADIAN. ) );
#53 =( LENGTH_UNIT ( ) NAMED_UNIT ( * ) SI_UNIT ( .MILLI., .METRE. ) );
#54 = DIRECTION ( 'NONE',  ( -0.0000000000000000000, -1.000000000000000000, -0.0000000000000000000 ) ) ;
#55 = CARTESIAN_POINT ( 'NONE',  ( -97.00000000000000000, 0.8000000000000016000, -65.00000000000000000 ) ) ;
#56 = DIRECTION ( 'NONE',  ( 0.0000000000000000000, 0.0000000000000000000, 1.000000000000000000 ) ) ;
#57 = CARTESIAN_POINT ( 'NONE',  ( 0.0000000000000000000, 0.0000000000000000000, 0.0000000000000000000 ) ) ;
#58 = CARTESIAN_POINT ( 'NONE',  ( 2.500000000000712300, 0.7999999999089683100, -47.50000000000000000 ) ) ;
#59 = CARTESIAN_POINT ( 'NONE',  ( 2.500000000000712300, -5.830488906074317400E-011, -47.50000000000000000 ) ) ;
#60 = DIRECTION ( 'NONE',  ( -1.000000000000000000, 0.0000000000000000000, 0.0000000000000000000 ) ) ;
#61 = CARTESIAN_POINT ( 'NONE',  ( 2.500000000000712300, -5.830488906074317400E-011, -17.50000000000000000 ) ) ;
#62 = DIRECTION ( 'NONE',  ( 0.0000000000000000000, 0.0000000000000000000, 1.000000000000000000 ) ) ;
#63 = PLANE ( 'NONE',  #145 ) ;
#64 = DIRECTION ( 'NONE',  ( -0.0000000000000000000, 0.0000000000000000000, 1.000000000000000000 ) ) ;
#65 = DIRECTION ( 'NONE',  ( 1.000000000000000000, 0.0000000000000000000, 0.0000000000000000000 ) ) ;
#66 = CARTESIAN_POINT ( 'NONE',  ( -97.00000000000000000, 0.0000000000000000000, -65.00000000000000000 ) ) ;
#67 = CARTESIAN_POINT ( 'NONE',  ( 2.500000000000712300, 0.7999999999089683100, -17.50000000000000000 ) ) ;
#68 = PLANE ( 'NONE',  #147 ) ;
#69 = CARTESIAN_POINT ( 'NONE',  ( -97.00000000000000000, 0.0000000000000000000, -65.00000000000000000 ) ) ;
#70 = DIRECTION ( 'NONE',  ( 1.000000000000000000, -5.859758587548453900E-013, 0.0000000000000000000 ) ) ;
#71 = PLANE ( 'NONE',  #114 ) ;
#72 = DIRECTION ( 'NONE',  ( -1.000000000000000000, 9.384881465365244100E-013, -0.0000000000000000000 ) ) ;
#73 = DIRECTION ( 'NONE',  ( 1.248107174912678800E-005, 0.9999999999221113000, 0.0000000000000000000 ) ) ;
#74 = DIRECTION ( 'NONE',  ( 0.9999999999221114200, -1.248107174912679000E-005, 0.0000000000000000000 ) ) ;
#75 = DIRECTION ( 'NONE',  ( -5.859758587548453900E-013, -1.000000000000000000, 0.0000000000000000000 ) ) ;
#76 = CARTESIAN_POINT ( 'NONE',  ( -97.00000000000000000, 0.0000000000000000000, 0.0000000000000000000 ) ) ;
#77 = PLANE ( 'NONE',  #111 ) ;
#78 = EDGE_LOOP ( 'NONE', ( #206, #229, #224, #175 ) ) ;
#79 = EDGE_LOOP ( 'NONE', ( #202, #209, #208, #225 ) ) ;
#80 = EDGE_LOOP ( 'NONE', ( #223 ) ) ;
#81 = EDGE_LOOP ( 'NONE', ( #179, #207, #176, #177 ) ) ;
#82 = EDGE_LOOP ( 'NONE', ( #178 ) ) ;
#83 = EDGE_LOOP ( 'NONE', ( #212, #213, #219, #226 ) ) ;
#84 = EDGE_LOOP ( 'NONE', ( #217, #211, #218, #210 ) ) ;
#85 = VERTEX_POINT ( 'NONE', #172 ) ;
#86 = VERTEX_POINT ( 'NONE', #171 ) ;
#87 = VERTEX_POINT ( 'NONE', #160 ) ;
#88 = VERTEX_POINT ( 'NONE', #162 ) ;
#89 = VERTEX_POINT ( 'NONE', #153 ) ;
#90 = VERTEX_POINT ( 'NONE', #152 ) ;
#91 = VERTEX_POINT ( 'NONE', #157 ) ;
#92 = VERTEX_POINT ( 'NONE', #158 ) ;
#93 = EDGE_LOOP ( 'NONE', ( #220 ) ) ;
#94 = EDGE_LOOP ( 'NONE', ( #214 ) ) ;
#95 = EDGE_LOOP ( 'NONE', ( #222, #221, #215, #230 ) ) ;
#96 = CLOSED_SHELL ( 'NONE', ( #241, #237, #242, #239, #235, #240, #238, #236 ) ) ;
#97 = MANIFOLD_SOLID_BREP ( 'Çåðêàëüíîå îòðàæåíèå1', #96 ) ;
#98 = ADVANCED_BREP_SHAPE_REPRESENTATION ( 'Tþõôøýøªõû¹ýð  ýðúûðôúð CGB_37354', ( #97, #126 ), #146 ) ;
#99 = UNCERTAINTY_MEASURE_WITH_UNIT (LENGTH_MEASURE( 1.000000000000000100E-005 ), #53, 'distance_accuracy_value', 'NONE');
#100 = EDGE_CURVE ( 'NONE', #91, #88, #196, .T. ) ;
#101 = EDGE_CURVE ( 'NONE', #89, #91, #204, .T. ) ;
#102 = EDGE_CURVE ( 'NONE', #89, #90, #205, .T. ) ;
#103 = AXIS2_PLACEMENT_3D ( 'NONE', #159, #149, #154 ) ;
#104 = AXIS2_PLACEMENT_3D ( 'NONE', #166, #163, #161 ) ;
#105 = AXIS2_PLACEMENT_3D ( 'NONE', #24, #7, #49 ) ;
#106 = AXIS2_PLACEMENT_3D ( 'NONE', #20, #51, #2 ) ;
#107 = AXIS2_PLACEMENT_3D ( 'NONE', #28, #29, #13 ) ;
#108 = AXIS2_PLACEMENT_3D ( 'NONE', #12, #15, #44 ) ;
#109 = AXIS2_PLACEMENT_3D ( 'NONE', #10, #11, #4 ) ;
#110 = AXIS2_PLACEMENT_3D ( 'NONE', #3, #9, #6 ) ;
#111 = AXIS2_PLACEMENT_3D ( 'NONE', #1, #74, #73 ) ;
#112 = EDGE_CURVE ( 'NONE', #299, #299, #199, .T. ) ;
#113 = CC_DESIGN_DATE_AND_TIME_ASSIGNMENT ( #245, #21, ( #136 ) ) ;
#114 = AXIS2_PLACEMENT_3D ( 'NONE', #76, #64, #65 ) ;
#115 = CC_DESIGN_PERSON_AND_ORGANIZATION_ASSIGNMENT ( #255, #22, ( #136 ) ) ;
#116 = APPROVAL ( #19, 'UNSPECIFIED' ) ;
#117 = CC_DESIGN_APPROVAL ( #116, ( #136 ) ) ;
#118 = CC_DESIGN_SECURITY_CLASSIFICATION ( #136, ( #125 ) ) ;
#119 = PRODUCT_RELATED_PRODUCT_CATEGORY ( 'detail', '', ( #232 ) ) ;
#120 = CC_DESIGN_DATE_AND_TIME_ASSIGNMENT ( #298, #32, ( #129 ) ) ;
#121 = CC_DESIGN_PERSON_AND_ORGANIZATION_ASSIGNMENT ( #279, #33, ( #129 ) ) ;
#122 = CC_DESIGN_PERSON_AND_ORGANIZATION_ASSIGNMENT ( #247, #26, ( #125 ) ) ;
#123 = CC_DESIGN_APPROVAL ( #124, ( #125 ) ) ;
#124 = APPROVAL ( #30, 'UNSPECIFIED' ) ;
#125 = PRODUCT_DEFINITION_FORMATION_WITH_SPECIFIED_SOURCE ( 'ANY', '', #232, .NOT_KNOWN. ) ;
#126 = AXIS2_PLACEMENT_3D ( 'NONE', #57, #56, #45 ) ;
#127 = CC_DESIGN_APPROVAL ( #128, ( #129 ) ) ;
#128 = APPROVAL ( #37, 'UNSPECIFIED' ) ;
#129 = PRODUCT_DEFINITION ( 'UNKNOWN', '', #125, #233 ) ;
#130 = CC_DESIGN_PERSON_AND_ORGANIZATION_ASSIGNMENT ( #292, #42, ( #232 ) ) ;
#131 = EDGE_CURVE ( 'NONE', #302, #302, #197, .T. ) ;
#132 = EDGE_CURVE ( 'NONE', #90, #85, #193, .T. ) ;
#133 = EDGE_CURVE ( 'NONE', #91, #85, #201, .T. ) ;
#134 = EDGE_CURVE ( 'NONE', #265, #265, #194, .T. ) ;
#135 = EDGE_CURVE ( 'NONE', #92, #86, #187, .T. ) ;
#136 = SECURITY_CLASSIFICATION ( '', '', #23 ) ;
#137 = EDGE_CURVE ( 'NONE', #88, #92, #188, .T. ) ;
#138 = EDGE_CURVE ( 'NONE', #85, #92, #184, .T. ) ;
#139 = EDGE_CURVE ( 'NONE', #87, #89, #189, .T. ) ;
#140 = EDGE_CURVE ( 'NONE', #88, #87, #278, .T. ) ;
#141 = CC_DESIGN_PERSON_AND_ORGANIZATION_ASSIGNMENT ( #249, #25, ( #125 ) ) ;
#142 = EDGE_CURVE ( 'NONE', #87, #86, #268, .T. ) ;
#143 = EDGE_CURVE ( 'NONE', #284, #284, #275, .T. ) ;
#144 = EDGE_CURVE ( 'NONE', #86, #90, #266, .T. ) ;
#145 = AXIS2_PLACEMENT_3D ( 'NONE', #69, #60, #62 ) ;
#146 =( GEOMETRIC_REPRESENTATION_CONTEXT ( 3 ) GLOBAL_UNCERTAINTY_ASSIGNED_CONTEXT ( ( #99 ) ) GLOBAL_UNIT_ASSIGNED_CONTEXT ( ( #53, #52, #50 ) ) REPRESENTATION_CONTEXT ( 'NONE', 'WORKASPACE' ) );
#147 = AXIS2_PLACEMENT_3D ( 'NONE', #66, #75, #70 ) ;
#148 = CARTESIAN_POINT ( 'NONE',  ( -97.00000000000000000, 0.0000000000000000000, 0.0000000000000000000 ) ) ;
#149 = DIRECTION ( 'NONE',  ( -5.859758587548453900E-013, -1.000000000000000000, 0.0000000000000000000 ) ) ;
#150 = CARTESIAN_POINT ( 'NONE',  ( -97.00000000000000000, 0.0000000000000000000, -65.00000000000000000 ) ) ;
#151 = CARTESIAN_POINT ( 'NONE',  ( 97.00000000000000000, -1.136793165984400000E-010, -65.00000000000000000 ) ) ;
#152 = CARTESIAN_POINT ( 'NONE',  ( -97.00000000000000000, 0.0000000000000000000, 0.0000000000000000000 ) ) ;
#153 = CARTESIAN_POINT ( 'NONE',  ( -97.00000000000000000, 0.0000000000000000000, -65.00000000000000000 ) ) ;
#154 = DIRECTION ( 'NONE',  ( 1.000000000000000000, -5.859758587548441800E-013, 0.0000000000000000000 ) ) ;
#155 = CARTESIAN_POINT ( 'NONE',  ( 97.00000998485740000, 0.7999999998179347900, -65.00000000000000000 ) ) ;
#156 = DIRECTION ( 'NONE',  ( 1.000000000000000000, -5.859758587548453900E-013, 0.0000000000000000000 ) ) ;
#157 = CARTESIAN_POINT ( 'NONE',  ( 97.00000000000000000, -1.136793165984400000E-010, -65.00000000000000000 ) ) ;
#158 = CARTESIAN_POINT ( 'NONE',  ( 97.00000998485740000, 0.7999999998179347900, 0.0000000000000000000 ) ) ;
#159 = CARTESIAN_POINT ( 'NONE',  ( 7.119340029674624500E-013, -5.683994941385606100E-011, -47.50000000000000000 ) ) ;
#160 = CARTESIAN_POINT ( 'NONE',  ( -97.00000000000000000, 0.8000000000000016000, -65.00000000000000000 ) ) ;
#161 = DIRECTION ( 'NONE',  ( 1.000000000000000000, -5.859758587548441800E-013, 0.0000000000000000000 ) ) ;
#162 = CARTESIAN_POINT ( 'NONE',  ( 97.00000998485740000, 0.7999999998179347900, -65.00000000000000000 ) ) ;
#163 = DIRECTION ( 'NONE',  ( 5.859758587548453900E-013, 1.000000000000000000, -0.0000000000000000000 ) ) ;
#164 = CARTESIAN_POINT ( 'NONE',  ( -97.00000000000000000, 0.0000000000000000000, -65.00000000000000000 ) ) ;
#165 = CARTESIAN_POINT ( 'NONE',  ( -97.00000000000000000, 0.8000000000000016000, 0.0000000000000000000 ) ) ;
#166 = CARTESIAN_POINT ( 'NONE',  ( 7.119340029674624500E-013, -5.683994941385606100E-011, -17.50000000000000000 ) ) ;
#167 = DIRECTION ( 'NONE',  ( 0.0000000000000000000, 0.0000000000000000000, 1.000000000000000000 ) ) ;
#168 = CARTESIAN_POINT ( 'NONE',  ( 97.00000000000000000, -1.136793165984400000E-010, -65.00000000000000000 ) ) ;
#169 = DIRECTION ( 'NONE',  ( 1.248107174912679000E-005, 0.9999999999221113000, 0.0000000000000000000 ) ) ;
#170 = DIRECTION ( 'NONE',  ( 1.000000000000000000, -5.859758587548453900E-013, 0.0000000000000000000 ) ) ;
#171 = CARTESIAN_POINT ( 'NONE',  ( -97.00000000000000000, 0.8000000000000016000, 0.0000000000000000000 ) ) ;
#172 = CARTESIAN_POINT ( 'NONE',  ( 97.00000000000000000, -1.136793165984400000E-010, 0.0000000000000000000 ) ) ;
#173 = DIRECTION ( 'NONE',  ( 0.0000000000000000000, 0.0000000000000000000, 1.000000000000000000 ) ) ;
#174 = ORIENTED_EDGE ( 'NONE', *, *, #112, .T. ) ;
#175 = ORIENTED_EDGE ( 'NONE', *, *, #142, .T. ) ;
#176 = ORIENTED_EDGE ( 'NONE', *, *, #135, .T. ) ;
#177 = ORIENTED_EDGE ( 'NONE', *, *, #144, .T. ) ;
#178 = ORIENTED_EDGE ( 'NONE', *, *, #112, .F. ) ;
#179 = ORIENTED_EDGE ( 'NONE', *, *, #132, .T. ) ;
#180 = EDGE_LOOP ( 'NONE', ( #203 ) ) ;
#181 = ORIENTED_EDGE ( 'NONE', *, *, #143, .T. ) ;
#182 = VECTOR ( 'NONE', #41, 1000.000000000000200 ) ;
#183 = EDGE_LOOP ( 'NONE', ( #181 ) ) ;
#184 = LINE ( 'NONE', #16, #182 ) ;
#185 = VECTOR ( 'NONE', #72, 1000.000000000000000 ) ;
#186 = VECTOR ( 'NONE', #54, 1000.000000000000000 ) ;
#187 = LINE ( 'NONE', #165, #185 ) ;
#188 = LINE ( 'NONE', #155, #192 ) ;
#189 = LINE ( 'NONE', #38, #186 ) ;
#190 = VECTOR ( 'NONE', #156, 1000.000000000000000 ) ;
#191 = VECTOR ( 'NONE', #167, 1000.000000000000000 ) ;
#192 = VECTOR ( 'NONE', #34, 1000.000000000000000 ) ;
#193 = LINE ( 'NONE', #148, #190 ) ;
#194 = CIRCLE ( 'NONE', #105, 2.500000000000000000 ) ;
#195 = VECTOR ( 'NONE', #170, 1000.000000000000000 ) ;
#196 = LINE ( 'NONE', #168, #198 ) ;
#197 = CIRCLE ( 'NONE', #104, 2.500000000000000000 ) ;
#198 = VECTOR ( 'NONE', #169, 1000.000000000000200 ) ;
#199 = CIRCLE ( 'NONE', #103, 2.500000000000000000 ) ;
#200 = VECTOR ( 'NONE', #173, 1000.000000000000000 ) ;
#201 = LINE ( 'NONE', #151, #191 ) ;
#202 = ORIENTED_EDGE ( 'NONE', *, *, #132, .F. ) ;
#203 = ORIENTED_EDGE ( 'NONE', *, *, #131, .T. ) ;
#204 = LINE ( 'NONE', #164, #195 ) ;
#205 = LINE ( 'NONE', #150, #200 ) ;
#206 = ORIENTED_EDGE ( 'NONE', *, *, #135, .F. ) ;
#207 = ORIENTED_EDGE ( 'NONE', *, *, #138, .T. ) ;
#208 = ORIENTED_EDGE ( 'NONE', *, *, #101, .T. ) ;
#209 = ORIENTED_EDGE ( 'NONE', *, *, #102, .F. ) ;
#210 = ORIENTED_EDGE ( 'NONE', *, *, #137, .T. ) ;
#211 = ORIENTED_EDGE ( 'NONE', *, *, #133, .F. ) ;
#212 = ORIENTED_EDGE ( 'NONE', *, *, #101, .F. ) ;
#213 = ORIENTED_EDGE ( 'NONE', *, *, #139, .F. ) ;
#214 = ORIENTED_EDGE ( 'NONE', *, *, #134, .F. ) ;
#215 = ORIENTED_EDGE ( 'NONE', *, *, #139, .T. ) ;
#216 = ORIENTED_EDGE ( 'NONE', *, *, #143, .F. ) ;
#217 = ORIENTED_EDGE ( 'NONE', *, *, #138, .F. ) ;
#218 = ORIENTED_EDGE ( 'NONE', *, *, #100, .T. ) ;
#219 = ORIENTED_EDGE ( 'NONE', *, *, #140, .F. ) ;
#220 = ORIENTED_EDGE ( 'NONE', *, *, #131, .F. ) ;
#221 = ORIENTED_EDGE ( 'NONE', *, *, #142, .F. ) ;
#222 = ORIENTED_EDGE ( 'NONE', *, *, #144, .F. ) ;
#223 = ORIENTED_EDGE ( 'NONE', *, *, #134, .T. ) ;
#224 = ORIENTED_EDGE ( 'NONE', *, *, #140, .T. ) ;
#225 = ORIENTED_EDGE ( 'NONE', *, *, #133, .T. ) ;
#226 = ORIENTED_EDGE ( 'NONE', *, *, #100, .F. ) ;
#227 = EDGE_LOOP ( 'NONE', ( #216 ) ) ;
#228 = EDGE_LOOP ( 'NONE', ( #174 ) ) ;
#229 = ORIENTED_EDGE ( 'NONE', *, *, #137, .F. ) ;
#230 = ORIENTED_EDGE ( 'NONE', *, *, #102, .T. ) ;
#231 = PERSON ( 'UNSPECIFIED', 'UNSPECIFIED', 'UNSPECIFIED', ('UNSPECIFIED'), ('UNSPECIFIED'), ('UNSPECIFIED') ) ;
#232 = PRODUCT ( 'Ñîåäèíèòåëüíàÿ íàêëàäêà CGB_37354', 'Ñîåäèíèòåëüíàÿ íàêëàäêà CGB_37354', '', ( #43 ) ) ;
#233 = DESIGN_CONTEXT ( 'detailed design', #40, 'design' ) ;
#234 = PRODUCT_DEFINITION_SHAPE ( 'NONE', 'NONE',  #129 ) ;
#235 = ADVANCED_FACE ( 'NONE', ( #290 ), #31, .F. ) ;
#236 = ADVANCED_FACE ( 'NONE', ( #294, #272 ), #283, .F. ) ;
#237 = ADVANCED_FACE ( 'NONE', ( #285, #301, #289 ), #8, .T. ) ;
#238 = ADVANCED_FACE ( 'NONE', ( #270, #305 ), #297, .F. ) ;
#239 = ADVANCED_FACE ( 'NONE', ( #262 ), #77, .T. ) ;
#240 = ADVANCED_FACE ( 'NONE', ( #263 ), #71, .T. ) ;
#241 = ADVANCED_FACE ( 'NONE', ( #282, #280, #295 ), #68, .T. ) ;
#242 = ADVANCED_FACE ( 'NONE', ( #274 ), #63, .T. ) ;
#243 = DATE_AND_TIME ( #252, #261 ) ;
#244 = COORDINATED_UNIVERSAL_TIME_OFFSET ( 4, 0, .AHEAD. ) ;
#245 = DATE_AND_TIME ( #254, #250 ) ;
#246 = COORDINATED_UNIVERSAL_TIME_OFFSET ( 4, 0, .AHEAD. ) ;
#247 = PERSON_AND_ORGANIZATION ( #231, #281 ) ;
#248 = CALENDAR_DATE ( 2012, 9, 11 ) ;
#249 = PERSON_AND_ORGANIZATION ( #231, #281 ) ;
#250 = LOCAL_TIME ( 12, 54, 44.00000000000000000, #246 ) ;
#251 = PERSON_AND_ORGANIZATION ( #231, #281 ) ;
#252 = CALENDAR_DATE ( 2012, 9, 11 ) ;
#253 = APPROVAL_PERSON_ORGANIZATION ( #251, #116, #17 ) ;
#254 = CALENDAR_DATE ( 2012, 9, 11 ) ;
#255 = PERSON_AND_ORGANIZATION ( #231, #281 ) ;
#256 = COORDINATED_UNIVERSAL_TIME_OFFSET ( 4, 0, .AHEAD. ) ;
#257 = DATE_AND_TIME ( #248, #259 ) ;
#258 = APPROVAL_DATE_TIME ( #257, #124 ) ;
#259 = LOCAL_TIME ( 12, 54, 44.00000000000000000, #256 ) ;
#260 = APPROVAL_DATE_TIME ( #243, #116 ) ;
#261 = LOCAL_TIME ( 12, 54, 44.00000000000000000, #244 ) ;
#262 = FACE_OUTER_BOUND ( 'NONE', #84, .T. ) ;
#263 = FACE_OUTER_BOUND ( 'NONE', #81, .T. ) ;
#264 = SHAPE_DEFINITION_REPRESENTATION ( #234, #98 ) ;
#265 = VERTEX_POINT ( 'NONE', #58 ) ;
#266 = LINE ( 'NONE', #5, #271 ) ;
#267 = CALENDAR_DATE ( 2012, 9, 11 ) ;
#268 = LINE ( 'NONE', #55, #286 ) ;
#269 = APPROVAL_DATE_TIME ( #300, #128 ) ;
#270 = FACE_OUTER_BOUND ( 'NONE', #93, .T. ) ;
#271 = VECTOR ( 'NONE', #35, 1000.000000000000000 ) ;
#272 = FACE_OUTER_BOUND ( 'NONE', #80, .T. ) ;
#273 = CALENDAR_DATE ( 2012, 9, 11 ) ;
#274 = FACE_OUTER_BOUND ( 'NONE', #95, .T. ) ;
#275 = CIRCLE ( 'NONE', #106, 2.500000000000000000 ) ;
#276 = APPROVAL_PERSON_ORGANIZATION ( #303, #124, #27 ) ;
#277 = APPROVAL_PERSON_ORGANIZATION ( #288, #128, #36 ) ;
#278 = LINE ( 'NONE', #47, #291 ) ;
#279 = PERSON_AND_ORGANIZATION ( #231, #281 ) ;
#280 = FACE_OUTER_BOUND ( 'NONE', #79, .T. ) ;
#281 = ORGANIZATION ( 'UNSPECIFIED', 'UNSPECIFIED', '' ) ;
#282 = FACE_BOUND ( 'NONE', #82, .T. ) ;
#283 = CYLINDRICAL_SURFACE ( 'NONE', #108, 2.500000000000000000 ) ;
#284 = VERTEX_POINT ( 'NONE', #67 ) ;
#285 = FACE_BOUND ( 'NONE', #94, .T. ) ;
#286 = VECTOR ( 'NONE', #18, 1000.000000000000000 ) ;
#287 = LOCAL_TIME ( 12, 54, 44.00000000000000000, #293 ) ;
#288 = PERSON_AND_ORGANIZATION ( #231, #281 ) ;
#289 = FACE_BOUND ( 'NONE', #183, .T. ) ;
#290 = FACE_OUTER_BOUND ( 'NONE', #83, .T. ) ;
#291 = VECTOR ( 'NONE', #14, 1000.000000000000000 ) ;
#292 = PERSON_AND_ORGANIZATION ( #231, #281 ) ;
#293 = COORDINATED_UNIVERSAL_TIME_OFFSET ( 4, 0, .AHEAD. ) ;
#294 = FACE_OUTER_BOUND ( 'NONE', #228, .T. ) ;
#295 = FACE_BOUND ( 'NONE', #180, .T. ) ;
#296 = COORDINATED_UNIVERSAL_TIME_OFFSET ( 4, 0, .AHEAD. ) ;
#297 = CYLINDRICAL_SURFACE ( 'NONE', #110, 2.500000000000000000 ) ;
#298 = DATE_AND_TIME ( #267, #287 ) ;
#299 = VERTEX_POINT ( 'NONE', #59 ) ;
#300 = DATE_AND_TIME ( #273, #304 ) ;
#301 = FACE_OUTER_BOUND ( 'NONE', #78, .T. ) ;
#302 = VERTEX_POINT ( 'NONE', #61 ) ;
#303 = PERSON_AND_ORGANIZATION ( #231, #281 ) ;
#304 = LOCAL_TIME ( 12, 54, 44.00000000000000000, #296 ) ;
#305 = FACE_OUTER_BOUND ( 'NONE', #227, .T. ) ;
ENDSEC;
END-ISO-10303-21;
