ISO-10303-21;
HEADER;
FILE_DESCRIPTION (( 'STEP AP203' ),
    '1' );
FILE_NAME ('Ôèêñàòîð êîíñîëè BBF_BBF5001HDZ.STEP',
    '2012-11-21T09:03:41',
    ( 'Àñååâ' ),
    ( '' ),
    'SwSTEP 2.0',
    'SolidWorks 2012',
    '' );
FILE_SCHEMA (( 'CONFIG_CONTROL_DESIGN' ));
ENDSEC;

DATA;
#1 = PERSON_AND_ORGANIZATION ( #174, #27 ) ;
#2 = DATE_AND_TIME ( #6, #5 ) ;
#3 = PERSON_AND_ORGANIZATION ( #174, #27 ) ;
#4 = COORDINATED_UNIVERSAL_TIME_OFFSET ( 4, 0, .AHEAD. ) ;
#5 = LOCAL_TIME ( 13, 3, 41.00000000000000000, #4 ) ;
#6 = CALENDAR_DATE ( 2012, 21, 11 ) ;
#7 = APPROVAL_PERSON_ORGANIZATION ( #13, #192, #108 ) ;
#8 = COORDINATED_UNIVERSAL_TIME_OFFSET ( 4, 0, .AHEAD. ) ;
#9 = CIRCLE ( 'NONE', #187, 5.999999999999998200 ) ;
#10 = VERTEX_POINT ( 'NONE', #153 ) ;
#11 = FACE_OUTER_BOUND ( 'NONE', #79, .T. ) ;
#12 = CYLINDRICAL_SURFACE ( 'NONE', #186, 3.399999999999999900 ) ;
#13 = PERSON_AND_ORGANIZATION ( #174, #27 ) ;
#14 = TOROIDAL_SURFACE ( 'NONE', #180, 6.000000000000000000, 3.399999999999999900 ) ;
#15 = CIRCLE ( 'NONE', #182, 3.399999999999999900 ) ;
#16 = FACE_OUTER_BOUND ( 'NONE', #75, .T. ) ;
#17 = FACE_OUTER_BOUND ( 'NONE', #65, .T. ) ;
#18 = FACE_OUTER_BOUND ( 'NONE', #64, .T. ) ;
#19 = FACE_OUTER_BOUND ( 'NONE', #66, .T. ) ;
#20 = FACE_OUTER_BOUND ( 'NONE', #82, .T. ) ;
#21 = APPROVAL_DATE_TIME ( #23, #192 ) ;
#22 = CALENDAR_DATE ( 2012, 21, 11 ) ;
#23 = DATE_AND_TIME ( #22, #51 ) ;
#24 = VERTEX_POINT ( 'NONE', #164 ) ;
#25 = VERTEX_POINT ( 'NONE', #166 ) ;
#26 = VERTEX_POINT ( 'NONE', #167 ) ;
#27 = ORGANIZATION ( 'UNSPECIFIED', 'UNSPECIFIED', '' ) ;
#28 = PERSON_AND_ORGANIZATION ( #174, #27 ) ;
#29 = PERSON_AND_ORGANIZATION ( #174, #27 ) ;
#30 = PERSON_AND_ORGANIZATION ( #174, #27 ) ;
#31 = APPROVAL_PERSON_ORGANIZATION ( #29, #196, #146 ) ;
#32 = APPROVAL_PERSON_ORGANIZATION ( #48, #204, #133 ) ;
#33 = COORDINATED_UNIVERSAL_TIME_OFFSET ( 4, 0, .AHEAD. ) ;
#34 = COORDINATED_UNIVERSAL_TIME_OFFSET ( 4, 0, .AHEAD. ) ;
#35 = LOCAL_TIME ( 13, 3, 41.00000000000000000, #33 ) ;
#36 = LOCAL_TIME ( 13, 3, 41.00000000000000000, #34 ) ;
#37 = CALENDAR_DATE ( 2012, 21, 11 ) ;
#38 = CALENDAR_DATE ( 2012, 21, 11 ) ;
#39 = DATE_AND_TIME ( #37, #35 ) ;
#40 = DATE_AND_TIME ( #38, #36 ) ;
#41 = APPROVAL_DATE_TIME ( #39, #196 ) ;
#42 = PERSON_AND_ORGANIZATION ( #174, #27 ) ;
#43 = COORDINATED_UNIVERSAL_TIME_OFFSET ( 4, 0, .AHEAD. ) ;
#44 = LOCAL_TIME ( 13, 3, 41.00000000000000000, #43 ) ;
#45 = CALENDAR_DATE ( 2012, 21, 11 ) ;
#46 = DATE_AND_TIME ( #45, #44 ) ;
#47 = APPROVAL_DATE_TIME ( #40, #204 ) ;
#48 = PERSON_AND_ORGANIZATION ( #174, #27 ) ;
#49 = VERTEX_POINT ( 'NONE', #104 ) ;
#50 = SHAPE_DEFINITION_REPRESENTATION ( #214, #170 ) ;
#51 = LOCAL_TIME ( 13, 3, 41.00000000000000000, #8 ) ;
#52 = CIRCLE ( 'NONE', #210, 3.399999999999999900 ) ;
#53 = VERTEX_POINT ( 'NONE', #123 ) ;
#54 = CIRCLE ( 'NONE', #212, 5.999999999999998200 ) ;
#55 = CIRCLE ( 'NONE', #184, 3.399999999999999900 ) ;
#56 = CIRCLE ( 'NONE', #211, 3.399999999999999900 ) ;
#57 = CYLINDRICAL_SURFACE ( 'NONE', #189, 3.400000000000000400 ) ;
#58 = FACE_OUTER_BOUND ( 'NONE', #80, .T. ) ;
#59 = CYLINDRICAL_SURFACE ( 'NONE', #185, 5.999999999999998200 ) ;
#60 = FACE_OUTER_BOUND ( 'NONE', #67, .T. ) ;
#61 = FACE_OUTER_BOUND ( 'NONE', #77, .T. ) ;
#62 = FACE_BOUND ( 'NONE', #83, .T. ) ;
#63 = FACE_OUTER_BOUND ( 'NONE', #78, .T. ) ;
#64 = EDGE_LOOP ( 'NONE', ( #70 ) ) ;
#65 = EDGE_LOOP ( 'NONE', ( #76 ) ) ;
#66 = EDGE_LOOP ( 'NONE', ( #74 ) ) ;
#67 = EDGE_LOOP ( 'NONE', ( #85 ) ) ;
#68 = ORIENTED_EDGE ( 'NONE', *, *, #206, .T. ) ;
#69 = ORIENTED_EDGE ( 'NONE', *, *, #207, .F. ) ;
#70 = ORIENTED_EDGE ( 'NONE', *, *, #208, .T. ) ;
#71 = ORIENTED_EDGE ( 'NONE', *, *, #178, .T. ) ;
#72 = EDGE_LOOP ( 'NONE', ( #86 ) ) ;
#73 = ORIENTED_EDGE ( 'NONE', *, *, #206, .F. ) ;
#74 = ORIENTED_EDGE ( 'NONE', *, *, #209, .T. ) ;
#75 = EDGE_LOOP ( 'NONE', ( #69 ) ) ;
#76 = ORIENTED_EDGE ( 'NONE', *, *, #205, .F. ) ;
#77 = EDGE_LOOP ( 'NONE', ( #68 ) ) ;
#78 = EDGE_LOOP ( 'NONE', ( #84 ) ) ;
#79 = EDGE_LOOP ( 'NONE', ( #71 ) ) ;
#80 = EDGE_LOOP ( 'NONE', ( #88 ) ) ;
#81 = FACE_OUTER_BOUND ( 'NONE', #72, .T. ) ;
#82 = EDGE_LOOP ( 'NONE', ( #87 ) ) ;
#83 = EDGE_LOOP ( 'NONE', ( #73 ) ) ;
#84 = ORIENTED_EDGE ( 'NONE', *, *, #178, .F. ) ;
#85 = ORIENTED_EDGE ( 'NONE', *, *, #205, .T. ) ;
#86 = ORIENTED_EDGE ( 'NONE', *, *, #209, .F. ) ;
#87 = ORIENTED_EDGE ( 'NONE', *, *, #207, .T. ) ;
#88 = ORIENTED_EDGE ( 'NONE', *, *, #208, .F. ) ;
#89 = CLOSED_SHELL ( 'NONE', ( #93, #94, #90, #95, #96, #91, #92 ) ) ;
#90 = ADVANCED_FACE ( 'NONE', ( #81 ), #154, .F. ) ;
#91 = ADVANCED_FACE ( 'NONE', ( #63, #61 ), #12, .T. ) ;
#92 = ADVANCED_FACE ( 'NONE', ( #20 ), #99, .T. ) ;
#93 = ADVANCED_FACE ( 'NONE', ( #17, #19 ), #59, .T. ) ;
#94 = ADVANCED_FACE ( 'NONE', ( #62, #60 ), #151, .T. ) ;
#95 = ADVANCED_FACE ( 'NONE', ( #18, #16 ), #57, .T. ) ;
#96 = ADVANCED_FACE ( 'NONE', ( #11, #58 ), #14, .T. ) ;
#97 = PERSON_AND_ORGANIZATION_ROLE ( 'creator' ) ;
#98 = APPROVAL_STATUS ( 'not_yet_approved' ) ;
#99 = PLANE ( 'NONE',  #181 ) ;
#100 = DIRECTION ( 'NONE',  ( -1.000000000000000000, 0.0000000000000000000, 0.0000000000000000000 ) ) ;
#101 = DIRECTION ( 'NONE',  ( -0.0000000000000000000, -0.0000000000000000000, -1.000000000000000000 ) ) ;
#102 = DIRECTION ( 'NONE',  ( 0.0000000000000000000, -1.000000000000000000, 6.123233995736766000E-017 ) ) ;
#103 = DIRECTION ( 'NONE',  ( 0.0000000000000000000, 0.0000000000000000000, -1.000000000000000000 ) ) ;
#104 = CARTESIAN_POINT ( 'NONE',  ( 5.999999999999998200, 0.0000000000000000000, 3.700000000000000200 ) ) ;
#105 = CARTESIAN_POINT ( 'NONE',  ( 0.0000000000000000000, -40.00000000000000000, 15.69999999999999600 ) ) ;
#106 = DIRECTION ( 'NONE',  ( 0.0000000000000000000, -1.000000000000000000, 6.123233995736766000E-017 ) ) ;
#107 = APPROVAL_STATUS ( 'not_yet_approved' ) ;
#108 = APPROVAL_ROLE ( '' ) ;
#109 =( LENGTH_UNIT ( ) NAMED_UNIT ( * ) SI_UNIT ( .MILLI., .METRE. ) );
#110 =( NAMED_UNIT ( * ) PLANE_ANGLE_UNIT ( ) SI_UNIT ( $, .RADIAN. ) );
#111 =( NAMED_UNIT ( * ) SI_UNIT ( $, .STERADIAN. ) SOLID_ANGLE_UNIT ( ) );
#112 = APPLICATION_CONTEXT ( 'configuration controlled 3d designs of mechanical parts and assemblies' ) ;
#113 = DIRECTION ( 'NONE',  ( 1.000000000000000000, 0.0000000000000000000, 0.0000000000000000000 ) ) ;
#114 = DIRECTION ( 'NONE',  ( 0.0000000000000000000, 0.0000000000000000000, 1.000000000000000000 ) ) ;
#115 = DIRECTION ( 'NONE',  ( 1.000000000000000000, 0.0000000000000000000, -0.0000000000000000000 ) ) ;
#116 = CARTESIAN_POINT ( 'NONE',  ( 0.0000000000000000000, -6.000000000000000000, 15.70000000000000300 ) ) ;
#117 = DIRECTION ( 'NONE',  ( 1.000000000000000000, 0.0000000000000000000, 0.0000000000000000000 ) ) ;
#118 = CARTESIAN_POINT ( 'NONE',  ( 0.0000000000000000000, -6.000000000000000900, 9.700000000000002800 ) ) ;
#119 = DIRECTION ( 'NONE',  ( 1.000000000000000000, 0.0000000000000000000, 0.0000000000000000000 ) ) ;
#120 = CARTESIAN_POINT ( 'NONE',  ( 0.0000000000000000000, -6.000000000000000000, 15.70000000000000300 ) ) ;
#121 = DIRECTION ( 'NONE',  ( 0.0000000000000000000, -1.000000000000000000, 6.123233995736766000E-017 ) ) ;
#122 = DIRECTION ( 'NONE',  ( 1.000000000000000000, 0.0000000000000000000, 0.0000000000000000000 ) ) ;
#123 = CARTESIAN_POINT ( 'NONE',  ( 3.399999999999999900, 0.0000000000000000000, 3.700000000000000200 ) ) ;
#124 = CARTESIAN_POINT ( 'NONE',  ( 0.0000000000000000000, 0.0000000000000000000, 3.700000000000000200 ) ) ;
#125 = DIRECTION ( 'NONE',  ( 0.0000000000000000000, 0.0000000000000000000, 1.000000000000000000 ) ) ;
#126 = DIRECTION ( 'NONE',  ( 1.000000000000000000, 0.0000000000000000000, 0.0000000000000000000 ) ) ;
#127 = CARTESIAN_POINT ( 'NONE',  ( 0.0000000000000000000, 0.0000000000000000000, 0.0000000000000000000 ) ) ;
#128 = CARTESIAN_POINT ( 'NONE',  ( 0.0000000000000000000, 0.0000000000000000000, 3.700000000000000200 ) ) ;
#129 = DIRECTION ( 'NONE',  ( 1.000000000000000000, 0.0000000000000000000, 0.0000000000000000000 ) ) ;
#130 = CARTESIAN_POINT ( 'NONE',  ( 0.0000000000000000000, 0.0000000000000000000, 3.700000000000000200 ) ) ;
#131 = DATE_TIME_ROLE ( 'creation_date' ) ;
#132 = APPROVAL_STATUS ( 'not_yet_approved' ) ;
#133 = APPROVAL_ROLE ( '' ) ;
#134 = PERSON_AND_ORGANIZATION_ROLE ( 'design_supplier' ) ;
#135 = SECURITY_CLASSIFICATION_LEVEL ( 'unclassified' ) ;
#136 = DATE_TIME_ROLE ( 'classification_date' ) ;
#137 = DIRECTION ( 'NONE',  ( 0.0000000000000000000, 1.000000000000000000, 0.0000000000000000000 ) ) ;
#138 = DIRECTION ( 'NONE',  ( 0.0000000000000000000, 0.0000000000000000000, 1.000000000000000000 ) ) ;
#139 = DIRECTION ( 'NONE',  ( -0.0000000000000000000, 1.445602896647338900E-016, -1.000000000000000000 ) ) ;
#140 = CARTESIAN_POINT ( 'NONE',  ( 0.0000000000000000000, -40.00000000000000000, 15.69999999999999600 ) ) ;
#141 = APPLICATION_PROTOCOL_DEFINITION ( 'international standard', 'config_control_design', 1994, #112 ) ;
#142 = MECHANICAL_CONTEXT ( 'NONE', #112, 'mechanical' ) ;
#143 = PERSON_AND_ORGANIZATION_ROLE ( 'design_owner' ) ;
#144 = APPLICATION_CONTEXT ( 'configuration controlled 3d designs of mechanical parts and assemblies' ) ;
#145 = APPLICATION_PROTOCOL_DEFINITION ( 'international standard', 'config_control_design', 1994, #144 ) ;
#146 = APPROVAL_ROLE ( '' ) ;
#147 = PERSON_AND_ORGANIZATION_ROLE ( 'creator' ) ;
#148 = DIRECTION ( 'NONE',  ( 1.000000000000000000, 0.0000000000000000000, 0.0000000000000000000 ) ) ;
#149 = CARTESIAN_POINT ( 'NONE',  ( 0.0000000000000000000, 0.0000000000000000000, 3.700000000000000200 ) ) ;
#150 = DIRECTION ( 'NONE',  ( 0.0000000000000000000, -1.000000000000000000, -2.040851148208008200E-016 ) ) ;
#151 = PLANE ( 'NONE',  #183 ) ;
#152 = DIRECTION ( 'NONE',  ( 0.0000000000000000000, 2.551063935260010000E-016, -1.000000000000000000 ) ) ;
#153 = CARTESIAN_POINT ( 'NONE',  ( 3.399999999999999900, -8.673617379884035500E-016, 9.700000000000002800 ) ) ;
#154 = PLANE ( 'NONE',  #188 ) ;
#155 = CARTESIAN_POINT ( 'NONE',  ( 0.0000000000000000000, 0.0000000000000000000, 0.0000000000000000000 ) ) ;
#156 = CARTESIAN_POINT ( 'NONE',  ( 0.0000000000000000000, -8.673617379884035500E-016, 9.700000000000002800 ) ) ;
#157 = CARTESIAN_POINT ( 'NONE',  ( 0.0000000000000000000, -8.673617379884035500E-016, 9.700000000000002800 ) ) ;
#158 = DIRECTION ( 'NONE',  ( 0.0000000000000000000, 0.0000000000000000000, 1.000000000000000000 ) ) ;
#159 = DIRECTION ( 'NONE',  ( 1.000000000000000000, 0.0000000000000000000, 0.0000000000000000000 ) ) ;
#160 = DIRECTION ( 'NONE',  ( 0.0000000000000000000, 0.0000000000000000000, 1.000000000000000000 ) ) ;
#161 = CARTESIAN_POINT ( 'NONE',  ( 0.0000000000000000000, 0.0000000000000000000, 0.0000000000000000000 ) ) ;
#162 = DIRECTION ( 'NONE',  ( 0.0000000000000000000, 0.0000000000000000000, 1.000000000000000000 ) ) ;
#163 = DIRECTION ( 'NONE',  ( 1.000000000000000000, 0.0000000000000000000, 0.0000000000000000000 ) ) ;
#164 = CARTESIAN_POINT ( 'NONE',  ( 3.399999999999999900, -40.00000000000000000, 15.69999999999999600 ) ) ;
#165 = DIRECTION ( 'NONE',  ( 1.000000000000000000, 0.0000000000000000000, -0.0000000000000000000 ) ) ;
#166 = CARTESIAN_POINT ( 'NONE',  ( 3.399999999999999900, -6.000000000000000000, 15.70000000000000300 ) ) ;
#167 = CARTESIAN_POINT ( 'NONE',  ( 5.999999999999998200, 0.0000000000000000000, 0.0000000000000000000 ) ) ;
#168 = DIRECTION ( 'NONE',  ( 0.0000000000000000000, 0.0000000000000000000, 1.000000000000000000 ) ) ;
#169 = PERSON_AND_ORGANIZATION_ROLE ( 'classification_officer' ) ;
#170 = ADVANCED_BREP_SHAPE_REPRESENTATION ( 'Løú¸ðªþ¨ úþý¸þûø BBF_BBF5001HDZ', ( #172, #193 ), #213 ) ;
#171 = UNCERTAINTY_MEASURE_WITH_UNIT (LENGTH_MEASURE( 1.000000000000000100E-005 ), #109, 'distance_accuracy_value', 'NONE');
#172 = MANIFOLD_SOLID_BREP ( 'Sweep1', #89 ) ;
#173 = PRODUCT ( 'Ôèêñàòîð êîíñîëè BBF_BBF5001HDZ', 'Ôèêñàòîð êîíñîëè BBF_BBF5001HDZ', '', ( #142 ) ) ;
#174 = PERSON ( 'UNSPECIFIED', 'UNSPECIFIED', 'UNSPECIFIED', ('UNSPECIFIED'), ('UNSPECIFIED'), ('UNSPECIFIED') ) ;
#175 = CC_DESIGN_APPROVAL ( #204, ( #199 ) ) ;
#176 = CC_DESIGN_DATE_AND_TIME_ASSIGNMENT ( #2, #136, ( #191 ) ) ;
#177 = CC_DESIGN_APPROVAL ( #192, ( #191 ) ) ;
#178 = EDGE_CURVE ( 'NONE', #10, #10, #15, .T. ) ;
#179 = CC_DESIGN_PERSON_AND_ORGANIZATION_ASSIGNMENT ( #42, #147, ( #194 ) ) ;
#180 = AXIS2_PLACEMENT_3D ( 'NONE', #118, #117, #103 ) ;
#181 = AXIS2_PLACEMENT_3D ( 'NONE', #140, #102, #148 ) ;
#182 = AXIS2_PLACEMENT_3D ( 'NONE', #157, #158, #159 ) ;
#183 = AXIS2_PLACEMENT_3D ( 'NONE', #130, #114, #115 ) ;
#184 = AXIS2_PLACEMENT_3D ( 'NONE', #128, #160, #129 ) ;
#185 = AXIS2_PLACEMENT_3D ( 'NONE', #149, #101, #100 ) ;
#186 = AXIS2_PLACEMENT_3D ( 'NONE', #156, #139, #137 ) ;
#187 = AXIS2_PLACEMENT_3D ( 'NONE', #124, #125, #126 ) ;
#188 = AXIS2_PLACEMENT_3D ( 'NONE', #155, #138, #165 ) ;
#189 = AXIS2_PLACEMENT_3D ( 'NONE', #116, #150, #152 ) ;
#190 = CC_DESIGN_PERSON_AND_ORGANIZATION_ASSIGNMENT ( #28, #143, ( #173 ) ) ;
#191 = SECURITY_CLASSIFICATION ( '', '', #135 ) ;
#192 = APPROVAL ( #107, 'UNSPECIFIED' ) ;
#193 = AXIS2_PLACEMENT_3D ( 'NONE', #127, #168, #113 ) ;
#194 = PRODUCT_DEFINITION ( 'UNKNOWN', '', #199, #215 ) ;
#195 = CC_DESIGN_APPROVAL ( #196, ( #194 ) ) ;
#196 = APPROVAL ( #98, 'UNSPECIFIED' ) ;
#197 = CC_DESIGN_PERSON_AND_ORGANIZATION_ASSIGNMENT ( #3, #134, ( #199 ) ) ;
#198 = CC_DESIGN_PERSON_AND_ORGANIZATION_ASSIGNMENT ( #30, #97, ( #199 ) ) ;
#199 = PRODUCT_DEFINITION_FORMATION_WITH_SPECIFIED_SOURCE ( 'ANY', '', #173, .NOT_KNOWN. ) ;
#200 = CC_DESIGN_PERSON_AND_ORGANIZATION_ASSIGNMENT ( #1, #169, ( #191 ) ) ;
#201 = CC_DESIGN_SECURITY_CLASSIFICATION ( #191, ( #199 ) ) ;
#202 = PRODUCT_RELATED_PRODUCT_CATEGORY ( 'detail', '', ( #173 ) ) ;
#203 = CC_DESIGN_DATE_AND_TIME_ASSIGNMENT ( #46, #131, ( #194 ) ) ;
#204 = APPROVAL ( #132, 'UNSPECIFIED' ) ;
#205 = EDGE_CURVE ( 'NONE', #49, #49, #9, .T. ) ;
#206 = EDGE_CURVE ( 'NONE', #53, #53, #55, .T. ) ;
#207 = EDGE_CURVE ( 'NONE', #24, #24, #56, .T. ) ;
#208 = EDGE_CURVE ( 'NONE', #25, #25, #52, .T. ) ;
#209 = EDGE_CURVE ( 'NONE', #26, #26, #54, .T. ) ;
#210 = AXIS2_PLACEMENT_3D ( 'NONE', #120, #121, #122 ) ;
#211 = AXIS2_PLACEMENT_3D ( 'NONE', #105, #106, #119 ) ;
#212 = AXIS2_PLACEMENT_3D ( 'NONE', #161, #162, #163 ) ;
#213 =( GEOMETRIC_REPRESENTATION_CONTEXT ( 3 ) GLOBAL_UNCERTAINTY_ASSIGNED_CONTEXT ( ( #171 ) ) GLOBAL_UNIT_ASSIGNED_CONTEXT ( ( #109, #110, #111 ) ) REPRESENTATION_CONTEXT ( 'NONE', 'WORKASPACE' ) );
#214 = PRODUCT_DEFINITION_SHAPE ( 'NONE', 'NONE',  #194 ) ;
#215 = DESIGN_CONTEXT ( 'detailed design', #144, 'design' ) ;
ENDSEC;
END-ISO-10303-21;
