  0
SECTION
  2
HEADER
  9
$ACADVER
  1
AC1015
  9
$ACADMAINTVER
 70
     6
  9
$DWGCODEPAGE
  3
ANSI_1251
  9
$INSBASE
 10
0.0
 20
0.0
 30
0.0
  9
$EXTMIN
 10
0.0
 20
0.0
 30
0.0
  9
$EXTMAX
 10
2000.0
 20
2000.0
 30
0.0
  9
$LIMMIN
 10
0.0
 20
0.0
  9
$LIMMAX
 10
2000.0
 20
2000.0
  9
$ORTHOMODE
 70
     0
  9
$REGENMODE
 70
     1
  9
$FILLMODE
 70
     1
  9
$QTEXTMODE
 70
     0
  9
$MIRRTEXT
 70
     1
  9
$LTSCALE
 40
1.0
  9
$ATTMODE
 70
     1
  9
$TEXTSIZE
 40
5.0
  9
$TRACEWID
 40
1.0
  9
$TEXTSTYLE
  7
Standard
  9
$CLAYER
  8
0
  9
$CELTYPE
  6
ByLayer
  9
$CECOLOR
 62
   256
  9
$CELTSCALE
 40
1.0
  9
$DISPSILH
 70
     0
  9
$DIMSCALE
 40
1.0
  9
$DIMASZ
 40
5.0
  9
$DIMEXO
 40
0.0
  9
$DIMDLI
 40
3.75
  9
$DIMRND
 40
0.0
  9
$DIMDLE
 40
0.0
  9
$DIMEXE
 40
1.0
  9
$DIMTP
 40
0.0
  9
$DIMTM
 40
0.0
  9
$DIMTXT
 40
3.5
  9
$DIMCEN
 40
2.5
  9
$DIMTSZ
 40
0.0
  9
$DIMTOL
 70
     0
  9
$DIMLIM
 70
     0
  9
$DIMTIH
 70
     1
  9
$DIMTOH
 70
     1
  9
$DIMSE1
 70
     0
  9
$DIMSE2
 70
     0
  9
$DIMTAD
 70
     1
  9
$DIMZIN
 70
     0
  9
$DIMBLK
  1

  9
$DIMASO
 70
     1
  9
$DIMSHO
 70
     1
  9
$DIMPOST
  1

  9
$DIMAPOST
  1

  9
$DIMALT
 70
     0
  9
$DIMALTD
 70
     3
  9
$DIMALTF
 40
0.0393700787
  9
$DIMLFAC
 40
1.0
  9
$DIMTOFL
 70
     1
  9
$DIMTVP
 40
0.0
  9
$DIMTIX
 70
     0
  9
$DIMSOXD
 70
     0
  9
$DIMSAH
 70
     0
  9
$DIMBLK1
  1

  9
$DIMBLK2
  1

  9
$DIMSTYLE
  2
ISO-25
  9
$DIMCLRD
 70
     0
  9
$DIMCLRE
 70
     0
  9
$DIMCLRT
 70
     0
  9
$DIMTFAC
 40
1.0
  9
$DIMGAP
 40
1.5
  9
$DIMJUST
 70
     0
  9
$DIMSD1
 70
     0
  9
$DIMSD2
 70
     0
  9
$DIMTOLJ
 70
     0
  9
$DIMTZIN
 70
     0
  9
$DIMALTZ
 70
     0
  9
$DIMALTTZ
 70
     0
  9
$DIMUPT
 70
     0
  9
$DIMDEC
 70
     1
  9
$DIMTDEC
 70
     1
  9
$DIMALTU
 70
     2
  9
$DIMALTTD
 70
     3
  9
$DIMTXSTY
  7
Standard
  9
$DIMAUNIT
 70
     0
  9
$DIMADEC
 70
     2
  9
$DIMALTRND
 40
0.0
  9
$DIMAZIN
 70
     0
  9
$DIMDSEP
 70
    44
  9
$DIMATFIT
 70
     3
  9
$DIMFRAC
 70
     0
  9
$DIMLDRBLK
  1

  9
$DIMLUNIT
 70
     2
  9
$DIMLWD
 70
    -2
  9
$DIMLWE
 70
    -2
  9
$DIMTMOVE
 70
     0
  9
$LUNITS
 70
     2
  9
$LUPREC
 70
     1
  9
$SKETCHINC
 40
1.0
  9
$FILLETRAD
 40
0.0
  9
$AUNITS
 70
     0
  9
$AUPREC
 70
     2
  9
$MENU
  1
.
  9
$ELEVATION
 40
0.0
  9
$PELEVATION
 40
0.0
  9
$THICKNESS
 40
0.0
  9
$LIMCHECK
 70
     0
  9
$CHAMFERA
 40
0.0
  9
$CHAMFERB
 40
0.0
  9
$CHAMFERC
 40
0.0
  9
$CHAMFERD
 40
0.0
  9
$SKPOLY
 70
     0
  9
$TDCREATE
 40
2460213.623511782
  9
$TDUCREATE
 40
2460213.498511782
  9
$TDUPDATE
 40
2460213.623512384
  9
$TDUUPDATE
 40
2460213.498512384
  9
$TDINDWG
 40
0.0000000116
  9
$TDUSRTIMER
 40
0.0000000116
  9
$USRTIMER
 70
     1
  9
$ANGBASE
 50
0.0
  9
$ANGDIR
 70
     0
  9
$PDMODE
 70
     0
  9
$PDSIZE
 40
-1.0
  9
$PLINEWID
 40
0.0
  9
$SPLFRAME
 70
     0
  9
$SPLINETYPE
 70
     6
  9
$SPLINESEGS
 70
     8
  9
$HANDSEED
  5
28D
  9
$SURFTAB1
 70
     6
  9
$SURFTAB2
 70
     6
  9
$SURFTYPE
 70
     6
  9
$SURFU
 70
     6
  9
$SURFV
 70
     6
  9
$UCSBASE
  2

  9
$UCSNAME
  2

  9
$UCSORG
 10
0.0
 20
0.0
 30
0.0
  9
$UCSXDIR
 10
1.0
 20
0.0
 30
0.0
  9
$UCSYDIR
 10
0.0
 20
1.0
 30
0.0
  9
$UCSORTHOREF
  2

  9
$UCSORTHOVIEW
 70
     0
  9
$UCSORGTOP
 10
0.0
 20
0.0
 30
0.0
  9
$UCSORGBOTTOM
 10
0.0
 20
0.0
 30
0.0
  9
$UCSORGLEFT
 10
0.0
 20
0.0
 30
0.0
  9
$UCSORGRIGHT
 10
0.0
 20
0.0
 30
0.0
  9
$UCSORGFRONT
 10
0.0
 20
0.0
 30
0.0
  9
$UCSORGBACK
 10
0.0
 20
0.0
 30
0.0
  9
$PUCSBASE
  2

  9
$PUCSNAME
  2

  9
$PUCSORG
 10
0.0
 20
0.0
 30
0.0
  9
$PUCSXDIR
 10
1.0
 20
0.0
 30
0.0
  9
$PUCSYDIR
 10
0.0
 20
1.0
 30
0.0
  9
$PUCSORTHOREF
  2

  9
$PUCSORTHOVIEW
 70
     0
  9
$PUCSORGTOP
 10
0.0
 20
0.0
 30
0.0
  9
$PUCSORGBOTTOM
 10
0.0
 20
0.0
 30
0.0
  9
$PUCSORGLEFT
 10
0.0
 20
0.0
 30
0.0
  9
$PUCSORGRIGHT
 10
0.0
 20
0.0
 30
0.0
  9
$PUCSORGFRONT
 10
0.0
 20
0.0
 30
0.0
  9
$PUCSORGBACK
 10
0.0
 20
0.0
 30
0.0
  9
$USERI1
 70
     0
  9
$USERI2
 70
     0
  9
$USERI3
 70
     0
  9
$USERI4
 70
     0
  9
$USERI5
 70
     0
  9
$USERR1
 40
0.0
  9
$USERR2
 40
0.0
  9
$USERR3
 40
0.0
  9
$USERR4
 40
0.0
  9
$USERR5
 40
0.0
  9
$WORLDVIEW
 70
     1
  9
$SHADEDGE
 70
     3
  9
$SHADEDIF
 70
    70
  9
$TILEMODE
 70
     1
  9
$MAXACTVP
 70
    64
  9
$PINSBASE
 10
0.0
 20
0.0
 30
0.0
  9
$PLIMCHECK
 70
     0
  9
$PEXTMIN
 10
1.0000000000E+20
 20
1.0000000000E+20
 30
1.0000000000E+20
  9
$PEXTMAX
 10
-1.0000000000E+20
 20
-1.0000000000E+20
 30
-1.0000000000E+20
  9
$PLIMMIN
 10
0.0
 20
0.0
  9
$PLIMMAX
 10
420.0
 20
297.0
  9
$UNITMODE
 70
     0
  9
$VISRETAIN
 70
     1
  9
$PLINEGEN
 70
     0
  9
$PSLTSCALE
 70
     1
  9
$TREEDEPTH
 70
  3020
  9
$CMLSTYLE
  2
Standard
  9
$CMLJUST
 70
     0
  9
$CMLSCALE
 40
20.0
  9
$PROXYGRAPHICS
 70
     1
  9
$MEASUREMENT
 70
     1
  9
$CELWEIGHT
370
    -1
  9
$ENDCAPS
280
     0
  9
$JOINSTYLE
280
     0
  9
$LWDISPLAY
290
     1
  9
$INSUNITS
 70
     4
  9
$HYPERLINKBASE
  1

  9
$STYLESHEET
  1

  9
$XEDIT
290
     1
  9
$CEPSNTYPE
380
     0
  9
$PSTYLEMODE
290
     1
  9
$FINGERPRINTGUID
  2
{af76ab74-95fc-4a81-9f16-4806747a08f4}
  9
$VERSIONGUID
  2
{FAEB1C32-E019-11D5-929B-00C0DF256EC4}
  9
$EXTNAMES
290
     1
  9
$PSVPSCALE
 40
0.0
  9
$OLESTARTUP
290
     0
  0
ENDSEC
  0
SECTION
  2
CLASSES
  0
CLASS
  1
ACDBDICTIONARYWDFLT
  2
AcDbDictionaryWithDefault
  3
ObjectDBX Classes
 90
        0
280
     0
281
     0
  0
CLASS
  1
VISUALSTYLE
  2
AcDbVisualStyle
  3
ObjectDBX Classes
 90
     4095
280
     0
281
     0
  0
CLASS
  1
MATERIAL
  2
AcDbMaterial
  3
ObjectDBX Classes
 90
     1153
280
     0
281
     0
  0
CLASS
  1
SCALE
  2
AcDbScale
  3
ObjectDBX Classes
 90
     1153
280
     0
281
     0
  0
CLASS
  1
TABLESTYLE
  2
AcDbTableStyle
  3
ObjectDBX Classes
 90
     4095
280
     0
281
     0
  0
CLASS
  1
MLEADERSTYLE
  2
AcDbMLeaderStyle
  3
ACDB_MLEADERSTYLE_CLASS
 90
     4095
280
     0
281
     0
  0
CLASS
  1
SUN
  2
AcDbSun
  3
SCENEOE
 90
     1153
280
     0
281
     0
  0
CLASS
  1
ACDBPLACEHOLDER
  2
AcDbPlaceHolder
  3
ObjectDBX Classes
 90
        0
280
     0
281
     0
  0
CLASS
  1
LAYOUT
  2
AcDbLayout
  3
ObjectDBX Classes
 90
        0
280
     0
281
     0
  0
ENDSEC
  0
SECTION
  2
TABLES
  0
TABLE
  2
VPORT
  5
8
330
0
100
AcDbSymbolTable
 70
     1
  0
VPORT
  5
29
330
8
100
AcDbSymbolTableRecord
100
AcDbViewportTableRecord
  2
*Active
 70
     0
 10
0.0
 20
0.0
 11
1.0
 21
1.0
 12
1000.0
 22
1000.0
 13
0.0
 23
0.0
 14
10.0
 24
10.0
 15
10.0
 25
10.0
 16
0.0
 26
0.0
 36
1.0
 17
0.0
 27
0.0
 37
0.0
 40
2000.0
 41
1.0
 42
50.0
 43
0.0
 44
0.0
 50
0.0
 51
0.0
 71
     0
 72
  2000
 73
     1
 74
     3
 75
     0
 76
     0
 77
     0
 78
     0
281
     0
 65
     1
110
0.0
120
0.0
130
0.0
111
1.0
121
0.0
131
0.0
112
0.0
122
1.0
132
0.0
 79
     0
146
0.0
  0
ENDTAB
  0
TABLE
  2
LTYPE
  5
5
330
0
100
AcDbSymbolTable
 70
     8
  0
LTYPE
  5
14
330
5
100
AcDbSymbolTableRecord
100
AcDbLinetypeTableRecord
  2
ByBlock
 70
     0
  3

 72
    65
 73
     0
 40
0.0
  0
LTYPE
  5
15
330
5
100
AcDbSymbolTableRecord
100
AcDbLinetypeTableRecord
  2
ByLayer
 70
     0
  3

 72
    65
 73
     0
 40
0.0
  0
LTYPE
  5
16
330
5
100
AcDbSymbolTableRecord
100
AcDbLinetypeTableRecord
  2
Continuous
 70
     0
  3
Solid line
 72
    65
 73
     0
 40
0.0
  0
LTYPE
  5
5E
330
5
100
AcDbSymbolTableRecord
100
AcDbLinetypeTableRecord
  2
SLD-Сплошная
 70
     0
  3
SolidWorks Line Style
 72
    65
 73
     0
 40
0.0
  0
LTYPE
  5
5F
330
5
100
AcDbSymbolTableRecord
100
AcDbLinetypeTableRecord
  2
SLD-Штриховая
 70
     0
  3
SolidWorks Line Style
 72
    65
 73
     2
 40
1.905
 49
1.27
 74
     0
 49
-0.635
 74
     0
  0
LTYPE
  5
60
330
5
100
AcDbSymbolTableRecord
100
AcDbLinetypeTableRecord
  2
SLD-Штрихпункт.-с-двумя-точками
 70
     0
  3
SolidWorks Line Style
 72
    65
 73
     6
 40
12.7
 49
6.35
 74
     0
 49
-1.27
 74
     0
 49
1.27
 74
     0
 49
-1.27
 74
     0
 49
1.27
 74
     0
 49
-1.27
 74
     0
  0
LTYPE
  5
61
330
5
100
AcDbSymbolTableRecord
100
AcDbLinetypeTableRecord
  2
SLD-Штрихпункт.-утолщ.
 70
     0
  3
SolidWorks Line Style
 72
    65
 73
     4
 40
10.16
 49
6.35
 74
     0
 49
-1.27
 74
     0
 49
1.27
 74
     0
 49
-1.27
 74
     0
  0
LTYPE
  5
62
330
5
100
AcDbSymbolTableRecord
100
AcDbLinetypeTableRecord
  2
SLD-Осевая
 70
     0
  3
SolidWorks Line Style
 72
    65
 73
     4
 40
19.05
 49
15.24
 74
     0
 49
-1.27
 74
     0
 49
1.27
 74
     0
 49
-1.27
 74
     0
  0
LTYPE
  5
63
330
5
100
AcDbSymbolTableRecord
100
AcDbLinetypeTableRecord
  2
SLD-Сшитая
 70
     0
  3
SolidWorks Line Style
 72
    65
 73
     2
 40
0.635
 49
0.0
 74
     0
 49
-0.635
 74
     0
  0
LTYPE
  5
64
330
5
100
AcDbSymbolTableRecord
100
AcDbLinetypeTableRecord
  2
SLD-Тонкая-Толстая
 70
     0
  3
SolidWorks Line Style
 72
    65
 73
     2
 40
5.080508
 49
0.000508
 74
     0
 49
-5.08
 74
     0
  0
ENDTAB
  0
TABLE
  2
LAYER
  5
2
330
0
100
AcDbSymbolTable
 70
     3
  0
LAYER
  5
10
330
2
100
AcDbSymbolTableRecord
100
AcDbLayerTableRecord
  2
0
 70
     0
 62
     7
  6
Continuous
370
    -3
390
F
  0
LAYER
  5
65
330
2
100
AcDbSymbolTableRecord
100
AcDbLayerTableRecord
  2
1
 70
     0
 62
     7
  6
SLD-Сплошная
370
    -1
390
F
  0
LAYER
  5
66
330
2
100
AcDbSymbolTableRecord
100
AcDbLayerTableRecord
  2
2
 70
     0
 62
     7
  6
SLD-Сплошная
370
    -3
390
F
  0
ENDTAB
  0
TABLE
  2
STYLE
  5
3
330
0
100
AcDbSymbolTable
 70
     1
  0
STYLE
  5
11
330
3
100
AcDbSymbolTableRecord
100
AcDbTextStyleTableRecord
  2
Standard
 70
     0
 40
0.0
 41
1.0
 50
0.0
 71
     0
 42
5.0
  3
txt
  4

  0
ENDTAB
  0
TABLE
  2
VIEW
  5
6
330
0
100
AcDbSymbolTable
 70
     0
  0
ENDTAB
  0
TABLE
  2
UCS
  5
7
330
0
100
AcDbSymbolTable
 70
     0
  0
ENDTAB
  0
TABLE
  2
APPID
  5
9
330
0
100
AcDbSymbolTable
 70
     1
  0
APPID
  5
12
330
9
100
AcDbSymbolTableRecord
100
AcDbRegAppTableRecord
  2
ACAD
 70
     0
  0
ENDTAB
  0
TABLE
  2
DIMSTYLE
  5
A
330
0
100
AcDbSymbolTable
 70
     1
100
AcDbDimStyleTable
  0
DIMSTYLE
105
27
330
A
100
AcDbSymbolTableRecord
100
AcDbDimStyleTableRecord
  2
ISO-25
 70
     0
 41
2.5
 42
0.625
 43
3.75
 44
1.25
 73
     0
 74
     0
 77
     1
 78
     8
140
2.5
141
2.5
143
0.0393700787
147
0.625
171
     3
172
     1
178
     0
271
     2
272
     2
274
     3
278
    44
283
     0
284
     8
340
11
  0
ENDTAB
  0
TABLE
  2
BLOCK_RECORD
  5
1
330
0
100
AcDbSymbolTable
 70
     1
  0
BLOCK_RECORD
  5
1F
330
1
100
AcDbSymbolTableRecord
100
AcDbBlockTableRecord
  2
*Model_Space
340
22
  0
BLOCK_RECORD
  5
1B
330
1
100
AcDbSymbolTableRecord
100
AcDbBlockTableRecord
  2
*Paper_Space
340
1E
  0
BLOCK_RECORD
  5
23
330
1
100
AcDbSymbolTableRecord
100
AcDbBlockTableRecord
  2
*Paper_Space0
340
26
  0
ENDTAB
  0
ENDSEC
  0
SECTION
  2
BLOCKS
  0
BLOCK
  5
20
330
1F
100
AcDbEntity
  8
0
100
AcDbBlockBegin
  2
*Model_Space
 70
     0
 10
0.0
 20
0.0
 30
0.0
  3
*Model_Space
  1

  0
ENDBLK
  5
21
330
1F
100
AcDbEntity
  8
0
100
AcDbBlockEnd
  0
BLOCK
  5
1C
330
1B
100
AcDbEntity
 67
     1
  8
0
100
AcDbBlockBegin
  2
*Paper_Space
 70
     0
 10
0.0
 20
0.0
 30
0.0
  3
*Paper_Space
  1

  0
ENDBLK
  5
1D
330
1B
100
AcDbEntity
 67
     1
  8
0
100
AcDbBlockEnd
  0
BLOCK
  5
24
330
23
100
AcDbEntity
  8
0
100
AcDbBlockBegin
  2
*Paper_Space0
 70
     0
 10
0.0
 20
0.0
 30
0.0
  3
*Paper_Space0
  1

  0
ENDBLK
  5
25
330
23
100
AcDbEntity
  8
0
100
AcDbBlockEnd
  0
ENDSEC
  0
SECTION
  2
ENTITIES
  0
LINE
  5
67
330
1F
100
AcDbEntity
  8
1
  6
SLD-Сплошная
100
AcDbLine
 10
918.6054271659
 20
518.2292289255
 30
0.0
 11
918.6054271659
 21
517.0234668679
 31
0.0
  0
LINE
  5
68
330
1F
100
AcDbEntity
  8
1
  6
SLD-Сплошная
100
AcDbLine
 10
935.2054271659
 20
517.0234668679
 30
0.0
 11
935.2054271659
 21
518.2292289255
 31
0.0
  0
ARC
  5
69
330
1F
100
AcDbEntity
  8
1
  6
SLD-Сплошная
100
AcDbCircle
 10
919.6054271659
 20
517.0234668679
 30
0.0
 40
1.000000000000114
100
AcDbArc
 50
180.0
 51
257.5813184942
  0
ARC
  5
6A
330
1F
100
AcDbEntity
  8
1
  6
SLD-Сплошная
100
AcDbCircle
 10
934.2054271659
 20
517.0234668679
 30
0.0
 40
1.0
100
AcDbArc
 50
282.4186815058
 51
0.0
  0
ARC
  5
6B
330
1F
100
AcDbEntity
  8
1
  6
SLD-Сплошная
100
AcDbCircle
 10
926.9054271659
 20
550.1742289255
 30
0.0
 40
34.94500000000001
100
AcDbArc
 50
270.0104111827
 51
282.4186815058
  0
ARC
  5
6C
330
1F
100
AcDbEntity
  8
1
  6
SLD-Сплошная
100
AcDbCircle
 10
926.9054271659
 20
550.1742289255
 30
0.0
 40
34.94500000000001
100
AcDbArc
 50
257.5813184942
 51
270.0104111827
  0
CIRCLE
  5
6D
330
1F
100
AcDbEntity
  8
1
  6
SLD-Сплошная
100
AcDbCircle
 10
699.1054271659
 20
668.2292289255
 30
0.0
 40
14.0
  0
CIRCLE
  5
6E
330
1F
100
AcDbEntity
  8
1
  6
SLD-Сплошная
100
AcDbCircle
 10
699.1054271659
 20
668.2292289255
 30
0.0
 40
11.0
  0
CIRCLE
  5
6F
330
1F
100
AcDbEntity
  8
1
  6
SLD-Сплошная
100
AcDbCircle
 10
699.1054271659
 20
668.2292289255
 30
0.0
 40
7.999999999999886
  0
ARC
  5
70
330
1F
100
AcDbEntity
  8
1
  6
SLD-Сплошная
100
AcDbCircle
 10
700.9921785119
 20
664.9612797331
 30
0.0
 40
1.00000000000004
100
AcDbArc
 50
240.0
 51
0.0
  0
LINE
  5
71
330
1F
100
AcDbEntity
  8
1
  6
SLD-Сплошная
100
AcDbLine
 10
694.831924474
 20
667.3632035217
 30
0.0
 11
700.4921785119
 21
664.0952543293
 31
0.0
  0
ARC
  5
72
330
1F
100
AcDbEntity
  8
1
  6
SLD-Сплошная
100
AcDbCircle
 10
695.331924474
 20
668.2292289255
 30
0.0
 40
1.000000000000082
100
AcDbArc
 50
120.0
 51
240.0
  0
LINE
  5
73
330
1F
100
AcDbEntity
  8
1
  6
SLD-Сплошная
100
AcDbLine
 10
700.4921785119
 20
672.3632035217
 30
0.0
 11
694.831924474
 21
669.0952543293
 31
0.0
  0
ARC
  5
74
330
1F
100
AcDbEntity
  8
1
  6
SLD-Сплошная
100
AcDbCircle
 10
700.9921785119
 20
671.497178118
 30
0.0
 40
1.0
100
AcDbArc
 50
0.0
 51
120.0
  0
LINE
  5
75
330
1F
100
AcDbEntity
  8
1
  6
SLD-Сплошная
100
AcDbLine
 10
701.9921785119
 20
664.9612797331
 30
0.0
 11
701.9921785119
 21
671.497178118
 31
0.0
  0
LINE
  5
76
330
1F
100
AcDbEntity
  8
1
  6
SLD-Сплошная
100
AcDbLine
 10
644.1054271659
 20
815.446386213
 30
0.0
 11
646.8054271659
 21
814.0292289256
 31
0.0
  0
LINE
  5
77
330
1F
100
AcDbEntity
  8
1
  6
SLD-Сплошная
100
AcDbLine
 10
644.1054271659
 20
521.0120716381
 30
0.0
 11
646.8054271659
 21
522.4292289255
 31
0.0
  0
LINE
  5
78
330
1F
100
AcDbEntity
  8
1
  6
SLD-Сплошная
100
AcDbLine
 10
644.1054271659
 20
815.446386213
 30
0.0
 11
644.1054271659
 21
521.0120716381
 31
0.0
  0
CIRCLE
  5
79
330
1F
100
AcDbEntity
  8
1
  6
SLD-Сплошная
100
AcDbCircle
 10
879.1054271659
 20
559.7292289255
 30
0.0
 40
0.5
  0
CIRCLE
  5
7A
330
1F
100
AcDbEntity
  8
1
  6
SLD-Сплошная
100
AcDbCircle
 10
879.1054271659
 20
776.7292289255
 30
0.0
 40
0.4999999999998863
  0
CIRCLE
  5
7B
330
1F
100
AcDbEntity
  8
1
  6
SLD-Сплошная
100
AcDbCircle
 10
699.1054271659
 20
756.7292289255
 30
0.0
 40
0.5
  0
CIRCLE
  5
7C
330
1F
100
AcDbEntity
  8
1
  6
SLD-Сплошная
100
AcDbCircle
 10
699.1054271659
 20
579.7292289255
 30
0.0
 40
0.5000000000001137
  0
LINE
  5
7D
330
1F
100
AcDbEntity
  8
1
  6
SLD-Сплошная
100
AcDbLine
 10
644.1054271659
 20
815.446386213
 30
0.0
 11
645.1054271659
 21
815.446386213
 31
0.0
  0
LINE
  5
7E
330
1F
100
AcDbEntity
  8
1
  6
SLD-Сплошная
100
AcDbLine
 10
645.1054271659
 20
815.446386213
 30
0.0
 11
646.8054271659
 21
814.0292289255
 31
0.0
  0
LINE
  5
7F
330
1F
100
AcDbEntity
  8
1
  6
SLD-Сплошная
100
AcDbLine
 10
646.8054271659
 20
814.0292289256
 30
0.0
 11
645.3882698785
 21
816.7292289255
 31
0.0
  0
LINE
  5
80
330
1F
100
AcDbEntity
  8
1
  6
SLD-Сплошная
100
AcDbLine
 10
646.8054271659
 20
814.0292289255
 30
0.0
 11
645.3882698785
 21
815.7292289255
 31
0.0
  0
LINE
  5
81
330
1F
100
AcDbEntity
  8
1
  6
SLD-Сплошная
100
AcDbLine
 10
645.3882698785
 20
816.7292289255
 30
0.0
 11
645.3882698785
 21
815.7292289255
 31
0.0
  0
LINE
  5
82
330
1F
100
AcDbEntity
  8
1
  6
SLD-Сплошная
100
AcDbLine
 10
645.3882698785
 20
816.7292289255
 30
0.0
 11
937.8225844533
 21
816.7292289255
 31
0.0
  0
LINE
  5
83
330
1F
100
AcDbEntity
  8
1
  6
SLD-Сплошная
100
AcDbLine
 10
936.4054271659
 20
814.0292289256
 30
0.0
 11
937.8225844533
 21
816.7292289255
 31
0.0
  0
LINE
  5
84
330
1F
100
AcDbEntity
  8
1
  6
SLD-Сплошная
100
AcDbLine
 10
645.1054271659
 20
521.0120716381
 30
0.0
 11
646.805427166
 21
522.4292289255
 31
0.0
  0
LINE
  5
85
330
1F
100
AcDbEntity
  8
1
  6
SLD-Сплошная
100
AcDbLine
 10
644.1054271659
 20
521.0120716381
 30
0.0
 11
645.1054271659
 21
521.0120716381
 31
0.0
  0
LINE
  5
86
330
1F
100
AcDbEntity
  8
1
  6
SLD-Сплошная
100
AcDbLine
 10
645.3882698786
 20
519.7292289255
 30
0.0
 11
937.8225844533
 21
519.7292289255
 31
0.0
  0
LINE
  5
87
330
1F
100
AcDbEntity
  8
1
  6
SLD-Сплошная
100
AcDbLine
 10
646.8054271659
 20
522.4292289255
 30
0.0
 11
645.3882698786
 21
519.7292289255
 31
0.0
  0
LINE
  5
88
330
1F
100
AcDbEntity
  8
1
  6
SLD-Сплошная
100
AcDbLine
 10
936.405427166
 20
522.4292289255
 30
0.0
 11
937.8225844533
 21
519.7292289255
 31
0.0
  0
LINE
  5
89
330
1F
100
AcDbEntity
  8
1
  6
SLD-Сплошная
100
AcDbLine
 10
646.8054271659
 20
522.4292289255
 30
0.0
 11
645.3882698786
 21
520.7292289255
 31
0.0
  0
LINE
  5
8A
330
1F
100
AcDbEntity
  8
1
  6
SLD-Сплошная
100
AcDbLine
 10
645.3882698786
 20
519.7292289255
 30
0.0
 11
645.3882698786
 21
520.7292289255
 31
0.0
  0
LINE
  5
8B
330
1F
100
AcDbEntity
  8
1
  6
SLD-Сплошная
100
AcDbLine
 10
938.1054271659
 20
815.446386213
 30
0.0
 11
936.4054271659
 21
814.0292289256
 31
0.0
  0
LINE
  5
8C
330
1F
100
AcDbEntity
  8
1
  6
SLD-Сплошная
100
AcDbLine
 10
939.1054271659
 20
815.446386213
 30
0.0
 11
938.1054271659
 21
815.446386213
 31
0.0
  0
LINE
  5
8D
330
1F
100
AcDbEntity
  8
1
  6
SLD-Сплошная
100
AcDbLine
 10
939.1054271659
 20
815.446386213
 30
0.0
 11
936.4054271659
 21
814.0292289256
 31
0.0
  0
LINE
  5
8E
330
1F
100
AcDbEntity
  8
1
  6
SLD-Сплошная
100
AcDbLine
 10
936.4054271659
 20
814.0292289255
 30
0.0
 11
937.8225844533
 21
815.7292289255
 31
0.0
  0
LINE
  5
8F
330
1F
100
AcDbEntity
  8
1
  6
SLD-Сплошная
100
AcDbLine
 10
937.8225844533
 20
816.7292289255
 30
0.0
 11
937.8225844533
 21
815.7292289255
 31
0.0
  0
LINE
  5
90
330
1F
100
AcDbEntity
  8
1
  6
SLD-Сплошная
100
AcDbLine
 10
939.1054271659
 20
815.446386213
 30
0.0
 11
939.105427166
 21
521.0120716381
 31
0.0
  0
LINE
  5
91
330
1F
100
AcDbEntity
  8
1
  6
SLD-Сплошная
100
AcDbLine
 10
939.105427166
 20
521.0120716381
 30
0.0
 11
936.405427166
 21
522.4292289255
 31
0.0
  0
LINE
  5
92
330
1F
100
AcDbEntity
  8
1
  6
SLD-Сплошная
100
AcDbLine
 10
939.105427166
 20
521.0120716381
 30
0.0
 11
938.105427166
 21
521.0120716381
 31
0.0
  0
LINE
  5
93
330
1F
100
AcDbEntity
  8
1
  6
SLD-Сплошная
100
AcDbLine
 10
938.105427166
 20
521.0120716381
 30
0.0
 11
936.4054271659
 21
522.4292289255
 31
0.0
  0
LINE
  5
94
330
1F
100
AcDbEntity
  8
1
  6
SLD-Сплошная
100
AcDbLine
 10
936.4054271659
 20
522.4292289255
 30
0.0
 11
937.8225844533
 21
520.7292289255
 31
0.0
  0
LINE
  5
95
330
1F
100
AcDbEntity
  8
1
  6
SLD-Сплошная
100
AcDbLine
 10
937.8225844533
 20
519.7292289255
 30
0.0
 11
937.8225844533
 21
520.7292289255
 31
0.0
  0
LINE
  5
96
330
1F
100
AcDbEntity
  8
1
  6
SLD-Сплошная
100
AcDbLine
 10
644.6175592004
 20
521.0120716381
 30
0.0
 11
643.9054271659
 21
520.2999396036
 31
0.0
  0
LINE
  5
97
330
1F
100
AcDbEntity
  8
1
  6
SLD-Сплошная
100
AcDbLine
 10
644.6175592004
 20
815.446386213
 30
0.0
 11
643.9054271659
 21
816.1585182474
 31
0.0
  0
LINE
  5
98
330
1F
100
AcDbEntity
  8
1
  6
SLD-Сплошная
100
AcDbLine
 10
939.9054271659
 20
520.2999396036
 30
0.0
 11
939.105427166
 21
521.0999396036
 31
0.0
  0
LINE
  5
99
330
1F
100
AcDbEntity
  8
1
  6
SLD-Сплошная
100
AcDbLine
 10
939.9054271659
 20
816.1585182474
 30
0.0
 11
939.1054271659
 21
815.3585182474
 31
0.0
  0
LINE
  5
9A
330
1F
100
AcDbEntity
  8
1
  6
SLD-Сплошная
100
AcDbLine
 10
939.0518737753
 20
521.0120716381
 30
0.0
 11
939.8347164878
 21
520.2292289255
 31
0.0
  0
LINE
  5
9B
330
1F
100
AcDbEntity
  8
1
  6
SLD-Сплошная
100
AcDbLine
 10
643.9761378441
 20
520.2292289255
 30
0.0
 11
644.7589805566
 21
521.0120716381
 31
0.0
  0
LINE
  5
9C
330
1F
100
AcDbEntity
  8
1
  6
SLD-Сплошная
100
AcDbLine
 10
939.0518737753
 20
815.446386213
 30
0.0
 11
939.8347164878
 21
816.2292289255
 31
0.0
  0
LINE
  5
9D
330
1F
100
AcDbEntity
  8
1
  6
SLD-Сплошная
100
AcDbLine
 10
643.9761378441
 20
816.2292289255
 30
0.0
 11
644.7589805566
 21
815.446386213
 31
0.0
  0
ELLIPSE
  5
9E
330
1F
100
AcDbEntity
  8
1
  6
SLD-Сплошная
100
AcDbEllipse
 10
643.9054271659
 20
816.2292289255
 30
0.0
 11
0.0
 21
1.0
 31
0.0
210
0.0
220
0.0
230
1.0
 40
0.0707106781
 41
4.712388980384691
 42
6.283185307179586
  0
LINE
  5
9F
330
1F
100
AcDbEntity
  8
1
  6
SLD-Сплошная
100
AcDbLine
 10
643.9054271659
 20
818.2292289255
 30
0.0
 11
643.9054271659
 21
817.2292289255
 31
0.0
  0
ELLIPSE
  5
A0
330
1F
100
AcDbEntity
  8
1
  6
SLD-Сплошная
100
AcDbEllipse
 10
643.9054271659
 20
816.2292289255
 30
0.0
 11
0.0
 21
2.0
 31
0.0
210
0.0
220
0.0
230
1.0
 40
0.0353553391
 41
4.712388980384747
 42
6.283185307179586
  0
ELLIPSE
  5
A1
330
1F
100
AcDbEntity
  8
1
  6
SLD-Сплошная
100
AcDbEllipse
 10
939.9054271659
 20
520.2292289255
 30
0.0
 11
2.0
 21
0.0
 31
0.0
210
0.0
220
0.0
230
1.0
 40
0.035355339
 41
0.0
 42
1.570796326794897
  0
LINE
  5
A2
330
1F
100
AcDbEntity
  8
1
  6
SLD-Сплошная
100
AcDbLine
 10
941.9054271659
 20
520.2292289255
 30
0.0
 11
940.9054271659
 21
520.2292289255
 31
0.0
  0
ELLIPSE
  5
A3
330
1F
100
AcDbEntity
  8
1
  6
SLD-Сплошная
100
AcDbEllipse
 10
939.9054271659
 20
520.2292289255
 30
0.0
 11
0.9999999999998863
 21
0.0
 31
0.0
210
0.0
220
0.0
230
1.0
 40
0.0707106781
 41
0.0
 42
1.570796326794897
  0
ELLIPSE
  5
A4
330
1F
100
AcDbEntity
  8
1
  6
SLD-Сплошная
100
AcDbEllipse
 10
643.9054271659
 20
816.2292289255
 30
0.0
 11
1.0
 21
0.0
 31
0.0
210
0.0
220
0.0
230
1.0
 40
0.0707106781
 41
3.141592653589791
 42
4.712388980384691
  0
ELLIPSE
  5
A5
330
1F
100
AcDbEntity
  8
1
  6
SLD-Сплошная
100
AcDbEllipse
 10
643.9054271659
 20
816.2292289255
 30
0.0
 11
2.0
 21
0.0
 31
0.0
210
0.0
220
0.0
230
1.0
 40
0.0353553391
 41
3.141592653588182
 42
4.712388980384633
  0
LINE
  5
A6
330
1F
100
AcDbEntity
  8
1
  6
SLD-Сплошная
100
AcDbLine
 10
642.9054271659
 20
816.2292289255
 30
0.0
 11
641.9054271659
 21
816.2292289255
 31
0.0
  0
ELLIPSE
  5
A7
330
1F
100
AcDbEntity
  8
1
  6
SLD-Сплошная
100
AcDbEllipse
 10
939.9054271659
 20
520.2292289255
 30
0.0
 11
0.0
 21
2.0
 31
0.0
210
0.0
220
0.0
230
1.0
 40
0.0353553391
 41
1.570796326794953
 42
3.14159265364164
  0
ELLIPSE
  5
A8
330
1F
100
AcDbEntity
  8
1
  6
SLD-Сплошная
100
AcDbEllipse
 10
939.9054271659
 20
520.2292289255
 30
0.0
 11
0.0
 21
1.0
 31
0.0
210
0.0
220
0.0
230
1.0
 40
0.0707106781
 41
1.570796326794897
 42
3.141592653639833
  0
LINE
  5
A9
330
1F
100
AcDbEntity
  8
1
  6
SLD-Сплошная
100
AcDbLine
 10
939.9054271659
 20
519.2292289255
 30
0.0
 11
939.9054271659
 21
518.2292289255
 31
0.0
  0
LINE
  5
AA
330
1F
100
AcDbEntity
  8
1
  6
SLD-Сплошная
100
AcDbLine
 10
643.9054271659
 20
818.2292289255
 30
0.0
 11
939.9054271659
 21
818.2292289255
 31
0.0
  0
ELLIPSE
  5
AB
330
1F
100
AcDbEntity
  8
1
  6
SLD-Сплошная
100
AcDbEllipse
 10
939.9054271659
 20
816.2292289255
 30
0.0
 11
0.0
 21
2.0
 31
0.0
210
0.0
220
0.0
230
1.0
 40
0.0353553391
 41
0.0
 42
1.570796326794897
  0
ELLIPSE
  5
AC
330
1F
100
AcDbEntity
  8
1
  6
SLD-Сплошная
100
AcDbEllipse
 10
643.9054271659
 20
520.2292289255
 30
0.0
 11
2.0
 21
1.136868377216160E-13
 31
0.0
210
0.0
220
0.0
230
1.0
 40
0.0353553391
 41
1.570796326794951
 42
3.141592653588182
  0
LINE
  5
AD
330
1F
100
AcDbEntity
  8
1
  6
SLD-Сплошная
100
AcDbLine
 10
641.9054271659
 20
520.2292289255
 30
0.0
 11
641.9054271659
 21
816.2292289255
 31
0.0
  0
LINE
  5
AE
330
1F
100
AcDbEntity
  8
1
  6
SLD-Сплошная
100
AcDbLine
 10
941.9054271659
 20
816.2292289255
 30
0.0
 11
941.9054271659
 21
520.2292289255
 31
0.0
  0
ELLIPSE
  5
AF
330
1F
100
AcDbEntity
  8
1
  6
SLD-Сплошная
100
AcDbEllipse
 10
939.9054271659
 20
816.2292289255
 30
0.0
 11
2.0
 21
0.0
 31
0.0
210
0.0
220
0.0
230
1.0
 40
0.035355339
 41
4.71238898038469
 42
6.283185307179586
  0
ELLIPSE
  5
B0
330
1F
100
AcDbEntity
  8
1
  6
SLD-Сплошная
100
AcDbEllipse
 10
643.9054271659
 20
520.2292289255
 30
0.0
 11
-1.136868377216160E-13
 21
2.0
 31
0.0
210
0.0
220
0.0
230
1.0
 40
0.0353553391
 41
3.141592653580143
 42
4.712388980384631
  0
LINE
  5
B1
330
1F
100
AcDbEntity
  8
1
  6
SLD-Сплошная
100
AcDbLine
 10
643.9054271659
 20
518.2292289255
 30
0.0
 11
643.9054271659
 21
518.5588996167
 31
0.0
  0
LINE
  5
B2
330
1F
100
AcDbEntity
  8
1
  6
SLD-Сплошная
100
AcDbLine
 10
643.9054271659
 20
518.5588996167
 30
0.0
 11
643.9054271659
 21
519.2292289255
 31
0.0
  0
ELLIPSE
  5
B3
330
1F
100
AcDbEntity
  8
1
  6
SLD-Сплошная
100
AcDbEllipse
 10
643.9054271659
 20
520.2292289255
 30
0.0
 11
0.0
 21
1.0
 31
0.0
210
0.0
220
0.0
230
1.0
 40
0.0707106781
 41
3.141592653581752
 42
4.712388980384691
  0
ELLIPSE
  5
B4
330
1F
100
AcDbEntity
  8
1
  6
SLD-Сплошная
100
AcDbEllipse
 10
643.9054271659
 20
520.2292289255
 30
0.0
 11
1.0
 21
0.0
 31
0.0
210
0.0
220
0.0
230
1.0
 40
0.0707106781
 41
1.570796326794897
 42
3.141592653589791
  0
LINE
  5
B5
330
1F
100
AcDbEntity
  8
1
  6
SLD-Сплошная
100
AcDbLine
 10
642.9054271659
 20
520.2292289255
 30
0.0
 11
641.9054271659
 21
520.2292289255
 31
0.0
  0
ELLIPSE
  5
B6
330
1F
100
AcDbEntity
  8
1
  6
SLD-Сплошная
100
AcDbEllipse
 10
939.9054271659
 20
816.2292289255
 30
0.0
 11
0.0
 21
1.0
 31
0.0
210
0.0
220
0.0
230
1.0
 40
0.0707106781
 41
0.0
 42
1.570796326794897
  0
LINE
  5
B7
330
1F
100
AcDbEntity
  8
1
  6
SLD-Сплошная
100
AcDbLine
 10
939.9054271659
 20
817.2292289255
 30
0.0
 11
939.9054271659
 21
818.2292289255
 31
0.0
  0
ELLIPSE
  5
B8
330
1F
100
AcDbEntity
  8
1
  6
SLD-Сплошная
100
AcDbEllipse
 10
939.9054271659
 20
816.2292289255
 30
0.0
 11
0.9999999999998863
 21
0.0
 31
0.0
210
0.0
220
0.0
230
1.0
 40
0.0707106781
 41
4.712388980384691
 42
6.283185307179586
  0
LINE
  5
B9
330
1F
100
AcDbEntity
  8
1
  6
SLD-Сплошная
100
AcDbLine
 10
941.9054271659
 20
816.2292289255
 30
0.0
 11
940.9054271659
 21
816.2292289255
 31
0.0
  0
LINE
  5
BA
330
1F
100
AcDbEntity
  8
1
  6
SLD-Сплошная
100
AcDbLine
 10
645.0054271659
 20
518.2292289255
 30
0.0
 11
939.9054271659
 21
518.2292289255
 31
0.0
  0
LINE
  5
BB
330
1F
100
AcDbEntity
  8
1
  6
SLD-Сплошная
100
AcDbLine
 10
643.9054271659
 20
518.2292289255
 30
0.0
 11
645.0054271659
 21
518.2292289255
 31
0.0
  0
LINE
  5
BC
330
1F
100
AcDbEntity
  8
1
  6
SLD-Сплошная
100
AcDbLine
 10
643.0054271659
 20
520.2292289255
 30
0.0
 11
643.0054271659
 21
520.2600509955
 31
0.0
  0
LINE
  5
BD
330
1F
100
AcDbEntity
  8
1
  6
SLD-Сплошная
100
AcDbLine
 10
644.0054271659
 20
520.2585182474
 30
0.0
 11
644.0054271659
 21
520.3999396036
 31
0.0
  0
ARC
  5
BE
330
1F
100
AcDbEntity
  8
1
  6
SLD-Сплошная
100
AcDbCircle
 10
645.0054271659
 20
520.2292289255
 30
0.0
 40
2.000000000000083
100
AcDbArc
 50
180.0
 51
236.6329870308
  0
ARC
  5
BF
330
1F
100
AcDbEntity
  8
1
  6
SLD-Сплошная
100
AcDbCircle
 10
643.9054271659
 20
816.2292289255
 30
0.0
 40
1.000000000004093
100
AcDbArc
 50
90.0
 51
180.0
  0
ARC
  5
C0
330
1F
100
AcDbEntity
  8
1
  6
SLD-Сплошная
100
AcDbCircle
 10
643.9054271659
 20
816.2292289255
 30
0.0
 40
2.000000000004093
100
AcDbArc
 50
90.0
 51
180.0
  0
ARC
  5
C1
330
1F
100
AcDbEntity
  8
1
  6
SLD-Сплошная
100
AcDbCircle
 10
939.9054271659
 20
520.2292289255
 30
0.0
 40
1.0
100
AcDbArc
 50
270.0
 51
0.0
  0
ARC
  5
C2
330
1F
100
AcDbEntity
  8
1
  6
SLD-Сплошная
100
AcDbCircle
 10
939.9054271659
 20
520.2292289255
 30
0.0
 40
2.0
100
AcDbArc
 50
270.0
 51
0.0
  0
ARC
  5
C3
330
1F
100
AcDbEntity
  8
1
  6
SLD-Сплошная
100
AcDbCircle
 10
939.9054271659
 20
816.2292289255
 30
0.0
 40
2.0
100
AcDbArc
 50
0.0
 51
90.0
  0
ARC
  5
C4
330
1F
100
AcDbEntity
  8
1
  6
SLD-Сплошная
100
AcDbCircle
 10
939.9054271659
 20
816.2292289255
 30
0.0
 40
1.0
100
AcDbArc
 50
0.0
 51
90.0
  0
LINE
  5
C5
330
1F
100
AcDbEntity
  8
1
  6
SLD-Сплошная
100
AcDbLine
 10
643.0054271659
 20
520.2292289255
 30
0.0
 11
642.9054271659
 21
520.2292289255
 31
0.0
  0
LINE
  5
C6
330
1F
100
AcDbEntity
  8
1
  6
SLD-Сплошная
100
AcDbLine
 10
643.8347164878
 20
816.2292289255
 30
0.0
 11
642.9054271659
 21
816.2292289255
 31
0.0
  0
LINE
  5
C7
330
1F
100
AcDbEntity
  8
1
  6
SLD-Сплошная
100
AcDbLine
 10
940.9054271659
 20
520.2292289255
 30
0.0
 11
939.9761378441
 21
520.2292289255
 31
0.0
  0
LINE
  5
C8
330
1F
100
AcDbEntity
  8
1
  6
SLD-Сплошная
100
AcDbLine
 10
940.9054271659
 20
816.2292289255
 30
0.0
 11
939.9761378441
 21
816.2292289255
 31
0.0
  0
LINE
  5
C9
330
1F
100
AcDbEntity
  8
1
  6
SLD-Сплошная
100
AcDbLine
 10
939.9054271659
 20
816.2999396036
 30
0.0
 11
939.9054271659
 21
817.2292289255
 31
0.0
  0
LINE
  5
CA
330
1F
100
AcDbEntity
  8
1
  6
SLD-Сплошная
100
AcDbLine
 10
643.9054271659
 20
817.2292289255
 30
0.0
 11
643.9054271659
 21
816.2999396037
 31
0.0
  0
LINE
  5
CB
330
1F
100
AcDbEntity
  8
1
  6
SLD-Сплошная
100
AcDbLine
 10
939.9054271659
 20
520.1585182475
 30
0.0
 11
939.9054271659
 21
519.2292289255
 31
0.0
  0
ARC
  5
CC
330
1F
100
AcDbEntity
  8
1
  6
SLD-Сплошная
100
AcDbCircle
 10
1509.8211909364
 20
593.3792289255
 30
0.0
 40
0.1999999999999514
100
AcDbArc
 50
270.0
 51
338.1849373759
  0
ARC
  5
CD
330
1F
100
AcDbEntity
  8
1
  6
SLD-Сплошная
100
AcDbCircle
 10
1509.8211909364
 20
603.0792289255
 30
0.0
 40
0.2000000000001592
100
AcDbArc
 50
21.8150626241
 51
90.0
  0
LINE
  5
CE
330
1F
100
AcDbEntity
  8
1
  6
SLD-Сплошная
100
AcDbLine
 10
1508.6558148977
 20
593.1792289255
 30
0.0
 11
1509.8211909364
 21
593.1792289255
 31
0.0
  0
LINE
  5
CF
330
1F
100
AcDbEntity
  8
1
  6
SLD-Сплошная
100
AcDbLine
 10
1509.8211909364
 20
603.2792289255
 30
0.0
 11
1508.6558148977
 21
603.2792289255
 31
0.0
  0
ARC
  5
D0
330
1F
100
AcDbEntity
  8
1
  6
SLD-Сплошная
100
AcDbCircle
 10
1497.7045648977
 20
598.2292289255
 30
0.0
 40
13.25124999999994
100
AcDbArc
 50
338.1849373759
 51
0.0
  0
ARC
  5
D1
330
1F
100
AcDbEntity
  8
1
  6
SLD-Сплошная
100
AcDbCircle
 10
1497.7045648977
 20
598.2292289255
 30
0.0
 40
13.2512499999999
100
AcDbArc
 50
0.0
 51
21.8150626241
  0
ARC
  5
D2
330
1F
100
AcDbEntity
  8
1
  6
SLD-Сплошная
100
AcDbCircle
 10
1509.8211909364
 20
733.3792289255
 30
0.0
 40
0.2000000000000455
100
AcDbArc
 50
270.0
 51
338.1849373759
  0
ARC
  5
D3
330
1F
100
AcDbEntity
  8
1
  6
SLD-Сплошная
100
AcDbCircle
 10
1509.8211909364
 20
743.0792289255
 30
0.0
 40
0.1999999999999318
100
AcDbArc
 50
21.8150626241
 51
90.0
  0
LINE
  5
D4
330
1F
100
AcDbEntity
  8
1
  6
SLD-Сплошная
100
AcDbLine
 10
1508.6558148977
 20
733.1792289255
 30
0.0
 11
1509.8211909364
 21
733.1792289255
 31
0.0
  0
LINE
  5
D5
330
1F
100
AcDbEntity
  8
1
  6
SLD-Сплошная
100
AcDbLine
 10
1509.8211909364
 20
743.2792289255
 30
0.0
 11
1508.6558148977
 21
743.2792289255
 31
0.0
  0
ARC
  5
D6
330
1F
100
AcDbEntity
  8
1
  6
SLD-Сплошная
100
AcDbCircle
 10
1497.7045648977
 20
738.2292289255
 30
0.0
 40
13.25125000000003
100
AcDbArc
 50
338.1849373759
 51
0.0
  0
ARC
  5
D7
330
1F
100
AcDbEntity
  8
1
  6
SLD-Сплошная
100
AcDbCircle
 10
1497.7045648977
 20
738.2292289255
 30
0.0
 40
13.25125000000003
100
AcDbArc
 50
0.0
 51
21.8150626241
  0
LINE
  5
D8
330
1F
100
AcDbEntity
  8
1
  6
SLD-Сплошная
100
AcDbLine
 10
1485.3558148977
 20
518.2292289255
 30
0.0
 11
1485.3558148977
 21
517.0234668679
 31
0.0
  0
LINE
  5
D9
330
1F
100
AcDbEntity
  8
1
  6
SLD-Сплошная
100
AcDbLine
 10
1501.9558148977
 20
517.0234668679
 30
0.0
 11
1501.9558148977
 21
518.2292289255
 31
0.0
  0
ARC
  5
DA
330
1F
100
AcDbEntity
  8
1
  6
SLD-Сплошная
100
AcDbCircle
 10
1486.3558148977
 20
517.0234668679
 30
0.0
 40
1.0
100
AcDbArc
 50
180.0
 51
257.5813184942
  0
ARC
  5
DB
330
1F
100
AcDbEntity
  8
1
  6
SLD-Сплошная
100
AcDbCircle
 10
1500.9558148977
 20
517.0234668679
 30
0.0
 40
1.0
100
AcDbArc
 50
282.4186815058
 51
0.0
  0
ARC
  5
DC
330
1F
100
AcDbEntity
  8
1
  6
SLD-Сплошная
100
AcDbCircle
 10
1493.6558148977
 20
550.1742289255
 30
0.0
 40
34.94500000000001
100
AcDbArc
 50
270.0104111827
 51
282.4186815058
  0
ARC
  5
DD
330
1F
100
AcDbEntity
  8
1
  6
SLD-Сплошная
100
AcDbCircle
 10
1493.6558148977
 20
550.1742289255
 30
0.0
 40
34.94500000000001
100
AcDbArc
 50
257.5813184942
 51
270.0104111827
  0
LINE
  5
DE
330
1F
100
AcDbEntity
  8
1
  6
SLD-Сплошная
100
AcDbLine
 10
1534.7558148977
 20
654.2292289255
 30
0.0
 11
1535.7558148977
 21
654.2292289255
 31
0.0
  0
LINE
  5
DF
330
1F
100
AcDbEntity
  8
1
  6
SLD-Сплошная
100
AcDbLine
 10
1535.7558148977
 20
682.2292289255
 30
0.0
 11
1534.7558148977
 21
682.2292289255
 31
0.0
  0
LINE
  5
E0
330
1F
100
AcDbEntity
  8
1
  6
SLD-Сплошная
100
AcDbLine
 10
1535.7558148977
 20
654.2292289255
 30
0.0
 11
1538.7558148977
 21
657.2292289255
 31
0.0
  0
LINE
  5
E1
330
1F
100
AcDbEntity
  8
1
  6
SLD-Сплошная
100
AcDbLine
 10
1538.7558148977
 20
679.2292289255
 30
0.0
 11
1535.7558148977
 21
682.2292289255
 31
0.0
  0
LINE
  5
E2
330
1F
100
AcDbEntity
  8
1
  6
SLD-Сплошная
100
AcDbLine
 10
1515.7558148977
 20
815.448911213
 30
0.0
 11
1515.7558148977
 21
521.0095466381
 31
0.0
  0
LINE
  5
E3
330
1F
100
AcDbEntity
  8
1
  6
SLD-Сплошная
100
AcDbLine
 10
1508.6558148977
 20
672.0053185888
 30
0.0
 11
1508.7833870144
 21
671.7128838287
 31
0.0
  0
ELLIPSE
  5
E4
330
1F
100
AcDbEntity
  8
1
  6
SLD-Сплошная
100
AcDbEllipse
 10
1505.0983314246
 20
669.7034170773
 30
0.0
 11
-4.547473508864641E-13
 21
4.58393935390643
 31
-6.347988801280735E-11
210
-3.466062126810890E-15
220
1.384832632192436E-11
230
1.0
 40
0.894427191
 41
4.718019941382471
 42
5.166174585903224
  0
LINE
  5
E5
330
1F
100
AcDbEntity
  8
1
  6
SLD-Сплошная
100
AcDbLine
 10
1509.1983314246
 20
666.7292289255
 30
0.0
 11
1509.1983314246
 21
669.7292289255
 31
0.0
  0
ELLIPSE
  5
E6
330
1F
100
AcDbEntity
  8
1
  6
SLD-Сплошная
100
AcDbEllipse
 10
1505.0983314246
 20
666.7550407737
 30
0.0
 11
-4.547473508864641E-13
 21
4.58393935390643
 31
6.399147878255462E-11
210
-3.466062124497646E-15
220
-1.395993136951542E-11
230
1.0
 40
0.894427191
 41
4.258603374866131
 42
4.70675801938693
  0
LINE
  5
E7
330
1F
100
AcDbEntity
  8
1
  6
SLD-Сплошная
100
AcDbLine
 10
1508.7833870144
 20
664.7455740224
 30
0.0
 11
1508.6558148977
 21
664.4531392623
 31
0.0
  0
LINE
  5
E8
330
1F
100
AcDbEntity
  8
1
  6
SLD-Сплошная
100
AcDbLine
 10
1508.7833870144
 20
676.7292289244
 30
0.0
 11
1508.6558148977
 21
676.7292289244
 31
0.0
  0
LINE
  5
E9
330
1F
100
AcDbEntity
  8
1
  6
SLD-Сплошная
100
AcDbLine
 10
1508.6558148977
 20
659.7292289266
 30
0.0
 11
1508.7833870144
 21
659.7292289266
 31
0.0
  0
LINE
  5
EA
330
1F
100
AcDbEntity
  8
1
  6
SLD-Сплошная
100
AcDbLine
 10
1509.1983314246
 20
666.7292289255
 30
0.0
 11
1509.1983314246
 21
660.7580795196
 31
0.0
  0
LINE
  5
EB
330
1F
100
AcDbEntity
  8
1
  6
SLD-Сплошная
100
AcDbLine
 10
1509.0867106893
 20
659.7292289266
 30
0.0
 11
1508.7833870144
 21
659.7292289266
 31
0.0
  0
LINE
  5
EC
330
1F
100
AcDbEntity
  8
1
  6
SLD-Сплошная
100
AcDbLine
 10
1509.1983314246
 20
675.7003783315
 30
0.0
 11
1509.1983314246
 21
669.7292289255
 31
0.0
  0
LINE
  5
ED
330
1F
100
AcDbEntity
  8
1
  6
SLD-Сплошная
100
AcDbLine
 10
1508.7833870144
 20
676.7292289244
 30
0.0
 11
1509.0867106893
 21
676.7292289244
 31
0.0
  0
LINE
  5
EE
330
1F
100
AcDbEntity
  8
1
  6
SLD-Сплошная
100
AcDbLine
 10
1535.7558148977
 20
654.2292289255
 30
0.0
 11
1535.7558148977
 21
682.2292289255
 31
0.0
  0
LINE
  5
EF
330
1F
100
AcDbEntity
  8
1
  6
SLD-Сплошная
100
AcDbLine
 10
1538.7558148977
 20
657.2292289255
 30
0.0
 11
1538.7558148977
 21
679.2292289255
 31
0.0
  0
LINE
  5
F0
330
1F
100
AcDbEntity
  8
1
  6
SLD-Сплошная
100
AcDbLine
 10
1516.8058148977
 20
521.0120716381
 30
0.0
 11
1532.0558148977
 21
521.0120716381
 31
0.0
  0
LINE
  5
F1
330
1F
100
AcDbEntity
  8
1
  6
SLD-Сплошная
100
AcDbLine
 10
1516.8058148977
 20
815.446386213
 30
0.0
 11
1532.0558148977
 21
815.446386213
 31
0.0
  0
SPLINE
  5
F2
330
1F
100
AcDbEntity
  8
1
  6
SLD-Сплошная
100
AcDbSpline
210
0.0
220
0.0
230
1.0
 70
     8
 71
     3
 72
    11
 73
     7
 74
     0
 42
0.00000001
 43
0.00000001
 40
0.0
 40
0.0
 40
0.0
 40
0.0
 40
0.2500000000000019
 40
0.5000000000000014
 40
0.7500000000000133
 40
1.0
 40
1.0
 40
1.0
 40
1.0
 10
1516.805814897703
 20
815.4463862129546
 30
0.0
 10
1516.668226001707
 20
815.442219546288
 30
0.0
 10
1516.393048209713
 20
815.4338862129547
 30
0.0
 10
1516.045976025762
 20
815.4213862129546
 30
0.0
 10
1515.803164351983
 20
815.4088862129548
 30
0.0
 10
1515.77159804913
 20
815.4005528796215
 30
0.0
 10
1515.755814897703
 20
815.3963862129549
 30
0.0
  0
SPLINE
  5
F3
330
1F
100
AcDbEntity
  8
1
  6
SLD-Сплошная
100
AcDbSpline
210
0.0
220
0.0
230
1.0
 70
     8
 71
     3
 72
    11
 73
     7
 74
     0
 42
0.00000001
 43
0.00000001
 40
0.0
 40
0.0
 40
0.0
 40
0.0
 40
0.2499999999999956
 40
0.5000000000000039
 40
0.7500000000000019
 40
1.0
 40
1.0
 40
1.0
 40
1.0
 10
1515.755814897703
 20
521.0620716380697
 30
0.0
 10
1515.771598049129
 20
521.057904971403
 30
0.0
 10
1515.803164351982
 20
521.0495716380698
 30
0.0
 10
1516.04597602576
 20
521.0370716380696
 30
0.0
 10
1516.393048209712
 20
521.0245716380697
 30
0.0
 10
1516.668226001706
 20
521.0162383047365
 30
0.0
 10
1516.805814897703
 20
521.0120716380698
 30
0.0
  0
ELLIPSE
  5
F4
330
1F
100
AcDbEntity
  8
1
  6
SLD-Сплошная
100
AcDbEllipse
 10
1532.0558148977
 20
814.0292289256
 30
0.0
 11
2.700000000000045
 21
0.0
 31
0.0
210
0.0
220
0.0
230
1.0
 40
0.5248730694
 41
0.0
 42
1.570796326794897
  0
LINE
  5
F5
330
1F
100
AcDbEntity
  8
1
  6
SLD-Сплошная
100
AcDbLine
 10
1534.7558148977
 20
814.0292289256
 30
0.0
 11
1534.7558148977
 21
522.4292289255
 31
0.0
  0
ELLIPSE
  5
F6
330
1F
100
AcDbEntity
  8
1
  6
SLD-Сплошная
100
AcDbEllipse
 10
1532.0558148977
 20
522.4292289255
 30
0.0
 11
2.700000000000045
 21
0.0
 31
0.0
210
0.0
220
0.0
230
1.0
 40
0.5248730694
 41
4.712388980384697
 42
6.283185307179586
  0
LINE
  5
F7
330
1F
100
AcDbEntity
  8
1
  6
SLD-Сплошная
100
AcDbLine
 10
1516.7558148977
 20
815.6792289255
 30
0.0
 11
1515.7558148977
 21
815.6792289255
 31
0.0
  0
LINE
  5
F8
330
1F
100
AcDbEntity
  8
1
  6
SLD-Сплошная
100
AcDbLine
 10
1516.8058148977
 20
816.7292289255
 30
0.0
 11
1516.8058148977
 21
815.7292289255
 31
0.0
  0
SPLINE
  5
F9
330
1F
100
AcDbEntity
  8
1
  6
SLD-Сплошная
100
AcDbSpline
210
0.0
220
0.0
230
1.0
 70
     8
 71
     3
 72
    11
 73
     7
 74
     0
 42
0.00000001
 43
0.00000001
 40
0.0
 40
0.0
 40
0.0
 40
0.0
 40
0.2499999999999728
 40
0.4999999999998752
 40
0.7499999999999345
 40
1.0
 40
1.0
 40
1.0
 40
1.0
 10
1516.755814897703
 20
815.6792289255122
 30
0.0
 10
1516.756566476342
 20
815.6857807777026
 30
0.0
 10
1516.758069633621
 20
815.6988844820831
 30
0.0
 10
1516.769632094277
 20
815.7154117289381
 30
0.0
 10
1516.786159341132
 20
815.7269741895942
 30
0.0
 10
1516.799263045513
 20
815.728477346873
 30
0.0
 10
1516.805814897703
 20
815.7292289255123
 30
0.0
  0
SPLINE
  5
FA
330
1F
100
AcDbEntity
  8
1
  6
SLD-Сплошная
100
AcDbSpline
210
0.0
220
0.0
230
1.0
 70
     8
 71
     3
 72
    11
 73
     7
 74
     0
 42
0.00000001
 43
0.00000001
 40
0.0
 40
0.0
 40
0.0
 40
0.0
 40
0.2500000000000063
 40
0.5000000000000041
 40
0.7499999999999988
 40
1.0
 40
1.0
 40
1.0
 40
1.0
 10
1515.755814897703
 20
815.6792289255122
 30
0.0
 10
1515.77159804913
 20
815.8168178215088
 30
0.0
 10
1515.803164351983
 20
816.0919956135019
 30
0.0
 10
1516.045976025762
 20
816.4390677974537
 30
0.0
 10
1516.393048209713
 20
816.6818794712322
 30
0.0
 10
1516.668226001707
 20
816.7134457740856
 30
0.0
 10
1516.805814897703
 20
816.7292289255123
 30
0.0
  0
LINE
  5
FB
330
1F
100
AcDbEntity
  8
1
  6
SLD-Сплошная
100
AcDbLine
 10
1532.0558148977
 20
815.7292289255
 30
0.0
 11
1516.8058148977
 21
815.7292289255
 31
0.0
  0
LINE
  5
FC
330
1F
100
AcDbEntity
  8
1
  6
SLD-Сплошная
100
AcDbLine
 10
1532.0558148977
 20
816.7292289255
 30
0.0
 11
1516.8058148977
 21
816.7292289255
 31
0.0
  0
LINE
  5
FD
330
1F
100
AcDbEntity
  8
1
  6
SLD-Сплошная
100
AcDbLine
 10
1532.0558148977
 20
520.7292289255
 30
0.0
 11
1516.8058148977
 21
520.7292289255
 31
0.0
  0
LINE
  5
FE
330
1F
100
AcDbEntity
  8
1
  6
SLD-Сплошная
100
AcDbLine
 10
1532.0558148977
 20
519.7292289255
 30
0.0
 11
1516.8058148977
 21
519.7292289255
 31
0.0
  0
LINE
  5
FF
330
1F
100
AcDbEntity
  8
1
  6
SLD-Сплошная
100
AcDbLine
 10
1516.8058148977
 20
519.7292289255
 30
0.0
 11
1516.8058148977
 21
520.7292289255
 31
0.0
  0
LINE
  5
100
330
1F
100
AcDbEntity
  8
1
  6
SLD-Сплошная
100
AcDbLine
 10
1516.7558148977
 20
520.7792289255
 30
0.0
 11
1515.7558148977
 21
520.7792289255
 31
0.0
  0
SPLINE
  5
101
330
1F
100
AcDbEntity
  8
1
  6
SLD-Сплошная
100
AcDbSpline
210
0.0
220
0.0
230
1.0
 70
     8
 71
     3
 72
    11
 73
     7
 74
     0
 42
0.00000001
 43
0.00000001
 40
0.0
 40
0.0
 40
0.0
 40
0.0
 40
0.2499999999999847
 40
0.4999999999999633
 40
0.750000000000108
 40
1.0
 40
1.0
 40
1.0
 40
1.0
 10
1516.805814897703
 20
520.7292289255124
 30
0.0
 10
1516.799263045513
 20
520.7299805041517
 30
0.0
 10
1516.786159341132
 20
520.7314836614305
 30
0.0
 10
1516.769632094277
 20
520.7430461220866
 30
0.0
 10
1516.758069633621
 20
520.7595733689416
 30
0.0
 10
1516.756566476342
 20
520.7726770733221
 30
0.0
 10
1516.755814897703
 20
520.7792289255124
 30
0.0
  0
SPLINE
  5
102
330
1F
100
AcDbEntity
  8
1
  6
SLD-Сплошная
100
AcDbSpline
210
0.0
220
0.0
230
1.0
 70
     8
 71
     3
 72
    11
 73
     7
 74
     0
 42
0.00000001
 43
0.00000001
 40
0.0
 40
0.0
 40
0.0
 40
0.0
 40
0.2500000000000039
 40
0.4999999999999982
 40
0.7500000000000107
 40
1.0
 40
1.0
 40
1.0
 40
1.0
 10
1516.805814897703
 20
519.7292289255124
 30
0.0
 10
1516.668226001706
 20
519.7450120769391
 30
0.0
 10
1516.393048209713
 20
519.7765783797926
 30
0.0
 10
1516.045976025762
 20
520.019390053571
 30
0.0
 10
1515.803164351983
 20
520.3664622375228
 30
0.0
 10
1515.77159804913
 20
520.6416400295159
 30
0.0
 10
1515.755814897703
 20
520.7792289255124
 30
0.0
  0
ARC
  5
103
330
1F
100
AcDbEntity
  8
1
  6
SLD-Сплошная
100
AcDbCircle
 10
1532.0558148977
 20
814.0292289255
 30
0.0
 40
2.700000000000045
100
AcDbArc
 50
0.000000001
 51
90.0
  0
ARC
  5
104
330
1F
100
AcDbEntity
  8
1
  6
SLD-Сплошная
100
AcDbCircle
 10
1532.0558148977
 20
814.0292289255
 30
0.0
 40
1.699999999999946
100
AcDbArc
 50
49.5408896255
 51
90.0
  0
ARC
  5
105
330
1F
100
AcDbEntity
  8
1
  6
SLD-Сплошная
100
AcDbCircle
 10
1532.0558148977
 20
522.4292289255
 30
0.0
 40
2.700000000000045
100
AcDbArc
 50
270.0
 51
359.999999999
  0
ARC
  5
106
330
1F
100
AcDbEntity
  8
1
  6
SLD-Сплошная
100
AcDbCircle
 10
1532.0558148977
 20
522.4292289255
 30
0.0
 40
1.700000000000159
100
AcDbArc
 50
270.0
 51
310.4591103743
  0
LINE
  5
107
330
1F
100
AcDbEntity
  8
1
  6
SLD-Сплошная
100
AcDbLine
 10
1516.8058148977
 20
815.446386213
 30
0.0
 11
1516.8058148977
 21
815.6292289255
 31
0.0
  0
SPLINE
  5
108
330
1F
100
AcDbEntity
  8
1
  6
SLD-Сплошная
100
AcDbSpline
210
0.0
220
0.0
230
1.0
 70
     8
 71
     3
 72
    10
 73
     6
 74
     0
 42
0.00000001
 43
0.00000001
 40
0.0
 40
0.0
 40
0.0
 40
0.0
 40
0.3585486610936665
 40
0.5969690048115925
 40
1.0
 40
1.0
 40
1.0
 40
1.0
 10
1516.805814897703
 20
815.6292289255123
 30
0.0
 10
1516.790388705172
 20
815.6351459685046
 30
0.0
 10
1516.764704719141
 20
815.6449976055343
 30
0.0
 10
1516.75881314526
 20
815.661897627741
 30
0.0
 10
1516.756971821719
 20
815.6725413541091
 30
0.0
 10
1516.755814897703
 20
815.6792289255122
 30
0.0
  0
LINE
  5
109
330
1F
100
AcDbEntity
  8
1
  6
SLD-Сплошная
100
AcDbLine
 10
1515.8153002544
 20
815.396386213
 30
0.0
 11
1515.7558148977
 21
815.6792289255
 31
0.0
  0
LINE
  5
10A
330
1F
100
AcDbEntity
  8
1
  6
SLD-Сплошная
100
AcDbLine
 10
1516.8058148977
 20
521.0120716381
 30
0.0
 11
1516.8058148977
 21
520.8292289255
 31
0.0
  0
SPLINE
  5
10B
330
1F
100
AcDbEntity
  8
1
  6
SLD-Сплошная
100
AcDbSpline
210
0.0
220
0.0
230
1.0
 70
     8
 71
     3
 72
    10
 73
     6
 74
     0
 42
0.00000001
 43
0.00000001
 40
0.0
 40
0.0
 40
0.0
 40
0.0
 40
0.4215647020640272
 40
0.6406677011965138
 40
1.0
 40
1.0
 40
1.0
 40
1.0
 10
1516.755814897703
 20
520.7792289255124
 30
0.0
 10
1516.75715493763
 20
520.7864836745226
 30
0.0
 10
1516.759191446606
 20
520.7975089889011
 30
0.0
 10
1516.76531345164
 20
520.8135988065262
 30
0.0
 10
1516.790295617905
 20
520.8232398013357
 30
0.0
 10
1516.805814897703
 20
520.8292289255126
 30
0.0
  0
LINE
  5
10C
330
1F
100
AcDbEntity
  8
1
  6
SLD-Сплошная
100
AcDbLine
 10
1515.7558148977
 20
520.7792289255
 30
0.0
 11
1515.8195793183
 21
521.0620716381
 31
0.0
  0
LINE
  5
10D
330
1F
100
AcDbEntity
  8
1
  6
SLD-Сплошная
100
AcDbLine
 10
1531.6458148977
 20
815.6292289255
 30
0.0
 11
1516.8058148977
 21
815.6292289255
 31
0.0
  0
LINE
  5
10E
330
1F
100
AcDbEntity
  8
1
  6
SLD-Сплошная
100
AcDbLine
 10
1531.6458148977
 20
815.446386213
 30
0.0
 11
1531.6458148977
 21
815.6292289255
 31
0.0
  0
LINE
  5
10F
330
1F
100
AcDbEntity
  8
1
  6
SLD-Сплошная
100
AcDbLine
 10
1531.6458148977
 20
520.8292289255
 30
0.0
 11
1516.8058148977
 21
520.8292289255
 31
0.0
  0
LINE
  5
110
330
1F
100
AcDbEntity
  8
1
  6
SLD-Сплошная
100
AcDbLine
 10
1531.6458148977
 20
521.0120716381
 30
0.0
 11
1531.6458148977
 21
520.8292289255
 31
0.0
  0
ARC
  5
111
330
1F
100
AcDbEntity
  8
1
  6
SLD-Сплошная
100
AcDbCircle
 10
1531.6458148977
 20
813.6192289255
 30
0.0
 40
2.010000000000105
100
AcDbArc
 50
63.906948707
 51
90.0
  0
ARC
  5
112
330
1F
100
AcDbEntity
  8
1
  6
SLD-Сплошная
100
AcDbCircle
 10
1531.6458148977
 20
522.8392289255
 30
0.0
 40
2.010000000000024
100
AcDbArc
 50
270.0
 51
296.0930512922
  0
LINE
  5
113
330
1F
100
AcDbEntity
  8
1
  6
SLD-Сплошная
100
AcDbLine
 10
1387.1558148977
 20
520.2292289255
 30
0.0
 11
1506.6558148977
 21
520.2292289255
 31
0.0
  0
CIRCLE
  5
114
330
1F
100
AcDbEntity
  8
1
  6
SLD-Сплошная
100
AcDbCircle
 10
1468.6558148977
 20
568.2292289255
 30
0.0
 40
0.5
  0
CIRCLE
  5
115
330
1F
100
AcDbEntity
  8
1
  6
SLD-Сплошная
100
AcDbCircle
 10
1468.6558148977
 20
768.2292289255
 30
0.0
 40
0.4999999999998863
  0
CIRCLE
  5
116
330
1F
100
AcDbEntity
  8
1
  6
SLD-Сплошная
100
AcDbCircle
 10
1418.6558148977
 20
778.2292289255
 30
0.0
 40
0.5
  0
LINE
  5
117
330
1F
100
AcDbEntity
  8
1
  6
SLD-Сплошная
100
AcDbLine
 10
1387.1558148977
 20
816.2292289255
 30
0.0
 11
1387.1558148977
 21
818.2292289255
 31
0.0
  0
LINE
  5
118
330
1F
100
AcDbEntity
  8
1
  6
SLD-Сплошная
100
AcDbLine
 10
1387.1558148977
 20
818.2292289255
 30
0.0
 11
1506.6558148977
 21
818.2292289255
 31
0.0
  0
LINE
  5
119
330
1F
100
AcDbEntity
  8
1
  6
SLD-Сплошная
100
AcDbLine
 10
1506.6558148977
 20
816.2292289255
 30
0.0
 11
1506.6558148977
 21
818.2292289255
 31
0.0
  0
ELLIPSE
  5
11A
330
1F
100
AcDbEntity
  8
1
  6
SLD-Сплошная
100
AcDbEllipse
 10
1387.1558148977
 20
815.6585182474
 30
0.0
 11
2.5
 21
0.0
 31
0.0
210
0.0
220
0.0
230
1.0
 40
0.6
 41
2.751284095244449
 42
3.141592653589718
  0
ELLIPSE
  5
11B
330
1F
100
AcDbEntity
  8
1
  6
SLD-Сплошная
100
AcDbEllipse
 10
1387.1558148977
 20
520.7999396037
 30
0.0
 11
2.5
 21
0.0
 31
0.0
210
0.0
220
0.0
230
1.0
 40
0.6
 41
3.141592653589793
 42
3.531901211935088
  0
LINE
  5
11C
330
1F
100
AcDbEntity
  8
1
  6
SLD-Сплошная
100
AcDbLine
 10
1384.6558148977
 20
520.7999396037
 30
0.0
 11
1384.6558148977
 21
815.6585182474
 31
0.0
  0
LINE
  5
11D
330
1F
100
AcDbEntity
  8
1
  6
SLD-Сплошная
100
AcDbLine
 10
1384.8438356339
 20
816.2292289255
 30
0.0
 11
1387.1558148977
 21
816.2292289255
 31
0.0
  0
LINE
  5
11E
330
1F
100
AcDbEntity
  8
1
  6
SLD-Сплошная
100
AcDbLine
 10
1384.8438356339
 20
520.2292289255
 30
0.0
 11
1387.1558148977
 21
520.2292289255
 31
0.0
  0
LINE
  5
11F
330
1F
100
AcDbEntity
  8
1
  6
SLD-Сплошная
100
AcDbLine
 10
1508.6558148977
 20
816.1585182474
 30
0.0
 11
1506.6558148977
 21
816.2292289255
 31
0.0
  0
LINE
  5
120
330
1F
100
AcDbEntity
  8
1
  6
SLD-Сплошная
100
AcDbLine
 10
1508.6558148977
 20
816.1585182474
 30
0.0
 11
1508.6558148977
 21
520.2999396036
 31
0.0
  0
LINE
  5
121
330
1F
100
AcDbEntity
  8
1
  6
SLD-Сплошная
100
AcDbLine
 10
1508.6558148977
 20
520.2999396036
 30
0.0
 11
1506.6558148977
 21
520.2292289255
 31
0.0
  0
LINE
  5
122
330
1F
100
AcDbEntity
  8
1
  6
SLD-Сплошная
100
AcDbLine
 10
1506.6558148977
 20
520.2292289255
 30
0.0
 11
1506.6558148977
 21
518.5588996167
 31
0.0
  0
LINE
  5
123
330
1F
100
AcDbEntity
  8
1
  6
SLD-Сплошная
100
AcDbLine
 10
1506.6558148977
 20
518.2292289255
 30
0.0
 11
1387.1558148977
 21
518.2292289255
 31
0.0
  0
LINE
  5
124
330
1F
100
AcDbEntity
  8
1
  6
SLD-Сплошная
100
AcDbLine
 10
1387.1558148977
 20
518.5588996167
 30
0.0
 11
1387.1558148977
 21
520.2292289255
 31
0.0
  0
LINE
  5
125
330
1F
100
AcDbEntity
  8
1
  6
SLD-Сплошная
100
AcDbLine
 10
1387.1558148977
 20
518.5588996167
 30
0.0
 11
1387.1558148977
 21
518.2292289255
 31
0.0
  0
ARC
  5
126
330
1F
100
AcDbEntity
  8
1
  6
SLD-Сплошная
100
AcDbCircle
 10
1387.1558148977
 20
520.7292289255
 30
0.0
 40
2.499999999999886
100
AcDbArc
 50
202.3630331011
 51
270.0
  0
LINE
  5
127
330
1F
100
AcDbEntity
  8
1
  6
SLD-Сплошная
100
AcDbLine
 10
1384.8438356339
 20
519.7780444619
 30
0.0
 11
1385.7686273394
 21
520.1585182474
 31
0.0
  0
ARC
  5
128
330
1F
100
AcDbEntity
  8
1
  6
SLD-Сплошная
100
AcDbCircle
 10
1387.1558148977
 20
520.7292289255
 30
0.0
 40
1.499999999999949
100
AcDbArc
 50
202.3630331011
 51
270.0
  0
LINE
  5
129
330
1F
100
AcDbEntity
  8
1
  6
SLD-Сплошная
100
AcDbLine
 10
1384.8438356339
 20
816.6804133891
 30
0.0
 11
1385.7686273394
 21
816.2999396037
 31
0.0
  0
ARC
  5
12A
330
1F
100
AcDbEntity
  8
1
  6
SLD-Сплошная
100
AcDbCircle
 10
1387.1558148977
 20
815.7292289255
 30
0.0
 40
2.5
100
AcDbArc
 50
90.0
 51
157.6369668989
  0
ARC
  5
12B
330
1F
100
AcDbEntity
  8
1
  6
SLD-Сплошная
100
AcDbCircle
 10
1387.1558148977
 20
815.7292289255
 30
0.0
 40
1.5
100
AcDbArc
 50
90.0
 51
157.6369668989
  0
LINE
  5
12C
330
1F
100
AcDbEntity
  8
1
  6
SLD-Сплошная
100
AcDbLine
 10
1384.6558148977
 20
520.7292289255
 30
0.0
 11
1384.6585942204
 21
520.7292289255
 31
0.0
  0
ARC
  5
12D
330
1F
100
AcDbEntity
  8
1
  6
SLD-Сплошная
100
AcDbCircle
 10
1387.1558148977
 20
520.7292289255
 30
0.0
 40
2.5
100
AcDbArc
 50
180.0
 51
202.3630331011
  0
LINE
  5
12E
330
1F
100
AcDbEntity
  8
1
  6
SLD-Сплошная
100
AcDbLine
 10
1384.6558148977
 20
815.7292289255
 30
0.0
 11
1384.6585942204
 21
815.7292289255
 31
0.0
  0
ARC
  5
12F
330
1F
100
AcDbEntity
  8
1
  6
SLD-Сплошная
100
AcDbCircle
 10
1387.1558148977
 20
815.7292289255
 30
0.0
 40
2.5
100
AcDbArc
 50
157.6369668989
 51
180.0
  0
ARC
  5
130
330
1F
100
AcDbEntity
  8
1
  6
SLD-Сплошная
100
AcDbCircle
 10
1506.6558148977
 20
520.2292289255
 30
0.0
 40
2.0
100
AcDbArc
 50
270.0
 51
360.0
  0
LINE
  5
131
330
1F
100
AcDbEntity
  8
1
  6
SLD-Сплошная
100
AcDbLine
 10
1506.6558148977
 20
518.2292289255
 30
0.0
 11
1506.6558148977
 21
518.5588996167
 31
0.0
  0
ARC
  5
132
330
1F
100
AcDbEntity
  8
1
  6
SLD-Сплошная
100
AcDbCircle
 10
1506.6558148977
 20
520.2292289255
 30
0.0
 40
1.0
100
AcDbArc
 50
270.0
 51
0.0
  0
LINE
  5
133
330
1F
100
AcDbEntity
  8
1
  6
SLD-Сплошная
100
AcDbLine
 10
1507.6558148977
 20
520.2292289255
 30
0.0
 11
1508.6558148977
 21
520.2292289255
 31
0.0
  0
ARC
  5
134
330
1F
100
AcDbEntity
  8
1
  6
SLD-Сплошная
100
AcDbCircle
 10
1506.6558148977
 20
816.2292289255
 30
0.0
 40
1.0
100
AcDbArc
 50
0.0
 51
90.0
  0
ARC
  5
135
330
1F
100
AcDbEntity
  8
1
  6
SLD-Сплошная
100
AcDbCircle
 10
1506.6558148977
 20
816.2292289255
 30
0.0
 40
2.0
100
AcDbArc
 50
0.0
 51
90.0
  0
LINE
  5
136
330
1F
100
AcDbEntity
  8
1
  6
SLD-Сплошная
100
AcDbLine
 10
1507.6558148977
 20
816.2292289255
 30
0.0
 11
1508.6558148977
 21
816.2292289255
 31
0.0
  0
LINE
  5
137
330
1F
100
AcDbEntity
  8
1
  6
SLD-Сплошная
100
AcDbLine
 10
1507.6558148977
 20
520.2292289255
 30
0.0
 11
1507.6558148977
 21
520.2645842645
 31
0.0
  0
LINE
  5
138
330
1F
100
AcDbEntity
  8
1
  6
SLD-Сплошная
100
AcDbLine
 10
1508.6558148977
 20
520.2292289255
 30
0.0
 11
1508.6558148977
 21
520.2999396036
 31
0.0
  0
LINE
  5
139
330
1F
100
AcDbEntity
  8
1
  6
SLD-Сплошная
100
AcDbLine
 10
1507.6558148977
 20
816.2292289255
 30
0.0
 11
1507.6558148977
 21
816.1938735865
 31
0.0
  0
LINE
  5
13A
330
1F
100
AcDbEntity
  8
1
  6
SLD-Сплошная
100
AcDbLine
 10
1508.6558148977
 20
816.2292289255
 30
0.0
 11
1508.6558148977
 21
816.1585182474
 31
0.0
  0
LINE
  5
13B
330
1F
100
AcDbEntity
  8
1
  6
SLD-Сплошная
100
AcDbLine
 10
1384.6558148977
 20
520.7292289255
 30
0.0
 11
1384.6558148977
 21
520.7999396036
 31
0.0
  0
LINE
  5
13C
330
1F
100
AcDbEntity
  8
1
  6
SLD-Сплошная
100
AcDbLine
 10
1384.6558148977
 20
815.7292289255
 30
0.0
 11
1384.6558148977
 21
815.6585182474
 31
0.0
  0
ELLIPSE
  5
13D
330
1F
100
AcDbEntity
  8
1
  6
SLD-Сплошная
100
AcDbEllipse
 10
1509.6558148977
 20
799.1585182474
 30
0.0
 11
0.0
 21
1.999999999999886
 31
0.0
210
0.0
220
0.0
230
1.0
 40
0.5
 41
1.570796326794897
 42
3.141592653589793
  0
ELLIPSE
  5
13E
330
1F
100
AcDbEntity
  8
1
  6
SLD-Сплошная
100
AcDbEllipse
 10
1509.6558148977
 20
537.2999396036
 30
0.0
 11
0.0
 21
1.999999999999886
 31
0.0
210
0.0
220
0.0
230
1.0
 40
0.5
 41
0.0
 42
1.570796326794897
  0
ARC
  5
13F
330
1F
100
AcDbEntity
  8
1
  6
SLD-Сплошная
100
AcDbCircle
 10
1509.6558148977
 20
537.2292289255
 30
0.0
 40
1.000000000000227
100
AcDbArc
 50
90.0
 51
180.0
  0
ARC
  5
140
330
1F
100
AcDbEntity
  8
1
  6
SLD-Сплошная
100
AcDbCircle
 10
1509.6558148977
 20
537.2292289255
 30
0.0
 40
2.000000000000057
100
AcDbArc
 50
90.0
 51
98.700477492
  0
ARC
  5
141
330
1F
100
AcDbEntity
  8
1
  6
SLD-Сплошная
100
AcDbCircle
 10
1509.6558148977
 20
799.2292289255
 30
0.0
 40
2.0
100
AcDbArc
 50
261.299522508
 51
270.0
  0
ARC
  5
142
330
1F
100
AcDbEntity
  8
1
  6
SLD-Сплошная
100
AcDbCircle
 10
1509.6558148977
 20
799.2292289255
 30
0.0
 40
1.000000000000227
100
AcDbArc
 50
180.0
 51
270.0
  0
LINE
  5
143
330
1F
100
AcDbEntity
  8
1
  6
SLD-Сплошная
100
AcDbLine
 10
1509.6558148977
 20
539.2999396036
 30
0.0
 11
1515.7558148977
 21
539.2999396036
 31
0.0
  0
LINE
  5
144
330
1F
100
AcDbEntity
  8
1
  6
SLD-Сплошная
100
AcDbLine
 10
1509.6558148977
 20
797.1585182474
 30
0.0
 11
1515.7558148977
 21
797.1585182474
 31
0.0
  0
LINE
  5
145
330
1F
100
AcDbEntity
  8
1
  6
SLD-Сплошная
100
AcDbLine
 10
1515.7558148977
 20
797.2292289255
 30
0.0
 11
1509.6558148977
 21
797.2292289255
 31
0.0
  0
LINE
  5
146
330
1F
100
AcDbEntity
  8
1
  6
SLD-Сплошная
100
AcDbLine
 10
1515.7558148977
 20
798.2292289255
 30
0.0
 11
1509.6558148977
 21
798.2292289255
 31
0.0
  0
LINE
  5
147
330
1F
100
AcDbEntity
  8
1
  6
SLD-Сплошная
100
AcDbLine
 10
1515.7558148977
 20
538.2292289255
 30
0.0
 11
1509.6558148977
 21
538.2292289255
 31
0.0
  0
LINE
  5
148
330
1F
100
AcDbEntity
  8
1
  6
SLD-Сплошная
100
AcDbLine
 10
1515.7558148977
 20
539.2292289255
 30
0.0
 11
1509.6558148977
 21
539.2292289255
 31
0.0
  0
LINE
  5
149
330
1F
100
AcDbEntity
  8
1
  6
SLD-Сплошная
100
AcDbLine
 10
1302.7711359241
 20
1245.8918341405
 30
0.0
 11
1302.7711359241
 21
1243.442609805
 31
0.0
  0
LINE
  5
14A
330
1F
100
AcDbEntity
  8
1
  6
SLD-Сплошная
100
AcDbLine
 10
1310.548046345
 20
1229.9711461689
 30
0.0
 11
1312.6690219143
 21
1228.7463349673
 31
0.0
  0
LINE
  5
14B
330
1F
100
AcDbEntity
  8
1
  6
SLD-Сплошная
100
AcDbLine
 10
1306.3783065134
 20
1252.709865487
 30
0.0
 11
1305.6711997322
 21
1252.3016614311
 31
0.0
  0
LINE
  5
14C
330
1F
100
AcDbEntity
  8
1
  6
SLD-Сплошная
100
AcDbLine
 10
1319.6700619891
 20
1228.0522932844
 30
0.0
 11
1320.3771687703
 21
1228.4604973403
 31
0.0
  0
LINE
  5
14D
330
1F
100
AcDbEntity
  8
1
  6
SLD-Сплошная
100
AcDbLine
 10
1314.5047248981
 20
1235.8723350567
 30
0.0
 11
1316.128571325
 21
1236.8097616452
 31
0.0
  0
LINE
  5
14E
330
1F
100
AcDbEntity
  8
1
  6
SLD-Сплошная
100
AcDbLine
 10
1311.1994584269
 20
1243.5630750581
 30
0.0
 11
1309.5024021521
 21
1242.583385324
 31
0.0
  0
LINE
  5
14F
330
1F
100
AcDbEntity
  8
1
  6
SLD-Сплошная
100
AcDbLine
 10
1496.0834697287
 20
1030.1612061567
 30
0.0
 11
1496.0834697287
 21
1270.5829639578
 31
0.0
  0
LINE
  5
150
330
1F
100
AcDbEntity
  8
1
  6
SLD-Сплошная
100
AcDbLine
 10
1495.3955678469
 20
1271.7743956997
 30
0.0
 11
1288.6097100702
 21
1391.1493304273
 31
0.0
  0
LINE
  5
151
330
1F
100
AcDbEntity
  8
1
  6
SLD-Сплошная
100
AcDbLine
 10
1275.605241295
 20
1382.9062953262
 30
0.0
 11
1275.605241295
 21
1143.1665136514
 31
0.0
  0
LINE
  5
152
330
1F
100
AcDbEntity
  8
1
  6
SLD-Сплошная
100
AcDbLine
 10
1276.2467147826
 20
1142.0555091715
 30
0.0
 11
1482.4421110609
 21
1023.0214406114
 31
0.0
  0
LINE
  5
153
330
1F
100
AcDbEntity
  8
1
  6
SLD-Сплошная
100
AcDbLine
 10
1498.8618155861
 20
1072.0070814317
 30
0.0
 11
1500.2760291484
 21
1072.8234895435
 31
0.0
  0
LINE
  5
154
330
1F
100
AcDbEntity
  8
1
  6
SLD-Сплошная
100
AcDbLine
 10
1496.6261760326
 20
1208.9752310659
 30
0.0
 11
1496.909018745
 21
1209.1385126883
 31
0.0
  0
LINE
  5
155
330
1F
100
AcDbEntity
  8
1
  6
SLD-Сплошная
100
AcDbLine
 10
1497.8618968534
 20
1211.244598798
 30
0.0
 11
1497.8618968534
 21
1211.3262396092
 31
0.0
  0
LINE
  5
156
330
1F
100
AcDbEntity
  8
1
  6
SLD-Сплошная
100
AcDbLine
 10
1496.272622642
 20
1094.4554153739
 30
0.0
 11
1496.5554653545
 21
1094.6186969963
 31
0.0
  0
LINE
  5
157
330
1F
100
AcDbEntity
  8
1
  6
SLD-Сплошная
100
AcDbLine
 10
1497.5083434628
 20
1096.7247831061
 30
0.0
 11
1497.5083434628
 21
1098.048129881
 31
0.0
  0
LINE
  5
158
330
1F
100
AcDbEntity
  8
1
  6
SLD-Сплошная
100
AcDbLine
 10
1497.5083434628
 20
1097.5935872677
 30
0.0
 11
1497.5633434355
 21
1097.6253380761
 31
0.0
  0
LINE
  5
159
330
1F
100
AcDbEntity
  8
1
  6
SLD-Сплошная
100
AcDbLine
 10
1499.2153689767
 20
1186.5268971237
 30
0.0
 11
1500.2760291485
 21
1187.1392032076
 31
0.0
  0
LINE
  5
15A
330
1F
100
AcDbEntity
  8
1
  6
SLD-Сплошная
100
AcDbLine
 10
1590.1644580641
 20
1081.8966252716
 30
0.0
 11
1590.1644580641
 21
1323.5927055898
 31
0.0
  0
LINE
  5
15B
330
1F
100
AcDbEntity
  8
1
  6
SLD-Сплошная
100
AcDbLine
 10
1589.2679098705
 20
1325.1454553118
 30
0.0
 11
1379.9643026393
 21
1445.9738558616
 31
0.0
  0
LINE
  5
15C
330
1F
100
AcDbEntity
  8
1
  6
SLD-Сплошная
100
AcDbLine
 10
1504.5186698356
 20
1031.1800408374
 30
0.0
 11
1589.0179301874
 21
1079.9604255189
 31
0.0
  0
LINE
  5
15D
330
1F
100
AcDbEntity
  8
1
  6
SLD-Сплошная
100
AcDbLine
 10
1496.0834697287
 20
1034.8950966133
 30
0.0
 11
1502.4834799045
 21
1031.2004493816
 31
0.0
  0
LINE
  5
15E
330
1F
100
AcDbEntity
  8
1
  6
SLD-Сплошная
100
AcDbLine
 10
1292.2151438717
 20
1395.3957923896
 30
0.0
 11
1292.2151438717
 21
1389.0679577969
 31
0.0
  0
LINE
  5
15F
330
1F
100
AcDbEntity
  8
1
  6
SLD-Сплошная
100
AcDbLine
 10
1377.7144854909
 20
1445.9491018363
 30
0.0
 11
1293.2152251391
 21
1397.1687171549
 31
0.0
  0
LWPOLYLINE
  5
160
330
1F
100
AcDbEntity
  8
1
  6
SLD-Сплошная
100
AcDbPolyline
 90
       21
 70
   128
 43
0.0
 10
1312.6706308607
 20
1251.6085487241
 10
1314.2586215233
 20
1250.5437853809
 10
1315.8054840619
 20
1249.2105271552
 10
1317.2711555492
 20
1247.643304735
 10
1318.6176758637
 20
1245.8827083575
 10
1319.8101708364
 20
1243.9743365442
 10
1320.817755474
 20
1241.9676151226
 10
1321.6143338636
 20
1239.9145171236
 10
1322.1792750433
 20
1237.8682167067
 10
1322.4979473333
 20
1235.8817119779
 10
1322.5620972888
 20
1234.0064523663
 10
1322.3700634595
 20
1232.2910061107
 10
1321.9268194208
 20
1230.7798023681
 10
1321.2438449604
 20
1229.5119805217
 10
1320.3388287582
 20
1228.5203764912
 10
1319.2352102583
 20
1227.8306723003
 10
1317.9615726002
 20
1227.4607309251
 10
1316.5509023303
 20
1227.420133653
 10
1315.0397350675
 20
1227.7099319319
 10
1313.4672092502
 20
1228.3226201388
 10
1312.6690219143
 20
1228.7463349673
  0
LWPOLYLINE
  5
161
330
1F
100
AcDbEntity
  8
1
  6
SLD-Сплошная
100
AcDbPolyline
 90
       11
 70
   128
 43
0.0
 10
1302.7711359241
 20
1245.8918341405
 10
1302.843314388
 20
1247.2280900628
 10
1303.1619866781
 20
1248.8466635971
 10
1303.7269278578
 20
1250.2406968118
 10
1304.5235062473
 20
1251.3740849788
 10
1305.5310908849
 20
1252.2174739401
 10
1306.7235858576
 20
1252.7490203644
 10
1308.0701061721
 20
1252.9549574787
 10
1309.5357776594
 20
1252.8299516198
 10
1311.082640198
 20
1252.3772403738
 10
1312.6706308607
 20
1251.6085487241
  0
LWPOLYLINE
  5
162
330
1F
100
AcDbEntity
  8
1
  6
SLD-Сплошная
100
AcDbPolyline
 90
       36
 70
   128
 43
0.0
 10
1310.5493105171
 20
1247.9343141208
 10
1311.9381572196
 20
1246.9882063709
 10
1313.2823652464
 20
1245.7838200736
 10
1314.5387306454
 20
1244.3598651954
 10
1315.666872799
 20
1242.7621088177
 10
1316.6305322901
 20
1241.0419041451
 10
1317.3987363098
 20
1239.2545399713
 10
1317.9467941487
 20
1237.4574636513
 10
1318.2570907771
 20
1235.7084346969
 10
1318.3196530059
 20
1234.0636683375
 10
1318.1324700337
 20
1232.5760287175
 10
1317.7015580752
 20
1231.2933297981
 10
1317.0407669952
 20
1230.2567985781
 10
1316.1713351629
 20
1229.4997500238
 10
1315.1212068327
 20
1229.0465162985
 10
1313.9241339931
 20
1228.9116647072
 10
1312.6185915501
 20
1229.0995294909
 10
1311.2465407122
 20
1229.6040725209
 10
1309.8520803221
 20
1230.4090773691
 10
1308.4800294841
 20
1231.4886705173
 10
1307.1744870412
 20
1232.8081529534
 10
1305.9774142016
 20
1234.3251154263
 10
1304.9272858713
 20
1235.9908015139
 10
1304.057854039
 20
1237.7516746949
 10
1303.397062959
 20
1239.5511390563
 10
1302.9661510005
 20
1241.3313583329
 10
1302.7789680283
 20
1243.0351148125
 10
1302.8415302571
 20
1244.6076483599
 10
1303.1518268855
 20
1245.9984164531
 10
1303.6998847245
 20
1247.1627186612
 10
1304.4680887441
 20
1248.0631333532
 10
1305.4317482352
 20
1248.67072046
 10
1306.5598903888
 20
1248.9659516322
 10
1307.8162557878
 20
1248.939337897
 10
1309.1604638146
 20
1248.5917346416
 10
1310.5493105171
 20
1247.9343141208
  0
LWPOLYLINE
  5
163
330
1F
100
AcDbEntity
  8
1
  6
SLD-Сплошная
100
AcDbPolyline
 90
       16
 70
   128
 43
0.0
 10
1313.3777376419
 20
1252.0167527801
 10
1314.9657283045
 20
1250.9519894368
 10
1316.5125908431
 20
1249.6187312111
 10
1317.9782623304
 20
1248.0515087909
 10
1319.3247826449
 20
1246.2909124134
 10
1320.5172776176
 20
1244.3825406001
 10
1321.5248622552
 20
1242.3758191785
 10
1322.3214406448
 20
1240.3227211795
 10
1322.8863818245
 20
1238.2764207626
 10
1323.2050541145
 20
1236.2899160338
 10
1323.26920407
 20
1234.4146564222
 10
1323.0771702407
 20
1232.6992101666
 10
1322.633926202
 20
1231.1880064241
 10
1321.9509517416
 20
1229.9201845776
 10
1321.0459355393
 20
1228.9285805471
 10
1320.3771687703
 20
1228.4604973403
  0
ARC
  5
164
330
1F
100
AcDbEntity
  8
1
  6
SLD-Сплошная
100
AcDbCircle
 10
1309.2678437267
 20
1246.2013944827
 30
0.0
 40
7.121068748506193
100
AcDbArc
 50
54.7499671021
 51
113.9395744688
  0
LWPOLYLINE
  5
165
330
1F
100
AcDbEntity
  8
1
  6
SLD-Сплошная
100
AcDbPolyline
 90
       30
 70
   128
 43
0.0
 10
1310.5493105171
 20
1245.4846916851
 10
1311.7653669653
 20
1244.629955077
 10
1312.9245619656
 20
1243.5097406759
 10
1313.972692848
 20
1242.1764284623
 10
1314.8607501775
 20
1240.6923626333
 10
1315.5472093802
 20
1239.1269364578
 10
1315.9999723869
 20
1237.5533475238
 10
1316.1978685025
 20
1236.045175101
 10
1316.1316443247
 20
1234.6729396556
 10
1315.8043964223
 20
1233.500805392
 10
1315.2314265436
 20
1232.5835800056
 10
1314.4395261233
 20
1231.964151936
 10
1313.4657235449
 20
1231.6714849513
 10
1312.3555527347
 20
1231.7192638345
 10
1311.1609240459
 20
1232.105254498
 10
1309.9376969883
 20
1232.8114084475
 10
1308.7430682995
 20
1233.804706709
 10
1307.6328974893
 20
1235.03870376
 10
1306.6590949109
 20
1236.4556992696
 10
1305.8671944906
 20
1237.9894361029
 10
1305.2942246119
 20
1239.5681984301
 10
1304.9669767096
 20
1241.1181650794
 10
1304.9007525317
 20
1242.566861333
 10
1305.0986486473
 20
1243.8465477641
 10
1305.551411654
 20
1244.8973876576
 10
1306.2378708568
 20
1245.670244908
 10
1307.1259281862
 20
1246.1289815691
 10
1308.1740590686
 20
1246.2521476245
 10
1309.3332540689
 20
1246.0339839665
 10
1310.5493105171
 20
1245.4846916851
  0
LWPOLYLINE
  5
166
330
1F
100
AcDbEntity
  8
1
  6
SLD-Сплошная
100
AcDbPolyline
 90
       12
 70
   128
 43
0.0
 10
1315.9732654171
 20
1233.9661021367
 10
1314.9793006643
 20
1234.3095563999
 10
1313.7560736067
 20
1235.0157103494
 10
1312.5614449179
 20
1236.0090086109
 10
1311.4512741077
 20
1237.2430056619
 10
1310.4774715293
 20
1238.6600011715
 10
1309.685571109
 20
1240.1937380048
 10
1309.1126012303
 20
1241.772500332
 10
1308.785353328
 20
1243.3224669813
 10
1308.7191291501
 20
1244.7711632349
 10
1308.9170252657
 20
1246.0508496661
 10
1308.9437322356
 20
1246.1429301452
  0
LINE
  5
167
330
1F
100
AcDbEntity
  8
1
  6
SLD-Сплошная
100
AcDbLine
 10
1311.3458644027
 20
1243.60827331
 30
0.0
 11
1312.7203181674
 21
1243.7311701883
 31
0.0
  0
LINE
  5
168
330
1F
100
AcDbEntity
  8
1
  6
SLD-Сплошная
100
AcDbLine
 10
1311.3458644027
 20
1243.60827331
 30
0.0
 11
1311.1994584269
 21
1243.5630750581
 31
0.0
  0
LWPOLYLINE
  5
169
330
1F
100
AcDbEntity
  8
1
  6
SLD-Сплошная
100
AcDbPolyline
 90
        9
 70
   128
 43
0.0
 10
1313.6512121412
 20
1236.2353408607
 10
1313.8217528299
 20
1236.0553170446
 10
1314.0047655318
 20
1235.9218431072
 10
1314.1877782337
 20
1235.8440150767
 10
1314.3583189224
 20
1235.8271368048
 10
1314.5047655318
 20
1235.8723585178
 10
1314.6171379675
 20
1235.9765984308
 10
1314.6877782337
 20
1236.1327527658
 10
1314.711872313
 20
1236.3301798631
  0
LINE
  5
16A
330
1F
100
AcDbEntity
  8
1
  6
SLD-Сплошная
100
AcDbLine
 10
1309.6488081278
 20
1241.2142934032
 30
0.0
 11
1313.6512121412
 21
1236.2353408607
 31
0.0
  0
LWPOLYLINE
  5
16B
330
1F
100
AcDbEntity
  8
1
  6
SLD-Сплошная
100
AcDbPolyline
 90
        9
 70
   128
 43
0.0
 10
1309.6488081278
 20
1242.6285835758
 10
1309.5023615184
 20
1242.5833618628
 10
1309.3899890827
 20
1242.4791219499
 10
1309.3193488165
 20
1242.3229676148
 10
1309.2952547372
 20
1242.1255405175
 10
1309.3193488165
 20
1241.9002949884
 10
1309.3899890827
 20
1241.662581138
 10
1309.5023615184
 20
1241.4285987724
 10
1309.6488081278
 20
1241.2142934032
  0
LINE
  5
16C
330
1F
100
AcDbEntity
  8
1
  6
SLD-Сплошная
100
AcDbLine
 10
1313.3887504262
 20
1242.9629907745
 30
0.0
 11
1309.6488081278
 21
1242.6285835758
 31
0.0
  0
LINE
  5
16D
330
1F
100
AcDbEntity
  8
1
  6
SLD-Сплошная
100
AcDbLine
 10
1314.711872313
 20
1236.3301798631
 30
0.0
 11
1314.711872313
 21
1240.9727420445
 31
0.0
  0
ELLIPSE
  5
16E
330
1F
100
AcDbEntity
  8
1
  6
SLD-Сплошная
100
AcDbEllipse
 10
1483.0833651266
 20
1263.8721602698
 30
0.0
 11
2.691140751008561
 21
0.8754882017078671
 31
0.0
210
0.0
220
0.0
230
1.0
 40
0.2496252377
 41
3.8459599674983
 42
5.416756294293273
  0
ELLIPSE
  5
16F
330
1F
100
AcDbEntity
  8
1
  6
SLD-Сплошная
100
AcDbEllipse
 10
1483.0833651267
 20
1025.7688595239
 30
0.0
 11
2.346496907459141
 21
-1.886933551374341
 31
0.0
210
0.0
220
0.0
230
1.0
 40
0.7078398481
 41
4.444461987405087
 42
6.015258314199996
  0
ELLIPSE
  5
170
330
1F
100
AcDbEntity
  8
1
  6
SLD-Сплошная
100
AcDbEllipse
 10
1483.0833651266
 20
1263.8721602698
 30
0.0
 11
1.698791117366682
 21
0.823810218442077
 31
0.0
210
0.0
220
0.0
230
1.0
 40
0.0778085159
 41
3.889276317879315
 42
5.460072644547836
  0
LINE
  5
171
330
1F
100
AcDbEntity
  8
1
  6
SLD-Сплошная
100
AcDbLine
 10
1481.1741768174
 20
1262.7700093189
 30
0.0
 11
1481.8812835986
 21
1263.1782133748
 31
0.0
  0
ELLIPSE
  5
172
330
1F
100
AcDbEntity
  8
1
  6
SLD-Сплошная
100
AcDbEllipse
 10
1483.0833651266
 20
1263.8721602698
 30
0.0
 11
1.562801634006746
 21
1.059350639215836
 31
0.0
210
0.0
220
0.0
230
1.0
 40
0.0779476132
 41
0.8230997739107769
 42
2.393896100691161
  0
ELLIPSE
  5
173
330
1F
100
AcDbEntity
  8
1
  6
SLD-Сплошная
100
AcDbEllipse
 10
1483.0833651266
 20
1263.8721602698
 30
0.0
 11
2.103726216574387
 21
1.892910169535299
 31
0.0
210
0.0
220
0.0
230
1.0
 40
0.2497537726
 41
0.8663954412395463
 42
2.437191767999699
  0
ELLIPSE
  5
174
330
1F
100
AcDbEntity
  8
1
  6
SLD-Сплошная
100
AcDbEllipse
 10
1278.305241295
 20
1382.0880548617
 30
0.0
 11
-0.4612130825830719
 21
2.975579473067228
 31
0.0
210
0.0
220
0.0
230
1.0
 40
0.7078581484
 41
0.2677802285457031
 42
1.838576555329008
  0
LINE
  5
175
330
1F
100
AcDbEntity
  8
1
  6
SLD-Сплошная
100
AcDbLine
 10
1495.7759318489
 20
1029.7346536635
 30
0.0
 11
1484.9925534359
 21
1023.5095418109
 31
0.0
  0
LINE
  5
176
330
1F
100
AcDbEntity
  8
1
  6
SLD-Сплошная
100
AcDbLine
 10
1495.7759318489
 20
1270.1522879336
 30
0.0
 11
1484.9925534358
 21
1263.9271760809
 31
0.0
  0
LINE
  5
177
330
1F
100
AcDbEntity
  8
1
  6
SLD-Сплошная
100
AcDbLine
 10
1495.0688250677
 20
1270.5604919895
 30
0.0
 11
1484.2854466547
 21
1264.3353801368
 31
0.0
  0
LINE
  5
178
330
1F
100
AcDbEntity
  8
1
  6
SLD-Сплошная
100
AcDbLine
 10
1495.7759318489
 20
1270.1522879336
 30
0.0
 11
1495.0688250677
 21
1270.5604919895
 31
0.0
  0
LINE
  5
179
330
1F
100
AcDbEntity
  8
1
  6
SLD-Сплошная
100
AcDbLine
 10
1277.3031597671
 20
1384.8712044064
 30
0.0
 11
1288.0865381802
 21
1391.096316259
 31
0.0
  0
LINE
  5
17A
330
1F
100
AcDbEntity
  8
1
  6
SLD-Сплошная
100
AcDbLine
 10
1484.0854466545
 20
1265.4983311093
 30
0.0
 11
1494.8688250676
 21
1271.723442962
 31
0.0
  0
LINE
  5
17B
330
1F
100
AcDbEntity
  8
1
  6
SLD-Сплошная
100
AcDbLine
 10
1484.0854466545
 20
1264.6817902974
 30
0.0
 11
1494.8688250676
 21
1270.9069021501
 31
0.0
  0
LINE
  5
17C
330
1F
100
AcDbEntity
  8
1
  6
SLD-Сплошная
100
AcDbLine
 10
1494.8688250676
 20
1271.723442962
 30
0.0
 11
1494.8688250676
 21
1270.9069021501
 31
0.0
  0
LWPOLYLINE
  5
17D
330
1F
100
AcDbEntity
  8
1
  6
SLD-Сплошная
100
AcDbPolyline
 90
       17
 70
   128
 43
0.0
 10
1440.3034048649
 20
1078.717875288
 10
1440.3303175142
 20
1078.8585772665
 10
1440.4069582555
 20
1078.9467859606
 10
1440.5216592304
 20
1078.9690723964
 10
1440.6569582555
 20
1078.922043666
 10
1440.7922572805
 20
1078.8128594672
 10
1440.9069582555
 20
1078.6581421046
 10
1440.9835989967
 20
1078.4814458941
 10
1441.010511646
 20
1078.3096712321
 10
1440.9835989967
 20
1078.1689692536
 10
1440.9069582555
 20
1078.0807605594
 10
1440.7922572805
 20
1078.0584741236
 10
1440.6569582555
 20
1078.1055028541
 10
1440.5216592304
 20
1078.2146870528
 10
1440.4069582555
 20
1078.3694044154
 10
1440.3303175142
 20
1078.5461006259
 10
1440.3034048649
 20
1078.717875288
  0
LWPOLYLINE
  5
17E
330
1F
100
AcDbEntity
  8
1
  6
SLD-Сплошная
100
AcDbPolyline
 90
       17
 70
   128
 43
0.0
 10
1441.010511646
 20
1255.4990274113
 10
1440.9835989967
 20
1255.3583254328
 10
1440.9069582554
 20
1255.2701167386
 10
1440.7922572805
 20
1255.2478303028
 10
1440.6569582554
 20
1255.2948590333
 10
1440.5216592304
 20
1255.4040432321
 10
1440.4069582554
 20
1255.5587605946
 10
1440.3303175142
 20
1255.7354568051
 10
1440.3034048648
 20
1255.9072314672
 10
1440.3303175142
 20
1256.0479334457
 10
1440.4069582554
 20
1256.1361421398
 10
1440.5216592304
 20
1256.1584285756
 10
1440.6569582554
 20
1256.1113998452
 10
1440.7922572805
 20
1256.0022156464
 10
1440.9069582554
 20
1255.8474982838
 10
1440.9835989967
 20
1255.6708020733
 10
1441.010511646
 20
1255.4990274113
  0
LWPOLYLINE
  5
17F
330
1F
100
AcDbEntity
  8
1
  6
SLD-Сплошная
100
AcDbPolyline
 90
       17
 70
   128
 43
0.0
 10
1313.0241842513
 20
1313.0531452935
 10
1313.0510969006
 20
1313.193847272
 10
1313.1277376419
 20
1313.2820559662
 10
1313.2424386168
 20
1313.3043424019
 10
1313.3777376419
 20
1313.2573136715
 10
1313.5130366669
 20
1313.1481294727
 10
1313.6277376419
 20
1312.9934121101
 10
1313.7043783831
 20
1312.8167158997
 10
1313.7312910324
 20
1312.6449412376
 10
1313.7043783831
 20
1312.5042392591
 10
1313.6277376419
 20
1312.4160305649
 10
1313.5130366669
 20
1312.3937441292
 10
1313.3777376419
 20
1312.4407728596
 10
1313.2424386168
 20
1312.5499570584
 10
1313.1277376419
 20
1312.704674421
 10
1313.0510969006
 20
1312.8813706314
 10
1313.0241842513
 20
1313.0531452935
  0
LWPOLYLINE
  5
180
330
1F
100
AcDbEntity
  8
1
  6
SLD-Сплошная
100
AcDbPolyline
 90
       17
 70
   128
 43
0.0
 10
1313.7312910325
 20
1168.1172175338
 10
1313.7043783831
 20
1167.9765155553
 10
1313.6277376419
 20
1167.8883068611
 10
1313.5130366669
 20
1167.8660204254
 10
1313.3777376419
 20
1167.9130491558
 10
1313.2424386168
 20
1168.0222333546
 10
1313.1277376419
 20
1168.1769507172
 10
1313.0510969006
 20
1168.3536469277
 10
1313.0241842513
 20
1168.5254215897
 10
1313.0510969006
 20
1168.6661235682
 10
1313.1277376419
 20
1168.7543322624
 10
1313.2424386168
 20
1168.7766186982
 10
1313.3777376419
 20
1168.7295899677
 10
1313.5130366669
 20
1168.6204057689
 10
1313.6277376419
 20
1168.4656884063
 10
1313.7043783831
 20
1168.2889921959
 10
1313.7312910325
 20
1168.1172175338
  0
LINE
  5
181
330
1F
100
AcDbEntity
  8
1
  6
SLD-Сплошная
100
AcDbLine
 10
1484.0420994388
 20
1264.6566205123
 30
0.0
 11
1484.085509858
 21
1264.6816808139
 31
0.0
  0
SPLINE
  5
182
330
1F
100
AcDbEntity
  8
1
  6
SLD-Сплошная
100
AcDbSpline
210
0.0
220
0.0
230
1.0
 70
     8
 71
     3
 72
     9
 73
     5
 74
     0
 42
0.00000001
 43
0.00000001
 40
0.0
 40
0.0
 40
0.0
 40
0.0
 40
0.5000000000000074
 40
1.0
 40
1.0
 40
1.0
 40
1.0
 10
1495.775931848952
 20
1029.734653663539
 30
0.0
 10
1495.864109386752
 20
1029.800663008743
 30
0.0
 10
1496.04046446235
 20
1029.932681699153
 30
0.0
 10
1496.069134639921
 20
1030.100014861414
 30
0.0
 10
1496.083469728706
 20
1030.183681442544
 30
0.0
  0
SPLINE
  5
183
330
1F
100
AcDbEntity
  8
1
  6
SLD-Сплошная
100
AcDbSpline
210
0.0
220
0.0
230
1.0
 70
     8
 71
     3
 72
    11
 73
     7
 74
     0
 42
0.00000001
 43
0.00000001
 40
0.0
 40
0.0
 40
0.0
 40
0.0
 40
0.2500000000000068
 40
0.5000000000000046
 40
0.7499999999999992
 40
1.0
 40
1.0
 40
1.0
 40
1.0
 10
1495.775931848932
 20
1270.968689410371
 30
0.0
 10
1495.862061516905
 20
1270.909484571932
 30
0.0
 10
1496.03432085285
 20
1270.791074895055
 30
0.0
 10
1496.108044166604
 20
1270.560488671961
 30
0.0
 10
1496.03432085285
 20
1270.329902448868
 30
0.0
 10
1495.862061516905
 20
1270.21149277199
 30
0.0
 10
1495.775931848932
 20
1270.152287933551
 30
0.0
  0
SPLINE
  5
184
330
1F
100
AcDbEntity
  8
1
  6
SLD-Сплошная
100
AcDbSpline
210
0.0
220
0.0
230
1.0
 70
     8
 71
     3
 72
    12
 73
     8
 74
     0
 42
0.00000001
 43
0.00000001
 40
0.0
 40
0.0
 40
0.0
 40
0.0
 40
0.076834993471517
 40
0.1653464171649216
 40
0.3824629150531468
 40
0.659555463824975
 40
1.0
 40
1.0
 40
1.0
 40
1.0
 10
1494.29100760844
 20
1270.111321557891
 30
0.0
 10
1494.328062614236
 20
1270.136518805048
 30
0.0
 10
1494.40780378645
 20
1270.190742464758
 30
0.0
 10
1494.611873885621
 20
1270.333169243752
 30
0.0
 10
1494.939572100708
 20
1270.543202150921
 30
0.0
 10
1495.398378521189
 20
1270.787984884438
 30
0.0
 10
1495.641758118757
 20
1270.904471196618
 30
0.0
 10
1495.775931848932
 20
1270.968689410371
 30
0.0
  0
SPLINE
  5
185
330
1F
100
AcDbEntity
  8
1
  6
SLD-Сплошная
100
AcDbSpline
210
0.0
220
0.0
230
1.0
 70
     8
 71
     3
 72
    11
 73
     7
 74
     0
 42
0.00000001
 43
0.00000001
 40
0.0
 40
0.0
 40
0.0
 40
0.0
 40
0.2500000000000536
 40
0.5000000000000366
 40
0.7500000000001769
 40
1.0
 40
1.0
 40
1.0
 40
1.0
 10
1495.068825067745
 20
1270.56048535446
 30
0.0
 10
1495.072926480506
 20
1270.560906317756
 30
0.0
 10
1495.081129306027
 20
1270.561748244348
 30
0.0
 10
1495.084639940015
 20
1270.560488671961
 30
0.0
 10
1495.081129306027
 20
1270.559229099574
 30
0.0
 10
1495.072926480506
 20
1270.560071026166
 30
0.0
 10
1495.068825067745
 20
1270.560491989463
 30
0.0
  0
LINE
  5
186
330
1F
100
AcDbEntity
  8
1
  6
SLD-Сплошная
100
AcDbLine
 10
1495.0688250677
 20
1270.5604853545
 30
0.0
 11
1495.7759318489
 21
1270.9686894104
 31
0.0
  0
SPLINE
  5
187
330
1F
100
AcDbEntity
  8
1
  6
SLD-Сплошная
100
AcDbSpline
210
0.0
220
0.0
230
1.0
 70
     8
 71
     3
 72
    13
 73
     9
 74
     0
 42
0.00000001
 43
0.00000001
 40
0.0
 40
0.0
 40
0.0
 40
0.0
 40
0.3220863390616991
 40
0.499603395388032
 40
0.6100900277294581
 40
0.729389102128308
 40
0.8589773925953306
 40
1.0
 40
1.0
 40
1.0
 40
1.0
 10
1495.575931848848
 20
1271.315099570984
 30
0.0
 10
1495.457324580598
 20
1271.241728306069
 30
0.0
 10
1495.273347221894
 20
1271.127918657444
 30
0.0
 10
1494.96177338975
 20
1270.964862629469
 30
0.0
 10
1494.74593381674
 20
1270.823678938609
 30
0.0
 10
1494.547095907385
 20
1270.692288103458
 30
0.0
 10
1494.324235070806
 20
1270.556863261645
 30
0.0
 10
1494.170909619372
 20
1270.491693455123
 30
0.0
 10
1494.091007608356
 20
1270.457731718504
 30
0.0
  0
SPLINE
  5
188
330
1F
100
AcDbEntity
  8
1
  6
SLD-Сплошная
100
AcDbSpline
210
0.0
220
0.0
230
1.0
 70
     8
 71
     3
 72
    11
 73
     7
 74
     0
 42
0.00000001
 43
0.00000001
 40
0.0
 40
0.0
 40
0.0
 40
0.0
 40
0.2499999999999998
 40
0.500000000000005
 40
0.7500000000000061
 40
1.0
 40
1.0
 40
1.0
 40
1.0
 10
1494.868825067661
 20
1271.723442961962
 30
0.0
 10
1494.963168830781
 20
1271.768420570309
 30
0.0
 10
1495.151856357022
 20
1271.858375787003
 30
0.0
 10
1495.38843461709
 20
1271.806888969642
 30
0.0
 10
1495.551289563406
 20
1271.627709627533
 30
0.0
 10
1495.5677177537
 20
1271.419302923167
 30
0.0
 10
1495.575931848848
 20
1271.315099570984
 30
0.0
  0
SPLINE
  5
189
330
1F
100
AcDbEntity
  8
1
  6
SLD-Сплошная
100
AcDbSpline
210
0.0
220
0.0
230
1.0
 70
     8
 71
     3
 72
     9
 73
     5
 74
     0
 42
0.00000001
 43
0.00000001
 40
0.0
 40
0.0
 40
0.0
 40
0.0
 40
0.4999489266172416
 40
1.0
 40
1.0
 40
1.0
 40
1.0
 10
1288.629164840579
 20
1391.138080579055
 30
0.0
 10
1288.549548437186
 20
1391.16750483756
 30
0.0
 10
1288.390299363622
 20
1391.226359366369
 30
0.0
 10
1288.187798802904
 20
1391.139666913272
 30
0.0
 10
1288.086538180156
 20
1391.096316259046
 30
0.0
  0
LINE
  5
18A
330
1F
100
AcDbEntity
  8
1
  6
SLD-Сплошная
100
AcDbLine
 10
1494.8688250677
 20
1270.9068955151
 30
0.0
 11
1495.5759318488
 21
1271.315099571
 31
0.0
  0
SPLINE
  5
18B
330
1F
100
AcDbEntity
  8
1
  6
SLD-Сплошная
100
AcDbSpline
210
0.0
220
0.0
230
1.0
 70
     8
 71
     3
 72
    11
 73
     7
 74
     0
 42
0.00000001
 43
0.00000001
 40
0.0
 40
0.0
 40
0.0
 40
0.0
 40
0.2500000000000251
 40
0.5000000000000442
 40
0.7500000000000676
 40
1.0
 40
1.0
 40
1.0
 40
1.0
 10
1494.868825067661
 20
1270.906902150076
 30
0.0
 10
1494.870511648519
 20
1270.910663798314
 30
0.0
 10
1494.873884810236
 20
1270.918187094791
 30
0.0
 10
1494.876732503796
 20
1270.920594913678
 30
0.0
 10
1494.876069563368
 20
1270.916922136148
 30
0.0
 10
1494.871239899564
 20
1270.910237722098
 30
0.0
 10
1494.868825067661
 20
1270.906895515073
 30
0.0
  0
ELLIPSE
  5
18C
330
1F
100
AcDbEntity
  8
1
  6
SLD-Сплошная
100
AcDbEllipse
 10
1278.305241295
 20
1382.0880548618
 30
0.0
 11
2.346496907459141
 21
-1.886933551374114
 31
0.0
210
0.0
220
0.0
230
1.0
 40
0.7078398481
 41
2.873665660610158
 42
4.44446198740509
  0
ELLIPSE
  5
18D
330
1F
100
AcDbEntity
  8
1
  6
SLD-Сплошная
100
AcDbEllipse
 10
1278.305241295
 20
1143.9847541158
 30
0.0
 11
2.691140751008788
 21
0.8754882017078671
 31
0.0
210
0.0
220
0.0
230
1.0
 40
0.2496252377
 41
3.060561804101092
 42
3.845959967498773
  0
ELLIPSE
  5
18E
330
1F
100
AcDbEntity
  8
1
  6
SLD-Сплошная
100
AcDbEllipse
 10
1483.0833651266
 20
1025.7688595239
 30
0.0
 11
-0.4612130825830719
 21
2.975579473067001
 31
0.0
210
0.0
220
0.0
230
1.0
 40
0.7078581484
 41
1.838576555354206
 42
3.409372882135234
  0
ELLIPSE
  5
18F
330
1F
100
AcDbEntity
  8
1
  6
SLD-Сплошная
100
AcDbEllipse
 10
1278.305241295
 20
1143.9847541158
 30
0.0
 11
2.103726216574387
 21
1.892910169535071
 31
0.0
210
0.0
220
0.0
230
1.0
 40
0.2497537726
 41
2.437191768045057
 42
3.222671195490513
  0
LINE
  5
190
330
1F
100
AcDbEntity
  8
1
  6
SLD-Сплошная
100
AcDbLine
 10
1277.2839970808
 20
1384.8599717898
 30
0.0
 11
1276.3960529858
 21
1384.3473725747
 31
0.0
  0
LINE
  5
191
330
1F
100
AcDbEntity
  8
1
  6
SLD-Сплошная
100
AcDbLine
 10
1484.0854466546
 20
1022.9857099792
 30
0.0
 11
1484.992627145
 21
1023.509414129
 31
0.0
  0
ARC
  5
192
330
1F
100
AcDbEntity
  8
1
  6
SLD-Сплошная
100
AcDbCircle
 10
1496.5169677656
 20
1118.8695507499
 30
0.0
 40
2.603316187508525
100
AcDbArc
 50
37.9787348638
 51
58.8941006488
  0
ARC
  5
193
330
1F
100
AcDbEntity
  8
1
  6
SLD-Сплошная
100
AcDbCircle
 10
1497.6198917755
 20
1119.3257429176
 30
0.0
 40
3.073609615144387
100
AcDbArc
 50
2.6054784857
 51
57.39452166
  0
SPLINE
  5
194
330
1F
100
AcDbEntity
  8
1
  6
SLD-Сплошная
100
AcDbSpline
210
0.0
220
0.0
230
1.0
 70
     8
 71
     3
 72
    12
 73
     8
 74
     0
 42
0.00000001
 43
0.00000001
 40
0.0
 40
0.0
 40
0.0
 40
0.0
 40
0.0038128522419034
 40
0.1589839410707388
 40
0.5234324970000709
 40
0.782176888911795
 40
1.0
 40
1.0
 40
1.0
 40
1.0
 10
1499.983217197002
 20
1119.057260566173
 30
0.0
 10
1499.981997958887
 20
1119.058546847091
 30
0.0
 10
1499.93115956593
 20
1119.112180714015
 30
0.0
 10
1499.745500837861
 20
1119.299179639625
 30
0.0
 10
1499.391777203798
 20
1119.630823540745
 30
0.0
 10
1498.930773363519
 20
1120.060824305318
 30
0.0
 10
1498.682487034671
 20
1120.342710129889
 30
0.0
 10
1498.569003634629
 20
1120.471550738813
 30
0.0
  0
SPLINE
  5
195
330
1F
100
AcDbEntity
  8
1
  6
SLD-Сплошная
100
AcDbSpline
210
0.0
220
0.0
230
1.0
 70
     8
 71
     3
 72
    12
 73
     8
 74
     0
 42
0.00000001
 43
0.00000001
 40
0.0
 40
0.0
 40
0.0
 40
0.0
 40
0.2178231110881961
 40
0.4765675029999286
 40
0.8410160589292622
 40
0.9961871477580964
 40
1.0
 40
1.0
 40
1.0
 40
1.0
 10
1498.569003634625
 20
1071.916684927933
 30
0.0
 10
1498.682487034668
 20
1071.946100600297
 30
0.0
 10
1498.930773363515
 20
1072.010458112488
 30
0.0
 10
1499.391777203795
 20
1072.388484398925
 30
0.0
 10
1499.745500837857
 20
1072.857072783334
 30
0.0
 10
1499.931159565927
 20
1073.216156889857
 30
0.0
 10
1499.981997958884
 20
1073.328285951338
 30
0.0
 10
1499.983217196999
 20
1073.330975100573
 30
0.0
  0
LWPOLYLINE
  5
196
330
1F
100
AcDbEntity
  8
1
  6
SLD-Сплошная
100
AcDbPolyline
 90
        9
 70
   128
 43
0.0
 10
1496.0834697287
 20
1100.9344791261
 10
1496.4460341311
 20
1100.4283316946
 10
1497.0703664665
 20
1099.2959569929
 10
1497.491188614
 20
1098.1151808351
 10
1497.6772901199
 20
1096.9735759873
 10
1497.6148686868
 20
1095.9558100585
 10
1497.308553827
 20
1095.1373660917
 10
1496.7810635123
 20
1094.5789443318
 10
1496.0834697287
 20
1094.3234929044
  0
ARC
  5
197
330
1F
100
AcDbEntity
  8
1
  6
SLD-Сплошная
100
AcDbCircle
 10
1498.5185197537
 20
1073.1427969554
 30
0.0
 40
1.22715089787019
100
AcDbArc
 50
237.6507184098
 51
272.3577620583
  0
LINE
  5
198
330
1F
100
AcDbEntity
  8
1
  6
SLD-Сплошная
100
AcDbLine
 10
1496.0834697287
 20
1073.1327616587
 30
0.0
 11
1497.8618968534
 21
1072.1060975327
 31
0.0
  0
LINE
  5
199
330
1F
100
AcDbEntity
  8
1
  6
SLD-Сплошная
100
AcDbLine
 10
1496.0834697287
 20
1122.1252103718
 30
0.0
 11
1497.8618968534
 21
1121.0985462459
 31
0.0
  0
LINE
  5
19A
330
1F
100
AcDbEntity
  8
1
  6
SLD-Сплошная
100
AcDbLine
 10
1496.0834697287
 20
1123.7580265955
 30
0.0
 11
1499.2761104158
 21
1121.9149543577
 31
0.0
  0
LINE
  5
19B
330
1F
100
AcDbEntity
  8
1
  6
SLD-Сплошная
100
AcDbLine
 10
1500.6903239782
 20
1073.7391791565
 30
0.0
 11
1500.6903239782
 21
1119.4654646221
 31
0.0
  0
LINE
  5
19C
330
1F
100
AcDbEntity
  8
1
  6
SLD-Сплошная
100
AcDbLine
 10
1497.5083434628
 20
1097.5037751213
 30
0.0
 11
1497.5872575621
 21
1097.6903023694
 31
0.0
  0
ARC
  5
19D
330
1F
100
AcDbEntity
  8
1
  6
SLD-Сплошная
100
AcDbCircle
 10
1499.7389528652
 20
1073.6180510998
 30
0.0
 40
0.959051093947061
100
AcDbArc
 50
304.0563508726
 51
7.2558295208
  0
LWPOLYLINE
  5
19E
330
1F
100
AcDbEntity
  8
1
  6
SLD-Сплошная
100
AcDbPolyline
 90
        9
 70
   128
 43
0.0
 10
1496.0428747127
 20
1208.7776458115
 10
1496.6263629475
 20
1208.9753389872
 10
1497.1811816676
 20
1209.5109028247
 10
1497.5047199532
 20
1210.325815512
 10
1497.5707666566
 20
1211.3540576696
 10
1497.3739710667
 20
1212.5123272331
 10
1496.9302763919
 20
1213.706788091
 10
1496.2756281358
 20
1214.8406721282
 10
1496.0834697287
 20
1215.1055830055
  0
LWPOLYLINE
  5
19F
330
1F
100
AcDbEntity
  8
1
  6
SLD-Сплошная
100
AcDbPolyline
 90
        8
 70
   128
 43
0.0
 10
1496.90920566
 20
1209.1386206095
 10
1497.46402438
 20
1209.674184447
 10
1497.7875626656
 20
1210.4890971343
 10
1497.8536093691
 20
1211.517339292
 10
1497.6568137792
 20
1212.6756088555
 10
1497.2131191043
 20
1213.8700697133
 10
1496.5584708483
 20
1215.0039537506
 10
1496.0834697287
 20
1215.6193880258
  0
LWPOLYLINE
  5
1A0
330
1F
100
AcDbEntity
  8
1
  6
SLD-Сплошная
100
AcDbPolyline
 90
        8
 70
   128
 43
0.0
 10
1496.0834697287
 20
1094.3628626061
 10
1496.2728095569
 20
1094.4555232952
 10
1496.827628277
 20
1094.9910871327
 10
1497.1511665626
 20
1095.80599982
 10
1497.217213266
 20
1096.8342419776
 10
1497.0204176761
 20
1097.9925115411
 10
1496.5767230013
 20
1099.186972399
 10
1496.0834697287
 20
1100.0787013125
  0
LWPOLYLINE
  5
1A1
330
1F
100
AcDbEntity
  8
1
  6
SLD-Сплошная
100
AcDbPolyline
 90
        8
 70
   128
 43
0.0
 10
1496.5556522694
 20
1094.6188049175
 10
1497.1104709894
 20
1095.1543687551
 10
1497.434009275
 20
1095.9692814424
 10
1497.5000559785
 20
1096.9975236
 10
1497.3032603886
 20
1098.1557931635
 10
1496.8595657137
 20
1099.3502540213
 10
1496.2049174577
 20
1100.4841380586
 10
1496.0834697287
 20
1100.6542981943
  0
ARC
  5
1A2
330
1F
100
AcDbEntity
  8
1
  6
SLD-Сплошная
100
AcDbCircle
 10
1496.8705211562
 20
1233.3893664419
 30
0.0
 40
2.603316187509744
100
AcDbArc
 50
37.9787348638
 51
58.8941006488
  0
ARC
  5
1A3
330
1F
100
AcDbEntity
  8
1
  6
SLD-Сплошная
100
AcDbCircle
 10
1497.6198917754
 20
1233.6414565816
 30
0.0
 40
3.073609615145046
100
AcDbArc
 50
2.6054784857
 51
57.39452166
  0
SPLINE
  5
1A4
330
1F
100
AcDbEntity
  8
1
  6
SLD-Сплошная
100
AcDbSpline
210
0.0
220
0.0
230
1.0
 70
     8
 71
     3
 72
    12
 73
     8
 74
     0
 42
0.00000001
 43
0.00000001
 40
0.0
 40
0.0
 40
0.0
 40
0.0
 40
0.0038128522419034
 40
0.1589839410707369
 40
0.5234324970000735
 40
0.7821768889118048
 40
1.0
 40
1.0
 40
1.0
 40
1.0
 10
1500.336770587592
 20
1233.577076258162
 30
0.0
 10
1500.335551349477
 20
1233.57836253908
 30
0.0
 10
1500.28471295652
 20
1233.631996406004
 30
0.0
 10
1500.099054228451
 20
1233.818995331614
 30
0.0
 10
1499.745330594388
 20
1234.150639232734
 30
0.0
 10
1499.284326754109
 20
1234.580639997308
 30
0.0
 10
1499.036040425261
 20
1234.862525821878
 30
0.0
 10
1498.922557025219
 20
1234.991366430801
 30
0.0
  0
SPLINE
  5
1A5
330
1F
100
AcDbEntity
  8
1
  6
SLD-Сплошная
100
AcDbSpline
210
0.0
220
0.0
230
1.0
 70
     8
 71
     3
 72
    12
 73
     8
 74
     0
 42
0.00000001
 43
0.00000001
 40
0.0
 40
0.0
 40
0.0
 40
0.0
 40
0.2178231110881986
 40
0.4765675029999257
 40
0.8410160589292641
 40
0.9961871477580989
 40
1.0
 40
1.0
 40
1.0
 40
1.0
 10
1498.922557025222
 20
1186.436500619918
 30
0.0
 10
1499.036040425265
 20
1186.465916292282
 30
0.0
 10
1499.284326754112
 20
1186.530273804473
 30
0.0
 10
1499.745330594392
 20
1186.90830009091
 30
0.0
 10
1500.099054228455
 20
1187.376888475319
 30
0.0
 10
1500.284712956523
 20
1187.735972581843
 30
0.0
 10
1500.335551349481
 20
1187.848101643323
 30
0.0
 10
1500.336770587595
 20
1187.850790792558
 30
0.0
  0
ARC
  5
1A6
330
1F
100
AcDbEntity
  8
1
  6
SLD-Сплошная
100
AcDbCircle
 10
1498.8720731443
 20
1187.6626126474
 30
0.0
 40
1.227150897867274
100
AcDbArc
 50
237.6507184097
 51
272.3577620584
  0
LINE
  5
1A7
330
1F
100
AcDbEntity
  8
1
  6
SLD-Сплошная
100
AcDbLine
 10
1496.0834697287
 20
1187.8566793786
 30
0.0
 11
1498.215450244
 21
1186.6259132247
 31
0.0
  0
LINE
  5
1A8
330
1F
100
AcDbEntity
  8
1
  6
SLD-Сплошная
100
AcDbLine
 10
1496.0834697287
 20
1236.8491280918
 30
0.0
 11
1498.215450244
 21
1235.6183619378
 31
0.0
  0
LINE
  5
1A9
330
1F
100
AcDbEntity
  8
1
  6
SLD-Сплошная
100
AcDbLine
 10
1496.0834697287
 20
1238.0737402595
 30
0.0
 11
1499.2761104158
 21
1236.2306680217
 31
0.0
  0
LINE
  5
1AA
330
1F
100
AcDbEntity
  8
1
  6
SLD-Сплошная
100
AcDbLine
 10
1500.6903239782
 20
1188.0548928205
 30
0.0
 11
1500.6903239782
 21
1233.7811782861
 31
0.0
  0
ARC
  5
1AB
330
1F
100
AcDbEntity
  8
1
  6
SLD-Сплошная
100
AcDbCircle
 10
1499.7389528663
 20
1187.9337647634
 30
0.0
 40
0.9590510929292496
100
AcDbArc
 50
304.0563508352
 51
7.2558295582
  0
ARC
  5
1AC
330
1F
100
AcDbEntity
  8
1
  6
SLD-Сплошная
100
AcDbCircle
 10
1566.4151670762
 20
1099.4752751789
 30
0.0
 40
0.7434844047918929
100
AcDbArc
 50
301.605935059
 51
358.3994410342
  0
LINE
  5
1AD
330
1F
100
AcDbEntity
  8
1
  6
SLD-Сплошная
100
AcDbLine
 10
1440.927068833
 20
1078.3693089658
 30
0.0
 11
1441.0105116987
 21
1078.3096048516
 31
0.0
  0
ARC
  5
1AE
330
1F
100
AcDbEntity
  8
1
  6
SLD-Сплошная
100
AcDbCircle
 10
1441.4273771164
 20
1078.9561659878
 30
0.0
 40
0.7711741325349992
100
AcDbArc
 50
182.5360030193
 51
229.5516915869
  0
ELLIPSE
  5
1AF
330
1F
100
AcDbEntity
  8
1
  6
SLD-Сплошная
100
AcDbEllipse
 10
1503.5187511029
 20
1032.9121385622
 30
0.0
 11
1.999729017872141
 21
-0.05915489560311471
 31
0.0
210
0.0
220
0.0
230
1.0
 40
0.5565381198
 41
3.943452537651872
 42
5.51424886444959
  0
ELLIPSE
  5
1B0
330
1F
100
AcDbEntity
  8
1
  6
SLD-Сплошная
100
AcDbEllipse
 10
1503.5187511029
 20
1274.6082188804
 30
0.0
 11
1.999640479969003
 21
0.06348472506738291
 31
0.0
210
0.0
220
0.0
230
0.9999999999999999
 40
0.5973141191
 41
3.908029519497538
 42
5.478825846289732
  0
ELLIPSE
  5
1B1
330
1F
100
AcDbEntity
  8
1
  6
SLD-Сплошная
100
AcDbEllipse
 10
1503.5187511029
 20
1274.6082188804
 30
0.0
 11
0.9991743340488028
 21
0.06590621738337175
 31
0.0
210
0.0
220
0.0
230
1.0
 40
0.616454653
 41
3.886351437151282
 42
5.457147763943401
  0
LINE
  5
1B2
330
1F
100
AcDbEntity
  8
1
  6
SLD-Сплошная
100
AcDbLine
 10
1504.9329646653
 20
1273.7918107686
 30
0.0
 11
1504.2258578841
 21
1274.2000148245
 31
0.0
  0
LINE
  5
1B3
330
1F
100
AcDbEntity
  8
1
  6
SLD-Сплошная
100
AcDbLine
 10
1502.8116443218
 20
1274.14227667
 30
0.0
 11
1502.1045375406
 21
1273.7340726141
 31
0.0
  0
ELLIPSE
  5
1B4
330
1F
100
AcDbEntity
  8
1
  6
SLD-Сплошная
100
AcDbEllipse
 10
1503.5187511029
 20
1274.6082188804
 30
0.0
 11
1.054720450917102
 21
1.700046099196924
 31
0.0
210
0.0
220
0.0
230
0.9999999999999997
 40
0.5974079498
 41
0.804281400166981
 42
2.375077726965283
  0
ELLIPSE
  5
1B5
330
1F
100
AcDbEntity
  8
1
  6
SLD-Сплошная
100
AcDbEllipse
 10
1294.2151438717
 20
1395.4366194302
 30
0.0
 11
0.9485527510416887
 21
1.76143768147449
 31
0.0
210
0.0
220
0.0
230
1.0
 40
0.5566319546
 41
0.7688525864771614
 42
2.339648913271631
  0
ARC
  5
1B6
330
1F
100
AcDbEntity
  8
1
  6
SLD-Сплошная
100
AcDbCircle
 10
1586.3617928144
 20
1322.4324737455
 30
0.0
 40
3.073609615134855
100
AcDbArc
 50
2.6054784855
 51
57.3945216601
  0
ARC
  5
1B7
330
1F
100
AcDbEntity
  8
1
  6
SLD-Сплошная
100
AcDbCircle
 10
1501.8625324626
 20
1273.652089064
 30
0.0
 40
3.073609615144107
100
AcDbArc
 50
2.6054784857
 51
57.39452166
  0
ARC
  5
1B8
330
1F
100
AcDbEntity
  8
1
  6
SLD-Сплошная
100
AcDbCircle
 10
1502.6906417828
 20
1274.1301539722
 30
0.0
 40
1.536804807571627
100
AcDbArc
 50
2.6054784856
 51
57.39452166
  0
LINE
  5
1B9
330
1F
100
AcDbEntity
  8
1
  6
SLD-Сплошная
100
AcDbLine
 10
1503.5187511029
 20
1275.4247596923
 30
0.0
 11
1503.5187511029
 21
1276.2413005042
 31
0.0
  0
ELLIPSE
  5
1BA
330
1F
100
AcDbEntity
  8
1
  6
SLD-Сплошная
100
AcDbEllipse
 10
1503.5187511029
 20
1274.6082188804
 30
0.0
 11
0.5566258153576199
 21
0.8323823098094179
 31
0.0
210
0.0
220
0.0
230
0.9999999999999996
 40
0.6165484625
 41
0.8259634570541748
 42
2.396759783855581
  0
LINE
  5
1BB
330
1F
100
AcDbEntity
  8
1
  6
SLD-Сплошная
100
AcDbLine
 10
1502.7616443218
 20
1274.2288792101
 30
0.0
 11
1502.0545375406
 21
1273.8206751542
 31
0.0
  0
LWPOLYLINE
  5
1BC
330
1F
100
AcDbEntity
  8
1
  6
SLD-Сплошная
100
AcDbPolyline
 90
       17
 70
   128
 43
0.0
 10
1567.1583614097
 20
1098.6379678163
 10
1567.0230623847
 20
1098.5909390858
 10
1566.9083614097
 20
1098.6132255216
 10
1566.8317206685
 20
1098.7014342158
 10
1566.8048080191
 20
1098.8421361943
 10
1566.8317206685
 20
1099.0139108563
 10
1566.9083614097
 20
1099.1906070668
 10
1567.0230623847
 20
1099.3453244294
 10
1567.1583614097
 20
1099.4545086282
 10
1567.2936604348
 20
1099.5015373586
 10
1567.4083614097
 20
1099.4792509229
 10
1567.4850021509
 20
1099.3910422287
 10
1567.5119148003
 20
1099.2503402502
 10
1567.4850021509
 20
1099.0785655881
 10
1567.4083614097
 20
1098.9018693777
 10
1567.2936604348
 20
1098.7471520151
 10
1567.1583614097
 20
1098.6379678163
  0
LWPOLYLINE
  5
1BD
330
1F
100
AcDbEntity
  8
1
  6
SLD-Сплошная
100
AcDbPolyline
 90
       17
 70
   128
 43
0.0
 10
1531.8030223504
 20
1086.3931731396
 10
1531.6677233254
 20
1086.3461444091
 10
1531.5530223504
 20
1086.3684308449
 10
1531.4763816092
 20
1086.4566395391
 10
1531.4494689598
 20
1086.5973415176
 10
1531.4763816092
 20
1086.7691161796
 10
1531.5530223504
 20
1086.9458123901
 10
1531.6677233254
 20
1087.1005297527
 10
1531.8030223504
 20
1087.2097139515
 10
1531.9383213754
 20
1087.2567426819
 10
1532.0530223504
 20
1087.2344562462
 10
1532.1296630916
 20
1087.146247552
 10
1532.156575741
 20
1087.0055455735
 10
1532.1296630916
 20
1086.8337709114
 10
1532.0530223504
 20
1086.657074701
 10
1531.9383213754
 20
1086.5023573384
 10
1531.8030223504
 20
1086.3931731396
  0
LWPOLYLINE
  5
1BE
330
1F
100
AcDbEntity
  8
1
  6
SLD-Сплошная
100
AcDbPolyline
 90
       17
 70
   128
 43
0.0
 10
1531.8030223504
 20
1250.5178763286
 10
1531.9383213754
 20
1250.5649050591
 10
1532.0530223504
 20
1250.5426186233
 10
1532.1296630916
 20
1250.4544099291
 10
1532.156575741
 20
1250.3137079506
 10
1532.1296630916
 20
1250.1419332886
 10
1532.0530223504
 20
1249.9652370781
 10
1531.9383213754
 20
1249.8105197155
 10
1531.8030223504
 20
1249.7013355167
 10
1531.6677233254
 20
1249.6543067863
 10
1531.5530223504
 20
1249.6765932221
 10
1531.4763816092
 20
1249.7648019162
 10
1531.4494689598
 20
1249.9055038947
 10
1531.4763816092
 20
1250.0772785568
 10
1531.5530223504
 20
1250.2539747673
 10
1531.6677233254
 20
1250.4086921299
 10
1531.8030223504
 20
1250.5178763286
  0
LINE
  5
1BF
330
1F
100
AcDbEntity
  8
1
  6
SLD-Сплошная
100
AcDbLine
 10
1502.1045375406
 20
1032.1534686049
 30
0.0
 11
1496.0834697287
 21
1042.5822639402
 31
0.0
  0
LINE
  5
1C0
330
1F
100
AcDbEntity
  8
1
  6
SLD-Сплошная
100
AcDbLine
 10
1502.1045375406
 20
1273.7340726141
 30
0.0
 11
1496.0834697287
 21
1270.2570542016
 31
0.0
  0
LINE
  5
1C1
330
1F
100
AcDbEntity
  8
1
  6
SLD-Сплошная
100
AcDbLine
 10
1496.0834697287
 20
1270.3725305106
 30
0.0
 11
1502.0545375406
 21
1273.8206751542
 31
0.0
  0
LINE
  5
1C2
330
1F
100
AcDbEntity
  8
1
  6
SLD-Сплошная
100
AcDbLine
 10
1292.8509303093
 20
1394.5913469327
 30
0.0
 11
1297.951908062
 21
1385.7561943227
 31
0.0
  0
LINE
  5
1C3
330
1F
100
AcDbEntity
  8
1
  6
SLD-Сплошная
100
AcDbLine
 10
1496.0834697287
 20
1270.3723978105
 30
0.0
 11
1502.7616443218
 21
1274.2288792101
 31
0.0
  0
LINE
  5
1C4
330
1F
100
AcDbEntity
  8
1
  6
SLD-Сплошная
100
AcDbLine
 10
1496.4071567256
 20
1270.5591731114
 30
0.0
 11
1496.4070303187
 21
1270.5592460846
 31
0.0
  0
LINE
  5
1C5
330
1F
100
AcDbEntity
  8
1
  6
SLD-Сплошная
100
AcDbLine
 10
1495.7000499445
 20
1270.1509690555
 30
0.0
 11
1496.4071567256
 21
1270.5591731114
 31
0.0
  0
LINE
  5
1C6
330
1F
100
AcDbEntity
  8
1
  6
SLD-Сплошная
100
AcDbLine
 10
1496.0834697287
 20
1270.3722518404
 30
0.0
 11
1496.4071567256
 21
1270.5591731114
 31
0.0
  0
LINE
  5
1C7
330
1F
100
AcDbEntity
  8
1
  6
SLD-Сплошная
100
AcDbLine
 10
1487.9124019169
 20
1266.4706135466
 30
0.0
 11
1483.382238294
 21
1263.8554057534
 31
0.0
  0
ELLIPSE
  5
1C8
330
1F
100
AcDbEntity
  8
1
  6
SLD-Сплошная
100
AcDbEllipse
 10
1489.3266154792
 20
1266.4707462467
 30
0.0
 11
1.580529840019154
 21
0.1927335649925226
 31
0.0
210
0.0
220
0.0
230
1.0
 40
0.2276700627
 41
2.329626122632541
 42
2.650189545573328
  0
ELLIPSE
  5
1C9
330
1F
100
AcDbEntity
  8
1
  6
SLD-Сплошная
100
AcDbEllipse
 10
1587.6644580641
 20
1323.1266970293
 30
0.0
 11
2.493080340725328
 21
0.9065865826364644
 31
0.0
210
0.0
220
0.0
230
0.9999999999999999
 40
0.2050299685
 41
0.3206699638822444
 42
0.7109785221995883
  0
ARC
  5
1CA
330
1F
100
AcDbEntity
  8
1
  6
SLD-Сплошная
100
AcDbCircle
 10
1588.9303557292
 20
1082.0091644991
 30
0.0
 40
1.239223002914749
100
AcDbArc
 50
293.8903166265
 51
354.7895424157
  0
LWPOLYLINE
  5
1CB
330
1F
100
AcDbEntity
  8
1
  6
SLD-Сплошная
100
AcDbPolyline
 90
        9
 70
   128
 43
0.0
 10
1589.4322250171
 20
1322.57219545
 10
1589.6729218135
 20
1322.7333272949
 10
1589.8699651343
 20
1322.91313752
 10
1590.0190722903
 20
1323.1077179933
 10
1590.1170024735
 20
1323.3128395552
 10
1590.1616271948
 20
1323.5240439379
 10
1590.1519765468
 20
1323.7367406651
 10
1590.088260284
 20
1323.9463068246
 10
1589.9718632639
 20
1324.1481875465
  0
LWPOLYLINE
  5
1CC
330
1F
100
AcDbEntity
  8
1
  6
SLD-Сплошная
100
AcDbPolyline
 90
        3
 70
   128
 43
0.0
 10
1589.1492993054
 20
1323.7155017403
 10
1589.118739396
 20
1323.8048663307
 10
1589.048901184
 20
1323.9259947638
  0
LINE
  5
1CD
330
1F
100
AcDbEntity
  8
1
  6
SLD-Сплошная
100
AcDbLine
 10
1589.9718632639
 20
1324.1481875465
 30
0.0
 11
1589.048901184
 21
1323.9259947638
 31
0.0
  0
LINE
  5
1CE
330
1F
100
AcDbEntity
  8
1
  6
SLD-Сплошная
100
AcDbLine
 10
1589.6528276702
 20
1324.7007734026
 30
0.0
 11
1588.998901184
 21
1324.0125973039
 31
0.0
  0
LWPOLYLINE
  5
1CF
330
1F
100
AcDbEntity
  8
1
  6
SLD-Сплошная
100
AcDbPolyline
 90
        3
 70
   128
 43
0.0
 10
1588.998901184
 20
1324.0125973039
 10
1588.9289086224
 20
1324.1336628745
 10
1588.8668710716
 20
1324.204745462
  0
LWPOLYLINE
  5
1D0
330
1F
100
AcDbEntity
  8
1
  6
SLD-Сплошная
100
AcDbPolyline
 90
        9
 70
   128
 43
0.0
 10
1589.6528276702
 20
1324.7007734026
 10
1589.5361734009
 20
1324.9025493535
 10
1589.3865222475
 20
1325.0625463986
 10
1589.2071268418
 20
1325.1772870405
 10
1589.0018862996
 20
1325.2442774191
 10
1588.7752614747
 20
1325.2620615146
 10
1588.5321780032
 20
1325.230252794
 10
1588.2779192456
 20
1325.1495426122
 10
1588.0180114547
 20
1325.0216851856
  0
ELLIPSE
  5
1D1
330
1F
100
AcDbEntity
  8
1
  6
SLD-Сплошная
100
AcDbEllipse
 10
1587.6144580642
 20
1323.2132995694
 30
0.0
 11
2.031629674499754
 21
1.705837126210554
 31
0.0
210
0.0
220
0.0
230
0.9999999999999999
 40
0.2051618287
 41
5.572177975264067
 42
5.962486533547223
  0
ARC
  5
1D2
330
1F
100
AcDbEntity
  8
1
  6
SLD-Сплошная
100
AcDbCircle
 10
1379.4446386642
 20
1444.8487429447
 30
0.0
 40
1.239326318125365
100
AcDbArc
 50
65.2088626956
 51
126.1015957335
  0
ELLIPSE
  5
1D3
330
1F
100
AcDbEntity
  8
1
  6
SLD-Сплошная
100
AcDbEllipse
 10
1587.6144580642
 20
1323.2132995694
 30
0.0
 11
1.499999998513658
 21
0.8660723226607842
 31
0.0
210
0.0
220
0.0
230
1.0
 40
0.0000703729
 41
5.497746512132107
 42
5.888055069616123
  0
LINE
  5
1D4
330
1F
100
AcDbEntity
  8
1
  6
SLD-Сплошная
100
AcDbLine
 10
1589.4322250171
 20
1324.1472071691
 30
0.0
 11
1589.0491262132
 21
1323.9260489371
 31
0.0
  0
LINE
  5
1D5
330
1F
100
AcDbEntity
  8
1
  6
SLD-Сплошная
100
AcDbLine
 10
1589.3822250171
 20
1324.2338097092
 30
0.0
 11
1588.9928137022
 21
1324.0090073421
 31
0.0
  0
LINE
  5
1D6
330
1F
100
AcDbEntity
  8
1
  6
SLD-Сплошная
100
AcDbLine
 10
1588.9928461321
 20
1324.0089529902
 30
0.0
 11
1589.3822250171
 21
1324.2338097092
 31
0.0
  0
LINE
  5
1D7
330
1F
100
AcDbEntity
  8
1
  6
SLD-Сплошная
100
AcDbLine
 10
1496.0834697287
 20
1042.4667876312
 30
0.0
 11
1502.0545375406
 21
1032.124594836
 31
0.0
  0
LINE
  5
1D8
330
1F
100
AcDbEntity
  8
1
  6
SLD-Сплошная
100
AcDbLine
 10
1502.1045456676
 20
1032.1534639132
 30
0.0
 11
1502.0545375406
 21
1032.124594836
 31
0.0
  0
LINE
  5
1D9
330
1F
100
AcDbEntity
  8
1
  6
SLD-Сплошная
100
AcDbLine
 10
1297.851908062
 20
1385.8139230939
 30
0.0
 11
1292.8009303093
 21
1394.5624731638
 31
0.0
  0
LINE
  5
1DA
330
1F
100
AcDbEntity
  8
1
  6
SLD-Сплошная
100
AcDbLine
 10
1292.8509343725
 20
1394.591339895
 30
0.0
 11
1292.8009303093
 21
1394.5624731638
 31
0.0
  0
ARC
  5
1DB
330
1F
100
AcDbEntity
  8
1
  6
SLD-Сплошная
100
AcDbCircle
 10
1588.4522212317
 20
1080.7679416483
 30
0.0
 40
0.9859558417263384
100
AcDbArc
 50
305.0133322457
 51
6.2988481477
  0
ARC
  5
1DC
330
1F
100
AcDbEntity
  8
1
  6
SLD-Сплошная
100
AcDbCircle
 10
1504.0708159305
 20
1031.9558760566
 30
0.0
 40
0.8734183948570144
100
AcDbArc
 50
230.7967147643
 51
9.2140369905
  0
LINE
  5
1DD
330
1F
100
AcDbEntity
  8
1
  6
SLD-Сплошная
100
AcDbLine
 10
1503.5187511029
 20
1031.7983901786
 30
0.0
 11
1503.5187511029
 21
1031.2790569384
 31
0.0
  0
ELLIPSE
  5
1DE
330
1F
100
AcDbEntity
  8
1
  6
SLD-Сплошная
100
AcDbEllipse
 10
1503.5187511029
 20
1032.9121385622
 30
0.0
 11
1.054720450917102
 21
1.700046099196697
 31
0.0
210
0.0
220
0.0
230
0.9999999999999997
 40
0.5974079498
 41
2.37507772696545
 42
3.945874053760485
  0
ELLIPSE
  5
1DF
330
1F
100
AcDbEntity
  8
1
  6
SLD-Сплошная
100
AcDbEllipse
 10
1294.2151438717
 20
1395.4366194301
 30
0.0
 11
1.999640479968548
 21
0.06348472510717329
 31
0.0
210
0.0
220
0.0
230
1.0
 40
0.5973141192
 41
2.337233192689196
 42
3.908029519483881
  0
LINE
  5
1E0
330
1F
100
AcDbEntity
  8
1
  6
SLD-Сплошная
100
AcDbLine
 10
1293.250420823
 20
1395.9935421917
 30
0.0
 11
1292.8009303093
 21
1396.253027542
 31
0.0
  0
ARC
  5
1E1
330
1F
100
AcDbEntity
  8
1
  6
SLD-Сплошная
100
AcDbCircle
 10
1293.6630790442
 20
1396.3928819358
 30
0.0
 40
0.8734183948593469
100
AcDbArc
 50
50.7967147646
 51
189.2140369903
  0
ARC
  5
1E2
330
1F
100
AcDbEntity
  8
1
  6
SLD-Сплошная
100
AcDbCircle
 10
1378.1285641138
 20
1445.0323230771
 30
0.0
 40
1.005954471804386
100
AcDbArc
 50
54.3824225248
 51
114.3071190461
  0
LINE
  5
1E3
330
1F
100
AcDbEntity
  8
0
  6
SLD-Сплошная
 62
     8
370
    18
100
AcDbLine
 10
1314.711872313
 20
1236.3301798631
 30
0.0
 11
1316.081756489
 21
1237.1209971649
 31
0.0
  0
LINE
  5
1E4
330
1F
100
AcDbEntity
  8
0
  6
SLD-Сплошная
 62
     8
370
    18
100
AcDbLine
 10
1311.3458644027
 20
1243.60827331
 30
0.0
 11
1309.6488081278
 21
1242.6285835758
 31
0.0
  0
LINE
  5
1E5
330
1F
100
AcDbEntity
  8
0
  6
SLD-Сплошная
 62
     8
370
    18
100
AcDbLine
 10
1484.9925534358
 20
1263.9271760809
 30
0.0
 11
1484.9925534359
 21
1023.5095418109
 31
0.0
  0
LINE
  5
1E6
330
1F
100
AcDbEntity
  8
0
  6
SLD-Сплошная
 62
     8
370
    18
100
AcDbLine
 10
1481.1741768174
 20
1262.7700093189
 30
0.0
 11
1481.1741768174
 21
1024.6667085729
 31
0.0
  0
LINE
  5
1E7
330
1F
100
AcDbEntity
  8
0
  6
SLD-Сплошная
 62
     8
370
    18
100
AcDbLine
 10
1484.9925534358
 20
1263.9271760809
 30
0.0
 11
1484.2854466547
 21
1264.3353801368
 31
0.0
  0
LINE
  5
1E8
330
1F
100
AcDbEntity
  8
0
  6
SLD-Сплошная
 62
     8
370
    18
100
AcDbLine
 10
1484.0854466545
 20
1265.4983311093
 30
0.0
 11
1484.0854466545
 21
1264.6817902974
 31
0.0
  0
LINE
  5
1E9
330
1F
100
AcDbEntity
  8
0
  6
SLD-Сплошная
 62
     8
370
    18
100
AcDbLine
 10
1276.3960529858
 20
1380.9859039108
 30
0.0
 11
1481.1741768174
 21
1262.7700093189
 31
0.0
  0
LINE
  5
1EA
330
1F
100
AcDbEntity
  8
0
  6
SLD-Сплошная
 62
     8
370
    18
100
AcDbLine
 10
1277.3031597671
 20
1384.8712044064
 30
0.0
 11
1484.0854466545
 21
1265.4983311093
 31
0.0
  0
LINE
  5
1EB
330
1F
100
AcDbEntity
  8
0
  6
SLD-Сплошная
 62
     8
370
    18
100
AcDbLine
 10
1495.7759318489
 20
1270.1522879336
 30
0.0
 11
1495.775931849
 21
1029.7346536635
 31
0.0
  0
LINE
  5
1EC
330
1F
100
AcDbEntity
  8
0
  6
SLD-Сплошная
 62
     8
370
    18
100
AcDbLine
 10
1288.0865381802
 20
1391.096316259
 30
0.0
 11
1494.8688250676
 21
1271.723442962
 31
0.0
  0
LINE
  5
1ED
330
1F
100
AcDbEntity
  8
0
  6
SLD-Сплошная
 62
     8
370
    18
100
AcDbLine
 10
1276.3960529858
 20
1142.8826031648
 30
0.0
 11
1481.1741768174
 21
1024.6667085729
 31
0.0
  0
LINE
  5
1EE
330
1F
100
AcDbEntity
  8
0
  6
SLD-Сплошная
 62
     8
370
    18
100
AcDbLine
 10
1276.3960529858
 20
1380.9859039108
 30
0.0
 11
1276.3960529858
 21
1142.8826031648
 31
0.0
  0
LINE
  5
1EF
330
1F
100
AcDbEntity
  8
0
  6
SLD-Сплошная
 62
     8
370
    18
100
AcDbLine
 10
1276.3960529858
 20
1384.3473725747
 30
0.0
 11
1276.6316853819
 21
1384.2113448879
 31
0.0
  0
LINE
  5
1F0
330
1F
100
AcDbEntity
  8
0
  6
SLD-Сплошная
 62
     8
370
    18
100
AcDbLine
 10
1484.0854466546
 20
1022.9857099792
 30
0.0
 11
1484.0854466546
 21
1023.2580273915
 31
0.0
  0
LINE
  5
1F1
330
1F
100
AcDbEntity
  8
0
  6
SLD-Сплошная
 62
     8
370
    18
100
AcDbLine
 10
1497.8618968534
 20
1121.0985462459
 30
0.0
 11
1499.2761104158
 21
1121.9149543577
 31
0.0
  0
LINE
  5
1F2
330
1F
100
AcDbEntity
  8
0
  6
SLD-Сплошная
 62
     8
370
    18
100
AcDbLine
 10
1500.6903239782
 20
1119.4654646221
 30
0.0
 11
1499.983217197
 21
1119.0572605662
 31
0.0
  0
LINE
  5
1F3
330
1F
100
AcDbEntity
  8
0
  6
SLD-Сплошная
 62
     8
370
    18
100
AcDbLine
 10
1498.5690036346
 20
1120.4715507388
 30
0.0
 11
1498.5690036346
 21
1071.9166849279
 31
0.0
  0
LINE
  5
1F4
330
1F
100
AcDbEntity
  8
0
  6
SLD-Сплошная
 62
     8
370
    18
100
AcDbLine
 10
1499.983217197
 20
1119.0572605662
 30
0.0
 11
1499.983217197
 21
1073.3309751006
 31
0.0
  0
LINE
  5
1F5
330
1F
100
AcDbEntity
  8
0
  6
SLD-Сплошная
 62
     8
370
    18
100
AcDbLine
 10
1499.983217197
 20
1073.3309751006
 30
0.0
 11
1500.6903239782
 21
1073.7391791565
 31
0.0
  0
LINE
  5
1F6
330
1F
100
AcDbEntity
  8
0
  6
SLD-Сплошная
 62
     8
370
    18
100
AcDbLine
 10
1498.215450244
 20
1235.6183619378
 30
0.0
 11
1499.2761104158
 21
1236.2306680217
 31
0.0
  0
LINE
  5
1F7
330
1F
100
AcDbEntity
  8
0
  6
SLD-Сплошная
 62
     8
370
    18
100
AcDbLine
 10
1500.6903239782
 20
1233.7811782861
 30
0.0
 11
1500.3367705876
 21
1233.5770762582
 31
0.0
  0
LINE
  5
1F8
330
1F
100
AcDbEntity
  8
0
  6
SLD-Сплошная
 62
     8
370
    18
100
AcDbLine
 10
1498.9225570252
 20
1234.9913664308
 30
0.0
 11
1498.9225570252
 21
1186.4365006199
 31
0.0
  0
LINE
  5
1F9
330
1F
100
AcDbEntity
  8
0
  6
SLD-Сплошная
 62
     8
370
    18
100
AcDbLine
 10
1500.3367705876
 20
1233.5770762582
 30
0.0
 11
1500.3367705876
 21
1187.8507907926
 31
0.0
  0
LINE
  5
1FA
330
1F
100
AcDbEntity
  8
0
  6
SLD-Сплошная
 62
     8
370
    18
100
AcDbLine
 10
1500.3367705876
 20
1187.8507907926
 30
0.0
 11
1500.6903239782
 21
1188.0548928205
 31
0.0
  0
LINE
  5
1FB
330
1F
100
AcDbEntity
  8
0
  6
SLD-Сплошная
 62
     8
370
    18
100
AcDbLine
 10
1504.9329646653
 20
1273.7918107686
 30
0.0
 11
1504.9329646653
 21
1032.0957304504
 31
0.0
  0
LINE
  5
1FC
330
1F
100
AcDbEntity
  8
0
  6
SLD-Сплошная
 62
     8
370
    18
100
AcDbLine
 10
1502.1045375406
 20
1032.1534686049
 30
0.0
 11
1502.1045375406
 21
1273.7340726141
 31
0.0
  0
LINE
  5
1FD
330
1F
100
AcDbEntity
  8
0
  6
SLD-Сплошная
 62
     8
370
    18
100
AcDbLine
 10
1294.2151438717
 20
1397.0697010539
 30
0.0
 11
1503.5187511029
 21
1276.2413005042
 31
0.0
  0
LINE
  5
1FE
330
1F
100
AcDbEntity
  8
0
  6
SLD-Сплошная
 62
     8
370
    18
100
AcDbLine
 10
1502.0545375406
 20
1273.8206751542
 30
0.0
 11
1292.8509303093
 21
1394.5913469327
 31
0.0
  0
LINE
  5
1FF
330
1F
100
AcDbEntity
  8
0
  6
SLD-Сплошная
 62
     8
370
    18
100
AcDbLine
 10
1588.0180114547
 20
1325.0216851856
 30
0.0
 11
1503.5187511029
 21
1276.2413005042
 31
0.0
  0
LINE
  5
200
330
1F
100
AcDbEntity
  8
0
  6
SLD-Сплошная
 62
     8
370
    18
100
AcDbLine
 10
1589.4322250171
 20
1322.57219545
 30
0.0
 11
1504.9329646653
 21
1273.7918107686
 31
0.0
  0
LINE
  5
201
330
1F
100
AcDbEntity
  8
0
  6
SLD-Сплошная
 62
     8
370
    18
100
AcDbLine
 10
1589.4322250171
 20
1322.57219545
 30
0.0
 11
1589.4322250171
 21
1080.8761151318
 31
0.0
  0
LINE
  5
202
330
1F
100
AcDbEntity
  8
0
  6
SLD-Сплошная
 62
     8
370
    18
100
AcDbLine
 10
1589.4322250171
 20
1080.8761151318
 30
0.0
 11
1504.9329646653
 21
1032.0957304504
 31
0.0
  0
LINE
  5
203
330
1F
100
AcDbEntity
  8
0
  6
SLD-Сплошная
 62
     8
370
    18
100
AcDbLine
 10
1378.7144042235
 20
1445.8500857353
 30
0.0
 11
1294.2151438717
 21
1397.0697010539
 31
0.0
  0
LINE
  5
204
330
1F
100
AcDbEntity
  8
0
  6
SLD-Сплошная
 62
     8
370
    18
100
AcDbLine
 10
1378.7144042235
 20
1445.8500857353
 30
0.0
 11
1588.0180114547
 21
1325.0216851856
 31
0.0
  0
LINE
  5
205
330
1F
100
AcDbEntity
  8
0
  6
SLD-Сплошная
 62
     8
370
    18
100
AcDbLine
 10
1489.3626195408
 20
1267.2663696561
 30
0.0
 11
1488.9627134599
 21
1267.4972305226
 31
0.0
  0
LINE
  5
206
330
1F
100
AcDbEntity
  8
0
  6
SLD-Сплошная
 62
     8
370
    18
100
AcDbLine
 10
1487.9124019169
 20
1266.4706135466
 30
0.0
 11
1487.5483849635
 21
1266.6807560608
 31
0.0
  0
LINE
  5
207
330
1F
100
AcDbEntity
  8
0
  6
SLD-Сплошная
 62
     8
370
    18
100
AcDbLine
 10
1487.9124019169
 20
1266.429176842
 30
0.0
 11
1487.9124019169
 21
1266.4706135466
 31
0.0
  0
LINE
  5
208
330
1F
100
AcDbEntity
  8
0
  6
SLD-Сплошная
 62
     8
370
    18
100
AcDbLine
 10
1502.0545375406
 20
1032.124594836
 30
0.0
 11
1496.0834697287
 21
1035.5716189118
 31
0.0
  0
LINE
  5
209
330
1F
100
AcDbEntity
  8
0
  6
SLD-Сплошная
 62
     8
370
    18
100
AcDbLine
 10
1292.8009303093
 20
1394.5624731638
 30
0.0
 11
1292.8009303093
 21
1388.7297904846
 31
0.0
  0
LINE
  5
20A
330
1F
100
AcDbEntity
  8
1
  6
SLD-Сплошная
100
AcDbLine
 10
657.9554271659
 20
1286.2160072842
 30
0.0
 11
657.9554271659
 21
1287.3813833229
 31
0.0
  0
LINE
  5
20B
330
1F
100
AcDbEntity
  8
1
  6
SLD-Сплошная
100
AcDbLine
 10
647.8554271659
 20
1287.3813833229
 30
0.0
 11
647.8554271659
 21
1286.2160072842
 31
0.0
  0
ARC
  5
20C
330
1F
100
AcDbEntity
  8
1
  6
SLD-Сплошная
100
AcDbCircle
 10
657.7554271659
 20
1287.3813833229
 30
0.0
 40
0.2000000000001203
100
AcDbArc
 50
0.0
 51
68.1849373759
  0
ARC
  5
20D
330
1F
100
AcDbEntity
  8
1
  6
SLD-Сплошная
100
AcDbCircle
 10
648.0554271659
 20
1287.3813833229
 30
0.0
 40
0.2000000000001203
100
AcDbArc
 50
111.8150626241
 51
180.0
  0
ARC
  5
20E
330
1F
100
AcDbEntity
  8
1
  6
SLD-Сплошная
100
AcDbCircle
 10
652.9054271659
 20
1275.2647572842
 30
0.0
 40
13.25125000000011
100
AcDbArc
 50
68.1849373759
 51
90.0
  0
ARC
  5
20F
330
1F
100
AcDbEntity
  8
1
  6
SLD-Сплошная
100
AcDbCircle
 10
652.9054271659
 20
1275.2647572842
 30
0.0
 40
13.25125000000011
100
AcDbArc
 50
90.0
 51
111.8150626241
  0
LWPOLYLINE
  5
210
330
1F
100
AcDbEntity
  8
1
  6
SLD-Сплошная
100
AcDbPolyline
 90
        3
 70
   128
 43
0.0
 10
938.005427166
 20
1303.1759752334
 10
938.0250132294
 20
1303.2264253999
 10
938.105427166
 20
1303.4738258149
  0
LWPOLYLINE
  5
211
330
1F
100
AcDbEntity
  8
1
  6
SLD-Сплошная
100
AcDbPolyline
 90
        3
 70
   128
 43
0.0
 10
938.105427166
 20
1304.9581887534
 10
938.0250132294
 20
1305.2055891685
 10
938.005427166
 20
1305.256039335
  0
LINE
  5
212
330
1F
100
AcDbEntity
  8
1
  6
SLD-Сплошная
100
AcDbLine
 10
713.1054271659
 20
1312.3160072842
 30
0.0
 11
713.1054271659
 21
1313.3160072842
 31
0.0
  0
LINE
  5
213
330
1F
100
AcDbEntity
  8
1
  6
SLD-Сплошная
100
AcDbLine
 10
685.1054271659
 20
1313.3160072842
 30
0.0
 11
685.1054271659
 21
1312.3160072842
 31
0.0
  0
LINE
  5
214
330
1F
100
AcDbEntity
  8
1
  6
SLD-Сплошная
100
AcDbLine
 10
713.1054271659
 20
1313.3160072842
 30
0.0
 11
710.1054271659
 21
1316.3160072842
 31
0.0
  0
LINE
  5
215
330
1F
100
AcDbEntity
  8
1
  6
SLD-Сплошная
100
AcDbLine
 10
688.1054271659
 20
1316.3160072842
 30
0.0
 11
685.1054271659
 21
1313.3160072842
 31
0.0
  0
LINE
  5
216
330
1F
100
AcDbEntity
  8
1
  6
SLD-Сплошная
100
AcDbLine
 10
645.3857448785
 20
1293.3160072842
 30
0.0
 11
937.8251094534
 21
1293.3160072842
 31
0.0
  0
LINE
  5
217
330
1F
100
AcDbEntity
  8
1
  6
SLD-Сплошная
100
AcDbLine
 10
926.3054271659
 20
1288.7160072842
 30
0.0
 11
926.3054271659
 21
1288.3160072842
 31
0.0
  0
LINE
  5
218
330
1F
100
AcDbEntity
  8
1
  6
SLD-Сплошная
100
AcDbLine
 10
935.5054271659
 20
1288.3160072842
 30
0.0
 11
935.5054271659
 21
1288.7160072842
 31
0.0
  0
LINE
  5
219
330
1F
100
AcDbEntity
  8
1
  6
SLD-Сплошная
100
AcDbLine
 10
926.3054271659
 20
1288.3160072842
 30
0.0
 11
926.4054271659
 21
1288.2160072842
 31
0.0
  0
LINE
  5
21A
330
1F
100
AcDbEntity
  8
1
  6
SLD-Сплошная
100
AcDbLine
 10
935.4054271659
 20
1288.2160072842
 30
0.0
 11
935.5054271659
 21
1288.3160072842
 31
0.0
  0
LINE
  5
21B
330
1F
100
AcDbEntity
  8
1
  6
SLD-Сплошная
100
AcDbLine
 10
643.0054271659
 20
1250.2160072842
 30
0.0
 11
642.9054271659
 21
1250.2160072842
 31
0.0
  0
LINE
  5
21C
330
1F
100
AcDbEntity
  8
1
  6
SLD-Сплошная
100
AcDbLine
 10
642.9054271659
 20
1242.2160072842
 30
0.0
 11
643.0054271659
 21
1242.2160072842
 31
0.0
  0
LINE
  5
21D
330
1F
100
AcDbEntity
  8
1
  6
SLD-Сплошная
100
AcDbLine
 10
642.9054271659
 20
1192.6660072842
 30
0.0
 11
643.0054271659
 21
1192.6660072842
 31
0.0
  0
LINE
  5
21E
330
1F
100
AcDbEntity
  8
1
  6
SLD-Сплошная
100
AcDbLine
 10
643.0054271659
 20
1199.7660072842
 30
0.0
 11
642.9054271659
 21
1199.7660072842
 31
0.0
  0
CIRCLE
  5
21F
330
1F
100
AcDbEntity
  8
1
  6
SLD-Сплошная
100
AcDbCircle
 10
926.9054271659
 20
1271.2160072842
 30
0.0
 40
8.299999999999955
  0
LINE
  5
220
330
1F
100
AcDbEntity
  8
1
  6
SLD-Сплошная
100
AcDbLine
 10
659.2485434528
 20
1286.2160072842
 30
0.0
 11
659.8334129729
 21
1286.3435794009
 31
0.0
  0
ELLIPSE
  5
221
330
1F
100
AcDbEntity
  8
1
  6
SLD-Сплошная
100
AcDbEllipse
 10
663.8523464757
 20
1282.6585238111
 30
0.0
 11
-9.167878707749196
 21
0.0
 31
5.115907697472721E-13
210
5.580252379591884E-14
220
7.278730463884115E-14
230
1.0
 40
0.4472135955
 41
4.946265032416372
 42
5.166174585903196
  0
LINE
  5
222
330
1F
100
AcDbEntity
  8
1
  6
SLD-Сплошная
100
AcDbLine
 10
657.9554271659
 20
1286.7585238111
 30
0.0
 11
661.7946452898
 21
1286.7585238111
 31
0.0
  0
LINE
  5
223
330
1F
100
AcDbEntity
  8
1
  6
SLD-Сплошная
100
AcDbLine
 10
713.1054271659
 20
1313.3160072842
 30
0.0
 11
685.1054271659
 21
1313.3160072842
 31
0.0
  0
LINE
  5
224
330
1F
100
AcDbEntity
  8
1
  6
SLD-Сплошная
100
AcDbLine
 10
710.1054271659
 20
1316.3160072842
 30
0.0
 11
688.1054271659
 21
1316.3160072842
 31
0.0
  0
SPLINE
  5
225
330
1F
100
AcDbEntity
  8
1
  6
SLD-Сплошная
100
AcDbSpline
210
0.0
220
0.0
230
1.0
 70
     8
 71
     3
 72
    11
 73
     7
 74
     0
 42
0.00000001
 43
0.00000001
 40
0.0
 40
0.0
 40
0.0
 40
0.0
 40
0.2500000000000059
 40
0.5000000000000048
 40
0.7499999999999997
 40
1.0
 40
1.0
 40
1.0
 40
1.0
 10
937.7725844533591
 20
1293.316007284186
 30
0.0
 10
937.7767511200258
 20
1293.331790435612
 30
0.0
 10
937.7850844533591
 20
1293.363356738466
 30
0.0
 10
937.7975844533593
 20
1293.606168412244
 30
0.0
 10
937.8100844533592
 20
1293.953240596196
 30
0.0
 10
937.8184177866926
 20
1294.228418388189
 30
0.0
 10
937.8225844533592
 20
1294.366007284186
 30
0.0
  0
SPLINE
  5
226
330
1F
100
AcDbEntity
  8
1
  6
SLD-Сплошная
100
AcDbSpline
210
0.0
220
0.0
230
1.0
 70
     8
 71
     3
 72
    11
 73
     7
 74
     0
 42
0.00000001
 43
0.00000001
 40
0.0
 40
0.0
 40
0.0
 40
0.0
 40
0.2500000000000039
 40
0.4999999999999982
 40
0.7500000000000107
 40
1.0
 40
1.0
 40
1.0
 40
1.0
 10
645.3882698785254
 20
1294.366007284186
 30
0.0
 10
645.392436545192
 20
1294.228418388189
 30
0.0
 10
645.4007698785255
 20
1293.953240596196
 30
0.0
 10
645.4132698785253
 20
1293.606168412244
 30
0.0
 10
645.4257698785253
 20
1293.363356738466
 30
0.0
 10
645.4341032118587
 20
1293.331790435612
 30
0.0
 10
645.4382698785253
 20
1293.316007284186
 30
0.0
  0
LINE
  5
227
330
1F
100
AcDbEntity
  8
1
  6
SLD-Сплошная
100
AcDbLine
 10
645.3882698786
 20
1309.6160072842
 30
0.0
 11
645.3882698786
 21
1294.3660072842
 31
0.0
  0
LINE
  5
228
330
1F
100
AcDbEntity
  8
1
  6
SLD-Сплошная
100
AcDbLine
 10
937.8225844533
 20
1309.6160072842
 30
0.0
 11
937.8225844533
 21
1294.3660072842
 31
0.0
  0
ELLIPSE
  5
229
330
1F
100
AcDbEntity
  8
1
  6
SLD-Сплошная
100
AcDbEllipse
 10
646.8054271659
 20
1309.6160072842
 30
0.0
 11
0.0
 21
2.700000000000273
 31
0.0
210
0.0
220
0.0
230
1.0
 40
0.5248730694
 41
0.0
 42
1.570796326794897
  0
LINE
  5
22A
330
1F
100
AcDbEntity
  8
1
  6
SLD-Сплошная
100
AcDbLine
 10
646.8054271659
 20
1312.3160072842
 30
0.0
 11
936.405427166
 21
1312.3160072842
 31
0.0
  0
ELLIPSE
  5
22B
330
1F
100
AcDbEntity
  8
1
  6
SLD-Сплошная
100
AcDbEllipse
 10
936.4054271659
 20
1309.6160072842
 30
0.0
 11
0.0
 21
2.700000000000045
 31
0.0
210
0.0
220
0.0
230
1.0
 40
0.5248730694
 41
4.712388980384697
 42
6.283185307179586
  0
LINE
  5
22C
330
1F
100
AcDbEntity
  8
1
  6
SLD-Сплошная
100
AcDbLine
 10
645.1054271659
 20
1294.3660072842
 30
0.0
 11
645.1054271659
 21
1309.6160072842
 31
0.0
  0
LINE
  5
22D
330
1F
100
AcDbEntity
  8
1
  6
SLD-Сплошная
100
AcDbLine
 10
644.1054271659
 20
1294.3660072842
 30
0.0
 11
645.1054271659
 21
1294.3660072842
 31
0.0
  0
LINE
  5
22E
330
1F
100
AcDbEntity
  8
1
  6
SLD-Сплошная
100
AcDbLine
 10
644.1054271659
 20
1294.3660072842
 30
0.0
 11
644.1054271659
 21
1309.6160072842
 31
0.0
  0
SPLINE
  5
22F
330
1F
100
AcDbEntity
  8
1
  6
SLD-Сплошная
100
AcDbSpline
210
0.0
220
0.0
230
1.0
 70
     8
 71
     3
 72
    11
 73
     7
 74
     0
 42
0.00000001
 43
0.00000001
 40
0.0
 40
0.0
 40
0.0
 40
0.0
 40
0.2500000000001111
 40
0.4999999999999709
 40
0.7499999999999887
 40
1.0
 40
1.0
 40
1.0
 40
1.0
 10
645.1554271659279
 20
1294.316007284186
 30
0.0
 10
645.1488753137376
 20
1294.316758862825
 30
0.0
 10
645.1357716093569
 20
1294.318262020104
 30
0.0
 10
645.1192443625021
 20
1294.32982448076
 30
0.0
 10
645.1076819018458
 20
1294.346351727615
 30
0.0
 10
645.1061787445672
 20
1294.359455431995
 30
0.0
 10
645.1054271659277
 20
1294.366007284186
 30
0.0
  0
LINE
  5
230
330
1F
100
AcDbEntity
  8
1
  6
SLD-Сплошная
100
AcDbLine
 10
645.1554271659
 20
1294.3160072842
 30
0.0
 11
645.1554271659
 21
1293.3160072842
 31
0.0
  0
SPLINE
  5
231
330
1F
100
AcDbEntity
  8
1
  6
SLD-Сплошная
100
AcDbSpline
210
0.0
220
0.0
230
1.0
 70
     8
 71
     3
 72
    11
 73
     7
 74
     0
 42
0.00000001
 43
0.00000001
 40
0.0
 40
0.0
 40
0.0
 40
0.0
 40
0.2499999999999956
 40
0.5000000000000039
 40
0.7500000000000019
 40
1.0
 40
1.0
 40
1.0
 40
1.0
 10
645.1554271659317
 20
1293.316007284186
 30
0.0
 10
645.0178382699347
 20
1293.331790435612
 30
0.0
 10
644.742660477941
 20
1293.363356738465
 30
0.0
 10
644.3955882939875
 20
1293.606168412243
 30
0.0
 10
644.152776620208
 20
1293.953240596195
 30
0.0
 10
644.1212103173543
 20
1294.228418388189
 30
0.0
 10
644.1054271659277
 20
1294.366007284186
 30
0.0
  0
LINE
  5
232
330
1F
100
AcDbEntity
  8
1
  6
SLD-Сплошная
100
AcDbLine
 10
938.055427166
 20
1294.3160072842
 30
0.0
 11
938.055427166
 21
1293.3160072842
 31
0.0
  0
SPLINE
  5
233
330
1F
100
AcDbEntity
  8
1
  6
SLD-Сплошная
100
AcDbSpline
210
0.0
220
0.0
230
1.0
 70
     8
 71
     3
 72
    11
 73
     7
 74
     0
 42
0.00000001
 43
0.00000001
 40
0.0
 40
0.0
 40
0.0
 40
0.0
 40
0.2499999999999709
 40
0.4999999999999483
 40
0.7499999999997677
 40
1.0
 40
1.0
 40
1.0
 40
1.0
 10
938.1054271659568
 20
1294.366007284186
 30
0.0
 10
938.1046755873174
 20
1294.359455431995
 30
0.0
 10
938.1031724300386
 20
1294.346351727615
 30
0.0
 10
938.0916099693825
 20
1294.32982448076
 30
0.0
 10
938.0750827225276
 20
1294.318262020104
 30
0.0
 10
938.0619790181469
 20
1294.316758862825
 30
0.0
 10
938.0554271659565
 20
1294.316007284186
 30
0.0
  0
LINE
  5
234
330
1F
100
AcDbEntity
  8
1
  6
SLD-Сплошная
100
AcDbLine
 10
939.105427166
 20
1294.3660072842
 30
0.0
 11
938.105427166
 21
1294.3660072842
 31
0.0
  0
SPLINE
  5
235
330
1F
100
AcDbEntity
  8
1
  6
SLD-Сплошная
100
AcDbSpline
210
0.0
220
0.0
230
1.0
 70
     8
 71
     3
 72
    11
 73
     7
 74
     0
 42
0.00000001
 43
0.00000001
 40
0.0
 40
0.0
 40
0.0
 40
0.0
 40
0.2499999999999995
 40
0.4999999999999916
 40
0.7500000000000014
 40
1.0
 40
1.0
 40
1.0
 40
1.0
 10
939.1054271659568
 20
1294.366007284186
 30
0.0
 10
939.08964401453
 20
1294.228418388189
 30
0.0
 10
939.0580777116763
 20
1293.953240596195
 30
0.0
 10
938.8152660378968
 20
1293.606168412243
 30
0.0
 10
938.4681938539435
 20
1293.363356738464
 30
0.0
 10
938.1930160619496
 20
1293.331790435612
 30
0.0
 10
938.0554271659527
 20
1293.316007284186
 30
0.0
  0
LINE
  5
236
330
1F
100
AcDbEntity
  8
1
  6
SLD-Сплошная
100
AcDbLine
 10
939.105427166
 20
1294.3660072842
 30
0.0
 11
939.105427166
 21
1309.6160072842
 31
0.0
  0
LINE
  5
237
330
1F
100
AcDbEntity
  8
1
  6
SLD-Сплошная
100
AcDbLine
 10
938.105427166
 20
1294.3660072842
 30
0.0
 11
938.105427166
 21
1309.6160072842
 31
0.0
  0
ARC
  5
238
330
1F
100
AcDbEntity
  8
1
  6
SLD-Сплошная
100
AcDbCircle
 10
646.8054271659
 20
1309.6160072842
 30
0.0
 40
1.70000000000005
100
AcDbArc
 50
139.5408896209
 51
180.0
  0
ARC
  5
239
330
1F
100
AcDbEntity
  8
1
  6
SLD-Сплошная
100
AcDbCircle
 10
646.8054271659
 20
1309.6160072842
 30
0.0
 40
2.700000000000273
100
AcDbArc
 50
90.0
 51
180.0
  0
ARC
  5
23A
330
1F
100
AcDbEntity
  8
1
  6
SLD-Сплошная
100
AcDbCircle
 10
936.405427166
 20
1309.6160072842
 30
0.0
 40
1.700000000000045
100
AcDbArc
 50
0.0
 51
40.4591103795
  0
ARC
  5
23B
330
1F
100
AcDbEntity
  8
1
  6
SLD-Сплошная
100
AcDbCircle
 10
936.405427166
 20
1309.6160072842
 30
0.0
 40
2.700000000000045
100
AcDbArc
 50
0.0
 51
90.0
  0
LINE
  5
23C
330
1F
100
AcDbEntity
  8
1
  6
SLD-Сплошная
100
AcDbLine
 10
645.3882698786
 20
1294.3660072842
 30
0.0
 11
645.2054271659
 21
1294.3660072842
 31
0.0
  0
SPLINE
  5
23D
330
1F
100
AcDbEntity
  8
1
  6
SLD-Сплошная
100
AcDbSpline
210
0.0
220
0.0
230
1.0
 70
     8
 71
     3
 72
    11
 73
     7
 74
     0
 42
0.00000001
 43
0.00000001
 40
0.0
 40
0.0
 40
0.0
 40
0.0
 40
0.0090245670120551
 40
0.0782108948257921
 40
0.2706367536320476
 40
1.0
 40
1.0
 40
1.0
 40
1.0
 10
645.2054271659276
 20
1294.366007284186
 30
0.0
 10
645.2053900166319
 20
1294.364813700451
 30
0.0
 10
645.2050680643805
 20
1294.354469575146
 30
0.0
 10
645.2016874535614
 20
1294.348900616275
 30
0.0
 10
645.1871731359056
 20
1294.316246326883
 30
0.0
 10
645.1694503078264
 20
1294.316112876476
 30
0.0
 10
645.1554271659279
 20
1294.316007284186
 30
0.0
  0
LINE
  5
23E
330
1F
100
AcDbEntity
  8
1
  6
SLD-Сплошная
100
AcDbLine
 10
645.4382698785
 20
1293.3859668535
 30
0.0
 11
645.1554271659
 21
1293.3160072842
 31
0.0
  0
LINE
  5
23F
330
1F
100
AcDbEntity
  8
1
  6
SLD-Сплошная
100
AcDbLine
 10
937.8225844533
 20
1294.3660072842
 30
0.0
 11
938.005427166
 21
1294.3660072842
 31
0.0
  0
SPLINE
  5
240
330
1F
100
AcDbEntity
  8
1
  6
SLD-Сплошная
100
AcDbSpline
210
0.0
220
0.0
230
1.0
 70
     8
 71
     3
 72
    12
 73
     8
 74
     0
 42
0.00000001
 43
0.00000001
 40
0.0
 40
0.0
 40
0.0
 40
0.0
 40
0.7293340570158002
 40
0.92175221487613
 40
0.975006699863853
 40
0.9909757941545213
 40
1.0
 40
1.0
 40
1.0
 40
1.0
 10
938.0554271659565
 20
1294.316007284186
 30
0.0
 10
938.0415693656116
 20
1294.318728565925
 30
0.0
 10
938.0240555006847
 20
1294.322167795789
 30
0.0
 10
938.0091574794066
 20
1294.344536000704
 30
0.0
 10
938.0062634497618
 20
1294.35658265712
 30
0.0
 10
938.0055567871512
 20
1294.361341557759
 30
0.0
 10
938.0054615520266
 20
1294.364769554538
 30
0.0
 10
938.0054271659566
 20
1294.366007284186
 30
0.0
  0
LINE
  5
241
330
1F
100
AcDbEntity
  8
1
  6
SLD-Сплошная
100
AcDbLine
 10
938.055427166
 20
1293.3160072842
 30
0.0
 11
937.6988984481
 21
1293.4041926764
 31
0.0
  0
LINE
  5
242
330
1F
100
AcDbEntity
  8
1
  6
SLD-Сплошная
100
AcDbLine
 10
645.2054271659
 20
1294.3660072842
 30
0.0
 11
645.2054271659
 21
1309.2060072842
 31
0.0
  0
LINE
  5
243
330
1F
100
AcDbEntity
  8
1
  6
SLD-Сплошная
100
AcDbLine
 10
645.3882698786
 20
1309.2060072842
 30
0.0
 11
645.2054271659
 21
1309.2060072842
 31
0.0
  0
LINE
  5
244
330
1F
100
AcDbEntity
  8
1
  6
SLD-Сплошная
100
AcDbLine
 10
937.8225844533
 20
1309.2060072842
 30
0.0
 11
938.005427166
 21
1309.2060072842
 31
0.0
  0
LINE
  5
245
330
1F
100
AcDbEntity
  8
1
  6
SLD-Сплошная
100
AcDbLine
 10
938.005427166
 20
1294.3660072842
 30
0.0
 11
938.005427166
 21
1309.2060072842
 31
0.0
  0
ARC
  5
246
330
1F
100
AcDbEntity
  8
1
  6
SLD-Сплошная
100
AcDbCircle
 10
647.2154271659
 20
1309.2060072842
 30
0.0
 40
2.010000000000091
100
AcDbArc
 50
153.9069487035
 51
180.0
  0
ARC
  5
247
330
1F
100
AcDbEntity
  8
1
  6
SLD-Сплошная
100
AcDbCircle
 10
935.995427166
 20
1309.2060072842
 30
0.0
 40
2.009999999999943
100
AcDbArc
 50
0.0
 51
26.0930512967
  0
LINE
  5
248
330
1F
100
AcDbEntity
  8
1
  6
SLD-Сплошная
100
AcDbLine
 10
937.9054271659
 20
1287.2160072842
 30
0.0
 11
937.9054271659
 21
1286.2160072842
 31
0.0
  0
LINE
  5
249
330
1F
100
AcDbEntity
  8
1
  6
SLD-Сплошная
100
AcDbLine
 10
935.9054271659
 20
1288.2160072842
 30
0.0
 11
936.9054271659
 21
1288.2160072842
 31
0.0
  0
SPLINE
  5
24A
330
1F
100
AcDbEntity
  8
1
  6
SLD-Сплошная
100
AcDbSpline
210
0.0
220
0.0
230
1.0
 70
     8
 71
     3
 72
    12
 73
     8
 74
     0
 42
0.00000001
 43
0.00000001
 40
0.0
 40
0.0
 40
0.0
 40
0.0
 40
0.2178231110881961
 40
0.4765675029999286
 40
0.8410160589292622
 40
0.9961871477580964
 40
1.0
 40
1.0
 40
1.0
 40
1.0
 10
936.9054271659388
 20
1288.216007284187
 30
0.0
 10
937.0465637359723
 20
1288.196654090776
 30
0.0
 10
937.3553514602263
 20
1288.154311921422
 30
0.0
 10
937.713161588587
 20
1287.860164166553
 30
0.0
 10
937.8794118546097
 20
1287.526173671953
 30
0.0
 10
937.9053007594277
 20
1287.289501485562
 30
0.0
 10
937.9054242053809
 20
1287.217728586706
 30
0.0
 10
937.9054271659389
 20
1287.216007284187
 30
0.0
  0
LINE
  5
24B
330
1F
100
AcDbEntity
  8
1
  6
SLD-Сплошная
100
AcDbLine
 10
925.4054271659
 20
1288.2160072842
 30
0.0
 11
935.9054271659
 21
1288.2160072842
 31
0.0
  0
ARC
  5
24C
330
1F
100
AcDbEntity
  8
1
  6
SLD-Сплошная
100
AcDbCircle
 10
925.4054271659
 20
1289.2160072842
 30
0.0
 40
3.0
100
AcDbArc
 50
180.0
 51
270.0
  0
ARC
  5
24D
330
1F
100
AcDbEntity
  8
1
  6
SLD-Сплошная
100
AcDbCircle
 10
925.4054271659
 20
1289.2160072842
 30
0.0
 40
1.0
100
AcDbArc
 50
180.0
 51
270.0
  0
LINE
  5
24E
330
1F
100
AcDbEntity
  8
1
  6
SLD-Сплошная
100
AcDbLine
 10
924.4054271659
 20
1293.3160072842
 30
0.0
 11
924.4054271659
 21
1289.2160072842
 31
0.0
  0
LINE
  5
24F
330
1F
100
AcDbEntity
  8
1
  6
SLD-Сплошная
100
AcDbLine
 10
922.4054271659
 20
1293.3160072842
 30
0.0
 11
922.4054271659
 21
1289.2160072842
 31
0.0
  0
LINE
  5
250
330
1F
100
AcDbEntity
  8
1
  6
SLD-Сплошная
100
AcDbLine
 10
934.1581183594
 20
1288.7160072842
 30
0.0
 11
935.5054271659
 21
1288.7160072842
 31
0.0
  0
LINE
  5
251
330
1F
100
AcDbEntity
  8
1
  6
SLD-Сплошная
100
AcDbLine
 10
926.3054271659
 20
1288.7160072842
 30
0.0
 11
934.1581183594
 21
1288.7160072842
 31
0.0
  0
LINE
  5
252
330
1F
100
AcDbEntity
  8
1
  6
SLD-Сплошная
100
AcDbLine
 10
934.1581183594
 20
1288.3160072842
 30
0.0
 11
935.5054271659
 21
1288.3160072842
 31
0.0
  0
LINE
  5
253
330
1F
100
AcDbEntity
  8
1
  6
SLD-Сплошная
100
AcDbLine
 10
926.3054271659
 20
1288.3160072842
 30
0.0
 11
934.1581183594
 21
1288.3160072842
 31
0.0
  0
ARC
  5
254
330
1F
100
AcDbEntity
  8
1
  6
SLD-Сплошная
100
AcDbCircle
 10
924.9054271659
 20
1288.7160072842
 30
0.0
 40
2.500000000000114
100
AcDbArc
 50
180.0
 51
270.0
  0
LINE
  5
255
330
1F
100
AcDbEntity
  8
1
  6
SLD-Сплошная
100
AcDbLine
 10
922.4054271659
 20
1289.2160072842
 30
0.0
 11
922.4054271659
 21
1288.7160072842
 31
0.0
  0
LINE
  5
256
330
1F
100
AcDbEntity
  8
1
  6
SLD-Сплошная
100
AcDbLine
 10
941.9054271659
 20
1164.7160072842
 30
0.0
 11
941.9054271659
 21
1284.2160072842
 31
0.0
  0
LINE
  5
257
330
1F
100
AcDbEntity
  8
1
  6
SLD-Сплошная
100
AcDbLine
 10
939.9054271659
 20
1284.2160072842
 30
0.0
 11
941.9054271659
 21
1284.2160072842
 31
0.0
  0
LINE
  5
258
330
1F
100
AcDbEntity
  8
1
  6
SLD-Сплошная
100
AcDbLine
 10
939.9054271659
 20
1164.7160072842
 30
0.0
 11
941.9054271659
 21
1164.7160072842
 31
0.0
  0
ELLIPSE
  5
259
330
1F
100
AcDbEntity
  8
1
  6
SLD-Сплошная
100
AcDbEllipse
 10
644.4761378441
 20
1164.7160072842
 30
0.0
 11
0.0
 21
2.5
 31
0.0
210
0.0
220
0.0
230
1.0
 40
0.6
 41
2.75128409524361
 42
3.141592653589793
  0
LINE
  5
25A
330
1F
100
AcDbEntity
  8
1
  6
SLD-Сплошная
100
AcDbLine
 10
643.9054271659
 20
1164.7160072842
 30
0.0
 11
643.9054271659
 21
1162.4040280204
 31
0.0
  0
LINE
  5
25B
330
1F
100
AcDbEntity
  8
1
  6
SLD-Сплошная
100
AcDbLine
 10
643.9054271659
 20
1164.7160072842
 30
0.0
 11
645.0054271659
 21
1164.7160072842
 31
0.0
  0
ELLIPSE
  5
25C
330
1F
100
AcDbEntity
  8
1
  6
SLD-Сплошная
100
AcDbEllipse
 10
939.3347164879
 20
1164.7160072842
 30
0.0
 11
0.0
 21
2.5
 31
0.0
210
0.0
220
0.0
230
1.0
 40
0.6
 41
3.141592653589793
 42
3.531901211872962
  0
LINE
  5
25D
330
1F
100
AcDbEntity
  8
1
  6
SLD-Сплошная
100
AcDbLine
 10
644.4761378441
 20
1162.2160072842
 30
0.0
 11
939.3347164879
 21
1162.2160072842
 31
0.0
  0
LINE
  5
25E
330
1F
100
AcDbEntity
  8
1
  6
SLD-Сплошная
100
AcDbLine
 10
939.9054271659
 20
1162.4040280203
 30
0.0
 11
939.9054271659
 21
1164.7160072842
 31
0.0
  0
LINE
  5
25F
330
1F
100
AcDbEntity
  8
1
  6
SLD-Сплошная
100
AcDbLine
 10
643.9054271659
 20
1164.7160072842
 30
0.0
 11
643.0054271659
 21
1164.7160072842
 31
0.0
  0
LINE
  5
260
330
1F
100
AcDbEntity
  8
1
  6
SLD-Сплошная
100
AcDbLine
 10
643.0054271659
 20
1164.7160072842
 30
0.0
 11
643.0054271659
 21
1284.2160072842
 31
0.0
  0
LINE
  5
261
330
1F
100
AcDbEntity
  8
1
  6
SLD-Сплошная
100
AcDbLine
 10
643.0054271659
 20
1284.2160072842
 30
0.0
 11
643.9054271659
 21
1284.2160072842
 31
0.0
  0
LINE
  5
262
330
1F
100
AcDbEntity
  8
1
  6
SLD-Сплошная
100
AcDbLine
 10
643.9054271659
 20
1284.2160072842
 30
0.0
 11
643.9761378441
 21
1286.2160072842
 31
0.0
  0
LINE
  5
263
330
1F
100
AcDbEntity
  8
1
  6
SLD-Сплошная
100
AcDbLine
 10
939.8347164878
 20
1286.2160072842
 30
0.0
 11
643.9761378441
 21
1286.2160072842
 31
0.0
  0
LINE
  5
264
330
1F
100
AcDbEntity
  8
1
  6
SLD-Сплошная
100
AcDbLine
 10
939.8347164878
 20
1286.2160072842
 30
0.0
 11
939.9054271659
 21
1284.2160072842
 31
0.0
  0
LINE
  5
265
330
1F
100
AcDbEntity
  8
1
  6
SLD-Сплошная
100
AcDbLine
 10
643.9054271659
 20
1284.2160072842
 30
0.0
 11
645.0054271659
 21
1284.2160072842
 31
0.0
  0
ARC
  5
266
330
1F
100
AcDbEntity
  8
1
  6
SLD-Сплошная
100
AcDbCircle
 10
644.4054271659
 20
1164.7160072842
 30
0.0
 40
2.499999999999961
100
AcDbArc
 50
247.636966899
 51
270.0
  0
LINE
  5
267
330
1F
100
AcDbEntity
  8
1
  6
SLD-Сплошная
100
AcDbLine
 10
643.4542427024
 20
1162.4040280204
 30
0.0
 11
643.8347164878
 21
1163.3288197259
 31
0.0
  0
LINE
  5
268
330
1F
100
AcDbEntity
  8
1
  6
SLD-Сплошная
100
AcDbLine
 10
644.4054271659
 20
1162.2160072842
 30
0.0
 11
644.4054271659
 21
1162.2187866069
 31
0.0
  0
ARC
  5
269
330
1F
100
AcDbEntity
  8
1
  6
SLD-Сплошная
100
AcDbCircle
 10
644.4054271659
 20
1164.7160072842
 30
0.0
 40
2.5
100
AcDbArc
 50
180.0
 51
247.636966899
  0
ARC
  5
26A
330
1F
100
AcDbEntity
  8
1
  6
SLD-Сплошная
100
AcDbCircle
 10
644.4054271659
 20
1164.7160072842
 30
0.0
 40
1.500000000000114
100
AcDbArc
 50
180.0
 51
247.636966899
  0
LINE
  5
26B
330
1F
100
AcDbEntity
  8
1
  6
SLD-Сплошная
100
AcDbLine
 10
642.9054271659
 20
1284.2160072842
 30
0.0
 11
641.9054271659
 21
1284.2160072842
 31
0.0
  0
LINE
  5
26C
330
1F
100
AcDbEntity
  8
1
  6
SLD-Сплошная
100
AcDbLine
 10
642.9054271659
 20
1164.7160072842
 30
0.0
 11
642.9054271659
 21
1284.2160072842
 31
0.0
  0
LINE
  5
26D
330
1F
100
AcDbEntity
  8
1
  6
SLD-Сплошная
100
AcDbLine
 10
641.9054271659
 20
1164.7160072842
 30
0.0
 11
641.9054271659
 21
1284.2160072842
 31
0.0
  0
LINE
  5
26E
330
1F
100
AcDbEntity
  8
1
  6
SLD-Сплошная
100
AcDbLine
 10
940.3566116295
 20
1162.4040280204
 30
0.0
 11
939.9761378441
 21
1163.3288197259
 31
0.0
  0
ARC
  5
26F
330
1F
100
AcDbEntity
  8
1
  6
SLD-Сплошная
100
AcDbCircle
 10
939.4054271659
 20
1164.7160072842
 30
0.0
 40
2.5
100
AcDbArc
 50
292.3630330994
 51
0.0
  0
ARC
  5
270
330
1F
100
AcDbEntity
  8
1
  6
SLD-Сплошная
100
AcDbCircle
 10
939.4054271659
 20
1164.7160072842
 30
0.0
 40
1.499999999999886
100
AcDbArc
 50
292.3630330994
 51
0.0
  0
LINE
  5
271
330
1F
100
AcDbEntity
  8
1
  6
SLD-Сплошная
100
AcDbLine
 10
939.4054271659
 20
1162.2160072842
 30
0.0
 11
939.4054271659
 21
1162.2187866069
 31
0.0
  0
ARC
  5
272
330
1F
100
AcDbEntity
  8
1
  6
SLD-Сплошная
100
AcDbCircle
 10
939.4054271659
 20
1164.7160072842
 30
0.0
 40
2.499999999999908
100
AcDbArc
 50
270.0
 51
292.3630330994
  0
ARC
  5
273
330
1F
100
AcDbEntity
  8
1
  6
SLD-Сплошная
100
AcDbCircle
 10
643.9054271659
 20
1284.2160072842
 30
0.0
 40
2.0
100
AcDbArc
 50
90.0
 51
180.0
  0
LINE
  5
274
330
1F
100
AcDbEntity
  8
1
  6
SLD-Сплошная
100
AcDbLine
 10
643.9054271659
 20
1285.2160072842
 30
0.0
 11
643.9054271659
 21
1286.2160072842
 31
0.0
  0
ARC
  5
275
330
1F
100
AcDbEntity
  8
1
  6
SLD-Сплошная
100
AcDbCircle
 10
643.9054271659
 20
1284.2160072842
 30
0.0
 40
1.0
100
AcDbArc
 50
90.0
 51
180.0
  0
ARC
  5
276
330
1F
100
AcDbEntity
  8
1
  6
SLD-Сплошная
100
AcDbCircle
 10
939.9054271659
 20
1284.2160072842
 30
0.0
 40
1.0
100
AcDbArc
 50
0.0
 51
90.0
  0
LINE
  5
277
330
1F
100
AcDbEntity
  8
1
  6
SLD-Сплошная
100
AcDbLine
 10
939.9054271659
 20
1285.2160072842
 30
0.0
 11
939.9054271659
 21
1286.2160072842
 31
0.0
  0
ARC
  5
278
330
1F
100
AcDbEntity
  8
1
  6
SLD-Сплошная
100
AcDbCircle
 10
939.9054271659
 20
1284.2160072842
 30
0.0
 40
2.0
100
AcDbArc
 50
0.0
 51
90.0
  0
LINE
  5
279
330
1F
100
AcDbEntity
  8
1
  6
SLD-Сплошная
100
AcDbLine
 10
939.9054271659
 20
1286.2160072842
 30
0.0
 11
939.8347164878
 21
1286.2160072842
 31
0.0
  0
LINE
  5
27A
330
1F
100
AcDbEntity
  8
1
  6
SLD-Сплошная
100
AcDbLine
 10
939.9054271659
 20
1285.2160072842
 30
0.0
 11
939.8700718269
 21
1285.2160072842
 31
0.0
  0
LINE
  5
27B
330
1F
100
AcDbEntity
  8
1
  6
SLD-Сплошная
100
AcDbLine
 10
643.940782505
 20
1285.2160072842
 30
0.0
 11
643.9054271659
 21
1285.2160072842
 31
0.0
  0
LINE
  5
27C
330
1F
100
AcDbEntity
  8
1
  6
SLD-Сплошная
100
AcDbLine
 10
643.9761378441
 20
1286.2160072842
 30
0.0
 11
643.9054271659
 21
1286.2160072842
 31
0.0
  0
LINE
  5
27D
330
1F
100
AcDbEntity
  8
1
  6
SLD-Сплошная
100
AcDbLine
 10
939.4054271659
 20
1162.2160072842
 30
0.0
 11
939.3347164879
 21
1162.2160072842
 31
0.0
  0
LINE
  5
27E
330
1F
100
AcDbEntity
  8
1
  6
SLD-Сплошная
100
AcDbLine
 10
644.4761378441
 20
1162.2160072842
 30
0.0
 11
644.4054271659
 21
1162.2160072842
 31
0.0
  0
ELLIPSE
  5
27F
330
1F
100
AcDbEntity
  8
1
  6
SLD-Сплошная
100
AcDbEllipse
 10
922.8347164878
 20
1287.2160072842
 30
0.0
 11
2.0
 21
0.0
 31
0.0
210
0.0
220
0.0
230
1.0
 40
0.5
 41
3.141592653589793
 42
4.712388980384697
  0
ELLIPSE
  5
280
330
1F
100
AcDbEntity
  8
1
  6
SLD-Сплошная
100
AcDbEllipse
 10
660.9761378441
 20
1287.2160072842
 30
0.0
 11
2.0
 21
0.0
 31
0.0
210
0.0
220
0.0
230
1.0
 40
0.5
 41
4.712388980384697
 42
6.283185307179586
  0
ARC
  5
281
330
1F
100
AcDbEntity
  8
1
  6
SLD-Сплошная
100
AcDbCircle
 10
922.9054271659
 20
1287.2160072842
 30
0.0
 40
2.000000000000045
100
AcDbArc
 50
180.0
 51
188.7004774946
  0
ARC
  5
282
330
1F
100
AcDbEntity
  8
1
  6
SLD-Сплошная
100
AcDbCircle
 10
922.9054271659
 20
1287.2160072842
 30
0.0
 40
1.0
100
AcDbArc
 50
180.0
 51
270.0
  0
ARC
  5
283
330
1F
100
AcDbEntity
  8
1
  6
SLD-Сплошная
100
AcDbCircle
 10
660.9054271659
 20
1287.2160072842
 30
0.0
 40
0.9999999999998863
100
AcDbArc
 50
270.0
 51
0.0
  0
ARC
  5
284
330
1F
100
AcDbEntity
  8
1
  6
SLD-Сплошная
100
AcDbCircle
 10
660.9054271659
 20
1287.2160072842
 30
0.0
 40
1.999999999999925
100
AcDbArc
 50
351.2995225067
 51
0.0
  0
LINE
  5
285
330
1F
100
AcDbEntity
  8
1
  6
SLD-Сплошная
100
AcDbLine
 10
920.8347164879
 20
1287.2160072842
 30
0.0
 11
920.8347164878
 21
1293.3160072842
 31
0.0
  0
LINE
  5
286
330
1F
100
AcDbEntity
  8
1
  6
SLD-Сплошная
100
AcDbLine
 10
662.976137844
 20
1293.3160072842
 30
0.0
 11
662.976137844
 21
1287.2160072842
 31
0.0
  0
LINE
  5
287
330
1F
100
AcDbEntity
  8
1
  6
SLD-Сплошная
100
AcDbLine
 10
920.9054271659
 20
1293.3160072842
 30
0.0
 11
920.9054271659
 21
1287.2160072842
 31
0.0
  0
LINE
  5
288
330
1F
100
AcDbEntity
  8
1
  6
SLD-Сплошная
100
AcDbLine
 10
921.9054271659
 20
1293.3160072842
 30
0.0
 11
921.9054271659
 21
1287.2160072842
 31
0.0
  0
LINE
  5
289
330
1F
100
AcDbEntity
  8
1
  6
SLD-Сплошная
100
AcDbLine
 10
662.9054271659
 20
1287.2160072842
 30
0.0
 11
662.9054271659
 21
1293.3160072842
 31
0.0
  0
LINE
  5
28A
330
1F
100
AcDbEntity
  8
1
  6
SLD-Сплошная
100
AcDbLine
 10
661.9054271659
 20
1287.2160072842
 30
0.0
 11
661.9054271659
 21
1293.3160072842
 31
0.0
  0
LINE
  5
28B
330
1F
100
AcDbEntity
  8
1
  6
SLD-Сплошная
100
AcDbLine
 10
642.9054271659
 20
1284.2160072842
 30
0.0
 11
643.0054271659
 21
1284.2160072842
 31
0.0
  0
ENDSEC
  0
SECTION
  2
OBJECTS
  0
DICTIONARY
  5
C
330
0
100
AcDbDictionary
281
     1
  3
ACAD_GROUP
350
D
  3
ACAD_LAYOUT
350
1A
  3
ACAD_MLINESTYLE
350
17
  3
ACAD_PLOTSETTINGS
350
19
  3
ACAD_PLOTSTYLENAME
350
E
  3
ACAD_SCALELIST
350
47
  3
DWGPROPS
350
28C
  0
DICTIONARY
  5
D
102
{ACAD_REACTORS
330
C
102
}
330
C
100
AcDbDictionary
281
     1
  0
DICTIONARY
  5
1A
102
{ACAD_REACTORS
330
C
102
}
330
C
100
AcDbDictionary
281
     1
  3
Layout1
350
1E
  3
Layout2
350
26
  3
Model
350
22
  0
DICTIONARY
  5
17
102
{ACAD_REACTORS
330
C
102
}
330
C
100
AcDbDictionary
281
     1
  3
Standard
350
18
  0
DICTIONARY
  5
19
102
{ACAD_REACTORS
330
C
102
}
330
C
100
AcDbDictionary
281
     1
  0
ACDBDICTIONARYWDFLT
  5
E
102
{ACAD_REACTORS
330
C
102
}
330
C
100
AcDbDictionary
281
     1
  3
Normal
350
F
100
AcDbDictionaryWithDefault
340
F
  0
DICTIONARY
  5
47
102
{ACAD_REACTORS
330
C
102
}
330
C
100
AcDbDictionary
281
     1
  3
A0
350
48
  3
A1
350
49
  3
A2
350
4A
  3
A3
350
4B
  3
A4
350
4C
  3
A5
350
4D
  3
A6
350
4E
  3
A7
350
4F
  3
A8
350
50
  3
A9
350
51
  3
B0
350
52
  3
B1
350
53
  3
B2
350
54
  3
B3
350
55
  3
B4
350
56
  3
B5
350
57
  3
B6
350
58
  0
XRECORD
  5
28C
102
{ACAD_REACTORS
330
C
102
}
330
C
100
AcDbXrecord
280
     1
  1
DWGPROPS COOKIE
  2

  3

  4

  6

  7

  8
ignatieved
  9

300
=
301
=
302
=
303
=
304
=
305
=
306
=
307
=
308
=
309
=
 40
0.0
 41
2460213.498511782
 42
2460213.498512384
  1

 90
        0
  0
LAYOUT
  5
1E
102
{ACAD_REACTORS
330
1A
102
}
330
1A
100
AcDbPlotSettings
  1

  2
none_device
  4

  6

 40
0.0
 41
0.0
 42
0.0
 43
0.0
 44
0.0
 45
0.0
 46
0.0
 47
0.0
 48
0.0
 49
0.0
140
0.0
141
0.0
142
1.0
143
1.0
 70
   688
 72
     1
 73
     0
 74
     5
  7

 75
    16
147
1.0
148
0.0
149
0.0
100
AcDbLayout
  1
Layout1
 70
     1
 71
     1
 10
0.0
 20
0.0
 11
420.0
 21
297.0
 12
0.0
 22
0.0
 32
0.0
 14
1.0000000000E+20
 24
1.0000000000E+20
 34
1.0000000000E+20
 15
-1.0000000000E+20
 25
-1.0000000000E+20
 35
-1.0000000000E+20
146
0.0
 13
0.0
 23
0.0
 33
0.0
 16
1.0
 26
0.0
 36
0.0
 17
0.0
 27
1.0
 37
0.0
 76
     0
330
1B
  0
LAYOUT
  5
26
102
{ACAD_REACTORS
330
1A
102
}
330
1A
100
AcDbPlotSettings
  1

  2
none_device
  4

  6

 40
0.0
 41
0.0
 42
0.0
 43
0.0
 44
0.0
 45
0.0
 46
0.0
 47
0.0
 48
0.0
 49
0.0
140
0.0
141
0.0
142
1.0
143
1.0
 70
   688
 72
     1
 73
     0
 74
     5
  7

 75
    16
147
1.0
148
0.0
149
0.0
100
AcDbLayout
  1
Layout2
 70
     1
 71
     2
 10
0.0
 20
0.0
 11
0.0
 21
0.0
 12
0.0
 22
0.0
 32
0.0
 14
0.0
 24
0.0
 34
0.0
 15
0.0
 25
0.0
 35
0.0
146
0.0
 13
0.0
 23
0.0
 33
0.0
 16
1.0
 26
0.0
 36
0.0
 17
0.0
 27
1.0
 37
0.0
 76
     0
330
23
  0
LAYOUT
  5
22
102
{ACAD_REACTORS
330
1A
102
}
330
1A
100
AcDbPlotSettings
  1

  2
none_device
  4
Letter_(8.50_x_11.00_Inches)
  6

 40
6.35
 41
6.35
 42
6.35000508
 43
6.35000508
 44
215.9
 45
279.4
 46
0.0
 47
0.0
 48
0.0
 49
0.0
140
0.0
141
0.0
142
1.0
143
1.0
 70
  1712
 72
     1
 73
     0
 74
     0
  7

 75
     0
147
1.0
148
0.0
149
0.0
100
AcDbLayout
  1
Model
 70
     1
 71
     0
 10
0.0
 20
0.0
 11
2000.0
 21
2000.0
 12
0.0
 22
0.0
 32
0.0
 14
0.0
 24
0.0
 34
0.0
 15
2000.0
 25
2000.0
 35
0.0
146
0.0
 13
0.0
 23
0.0
 33
0.0
 16
1.0
 26
0.0
 36
0.0
 17
0.0
 27
1.0
 37
0.0
 76
     0
330
1F
331
29
  0
MLINESTYLE
  5
18
102
{ACAD_REACTORS
330
17
102
}
330
17
100
AcDbMlineStyle
  2
Standard
 70
     0
  3

 62
   256
 51
90.0
 52
90.0
 71
     2
 49
0.5
 62
   256
  6
BYLAYER
 49
-0.5
 62
   256
  6
BYLAYER
  0
ACDBPLACEHOLDER
  5
F
102
{ACAD_REACTORS
330
E
102
}
330
E
  0
SCALE
  5
48
102
{ACAD_REACTORS
330
47
102
}
330
47
100
AcDbScale
 70
     0
300
1:1
140
1.0
141
1.0
290
     1
  0
SCALE
  5
49
102
{ACAD_REACTORS
330
47
102
}
330
47
100
AcDbScale
 70
     0
300
1:2
140
1.0
141
2.0
290
     0
  0
SCALE
  5
4A
102
{ACAD_REACTORS
330
47
102
}
330
47
100
AcDbScale
 70
     0
300
1:4
140
1.0
141
4.0
290
     0
  0
SCALE
  5
4B
102
{ACAD_REACTORS
330
47
102
}
330
47
100
AcDbScale
 70
     0
300
1:5
140
1.0
141
5.0
290
     0
  0
SCALE
  5
4C
102
{ACAD_REACTORS
330
47
102
}
330
47
100
AcDbScale
 70
     0
300
1:8
140
1.0
141
8.0
290
     0
  0
SCALE
  5
4D
102
{ACAD_REACTORS
330
47
102
}
330
47
100
AcDbScale
 70
     0
300
1:10
140
1.0
141
10.0
290
     0
  0
SCALE
  5
4E
102
{ACAD_REACTORS
330
47
102
}
330
47
100
AcDbScale
 70
     0
300
1:16
140
1.0
141
16.0
290
     0
  0
SCALE
  5
4F
102
{ACAD_REACTORS
330
47
102
}
330
47
100
AcDbScale
 70
     0
300
1:20
140
1.0
141
20.0
290
     0
  0
SCALE
  5
50
102
{ACAD_REACTORS
330
47
102
}
330
47
100
AcDbScale
 70
     0
300
1:30
140
1.0
141
30.0
290
     0
  0
SCALE
  5
51
102
{ACAD_REACTORS
330
47
102
}
330
47
100
AcDbScale
 70
     0
300
1:40
140
1.0
141
40.0
290
     0
  0
SCALE
  5
52
102
{ACAD_REACTORS
330
47
102
}
330
47
100
AcDbScale
 70
     0
300
1:50
140
1.0
141
50.0
290
     0
  0
SCALE
  5
53
102
{ACAD_REACTORS
330
47
102
}
330
47
100
AcDbScale
 70
     0
300
1:100
140
1.0
141
100.0
290
     0
  0
SCALE
  5
54
102
{ACAD_REACTORS
330
47
102
}
330
47
100
AcDbScale
 70
     0
300
2:1
140
2.0
141
1.0
290
     0
  0
SCALE
  5
55
102
{ACAD_REACTORS
330
47
102
}
330
47
100
AcDbScale
 70
     0
300
4:1
140
4.0
141
1.0
290
     0
  0
SCALE
  5
56
102
{ACAD_REACTORS
330
47
102
}
330
47
100
AcDbScale
 70
     0
300
8:1
140
8.0
141
1.0
290
     0
  0
SCALE
  5
57
102
{ACAD_REACTORS
330
47
102
}
330
47
100
AcDbScale
 70
     0
300
10:1
140
10.0
141
1.0
290
     0
  0
SCALE
  5
58
102
{ACAD_REACTORS
330
47
102
}
330
47
100
AcDbScale
 70
     0
300
100:1
140
100.0
141
1.0
290
     0
  0
ENDSEC
  0
EOF
