ISO-10303-21;
HEADER;
FILE_DESCRIPTION (( 'STEP AP203' ),
    '1' );
FILE_NAME ('Çàãëóøêà òîðöåâàÿ BPO_BPO4141.STEP',
    '2012-11-21T12:35:52',
    ( 'Àñååâ' ),
    ( '' ),
    'SwSTEP 2.0',
    'SolidWorks 2012',
    '' );
FILE_SCHEMA (( 'CONFIG_CONTROL_DESIGN' ));
ENDSEC;

DATA;
#1 = AXIS2_PLACEMENT_3D ( 'NONE', #72, #181, #142 ) ;
#2 = AXIS2_PLACEMENT_3D ( 'NONE', #103, #168, #163 ) ;
#3 = AXIS2_PLACEMENT_3D ( 'NONE', #102, #130, #149 ) ;
#4 = AXIS2_PLACEMENT_3D ( 'NONE', #82, #124, #185 ) ;
#5 =( GEOMETRIC_REPRESENTATION_CONTEXT ( 3 ) GLOBAL_UNCERTAINTY_ASSIGNED_CONTEXT ( ( #202 ) ) GLOBAL_UNIT_ASSIGNED_CONTEXT ( ( #191, #160, #178 ) ) REPRESENTATION_CONTEXT ( 'NONE', 'WORKASPACE' ) );
#6 = AXIS2_PLACEMENT_3D ( 'NONE', #143, #144, #157 ) ;
#7 = AXIS2_PLACEMENT_3D ( 'NONE', #95, #194, #174 ) ;
#8 = CC_DESIGN_PERSON_AND_ORGANIZATION_ASSIGNMENT ( #359, #88, ( #62 ) ) ;
#9 = PRODUCT_DEFINITION ( 'UNKNOWN', '', #36, #205 ) ;
#10 = EDGE_CURVE ( 'NONE', #309, #335, #336, .T. ) ;
#11 = EDGE_CURVE ( 'NONE', #335, #332, #284, .T. ) ;
#12 = EDGE_CURVE ( 'NONE', #305, #328, #362, .T. ) ;
#13 = EDGE_CURVE ( 'NONE', #309, #208, #319, .T. ) ;
#14 = EDGE_CURVE ( 'NONE', #278, #328, #316, .T. ) ;
#15 = EDGE_CURVE ( 'NONE', #332, #278, #252, .T. ) ;
#16 = EDGE_CURVE ( 'NONE', #305, #309, #356, .T. ) ;
#17 = EDGE_CURVE ( 'NONE', #332, #305, #239, .T. ) ;
#18 = EDGE_CURVE ( 'NONE', #335, #317, #374, .T. ) ;
#19 = EDGE_CURVE ( 'NONE', #230, #341, #292, .T. ) ;
#20 = EDGE_CURVE ( 'NONE', #328, #208, #352, .T. ) ;
#21 = EDGE_CURVE ( 'NONE', #317, #278, #267, .T. ) ;
#22 = EDGE_CURVE ( 'NONE', #341, #344, #364, .T. ) ;
#23 = EDGE_CURVE ( 'NONE', #208, #317, #289, .T. ) ;
#24 = EDGE_CURVE ( 'NONE', #344, #223, #236, .T. ) ;
#25 = EDGE_CURVE ( 'NONE', #223, #230, #277, .T. ) ;
#26 = AXIS2_PLACEMENT_3D ( 'NONE', #137, #97, #145 ) ;
#27 = AXIS2_PLACEMENT_3D ( 'NONE', #164, #195, #75 ) ;
#28 = AXIS2_PLACEMENT_3D ( 'NONE', #108, #192, #93 ) ;
#29 = AXIS2_PLACEMENT_3D ( 'NONE', #184, #134, #115 ) ;
#30 = AXIS2_PLACEMENT_3D ( 'NONE', #182, #171, #68 ) ;
#31 = AXIS2_PLACEMENT_3D ( 'NONE', #76, #176, #111 ) ;
#32 = APPROVAL ( #77, 'UNSPECIFIED' ) ;
#33 = CC_DESIGN_APPROVAL ( #32, ( #9 ) ) ;
#34 = CC_DESIGN_PERSON_AND_ORGANIZATION_ASSIGNMENT ( #318, #114, ( #9 ) ) ;
#35 = CC_DESIGN_DATE_AND_TIME_ASSIGNMENT ( #349, #162, ( #9 ) ) ;
#36 = PRODUCT_DEFINITION_FORMATION_WITH_SPECIFIED_SOURCE ( 'ANY', '', #62, .NOT_KNOWN. ) ;
#37 = APPROVAL ( #158, 'UNSPECIFIED' ) ;
#38 = CC_DESIGN_APPROVAL ( #37, ( #36 ) ) ;
#39 = CC_DESIGN_PERSON_AND_ORGANIZATION_ASSIGNMENT ( #232, #65, ( #36 ) ) ;
#40 = CC_DESIGN_PERSON_AND_ORGANIZATION_ASSIGNMENT ( #334, #132, ( #36 ) ) ;
#41 = SECURITY_CLASSIFICATION ( '', '', #69 ) ;
#42 = CC_DESIGN_PERSON_AND_ORGANIZATION_ASSIGNMENT ( #286, #156, ( #41 ) ) ;
#43 = CC_DESIGN_DATE_AND_TIME_ASSIGNMENT ( #206, #70, ( #41 ) ) ;
#44 = APPROVAL ( #161, 'UNSPECIFIED' ) ;
#45 = CC_DESIGN_APPROVAL ( #44, ( #41 ) ) ;
#46 = CC_DESIGN_SECURITY_CLASSIFICATION ( #41, ( #36 ) ) ;
#47 = ADVANCED_FACE ( 'NONE', ( #297 ), #189, .T. ) ;
#48 = ADVANCED_FACE ( 'NONE', ( #306 ), #165, .F. ) ;
#49 = ADVANCED_FACE ( 'NONE', ( #260 ), #127, .T. ) ;
#50 = ADVANCED_FACE ( 'NONE', ( #363 ), #104, .F. ) ;
#51 = ADVANCED_FACE ( 'NONE', ( #331, #282 ), #92, .T. ) ;
#52 = ADVANCED_FACE ( 'NONE', ( #268 ), #107, .F. ) ;
#53 = ADVANCED_FACE ( 'NONE', ( #218 ), #131, .T. ) ;
#54 = ADVANCED_FACE ( 'NONE', ( #361 ), #90, .T. ) ;
#55 = ADVANCED_FACE ( 'NONE', ( #338 ), #146, .T. ) ;
#56 = ADVANCED_FACE ( 'NONE', ( #373 ), #119, .F. ) ;
#57 = ADVANCED_FACE ( 'NONE', ( #279 ), #85, .F. ) ;
#58 = EDGE_CURVE ( 'NONE', #247, #256, #270, .T. ) ;
#59 = EDGE_CURVE ( 'NONE', #353, #247, #235, .T. ) ;
#60 = EDGE_CURVE ( 'NONE', #231, #230, #243, .T. ) ;
#61 = PERSON ( 'UNSPECIFIED', 'UNSPECIFIED', 'UNSPECIFIED', ('UNSPECIFIED'), ('UNSPECIFIED'), ('UNSPECIFIED') ) ;
#62 = PRODUCT ( 'Çàãëóøêà òîðöåâàÿ BPO_BPO4141', 'Çàãëóøêà òîðöåâàÿ BPO_BPO4141', '', ( #84 ) ) ;
#63 = DIRECTION ( 'NONE',  ( -1.000000000000000000, 0.0000000000000000000, 0.0000000000000000000 ) ) ;
#64 = CARTESIAN_POINT ( 'NONE',  ( 21.00000000000000000, 21.00000000000000400, 30.00000000000000000 ) ) ;
#65 = PERSON_AND_ORGANIZATION_ROLE ( 'creator' ) ;
#66 = CARTESIAN_POINT ( 'NONE',  ( 22.25000000000000000, 22.25000000000000700, 0.0000000000000000000 ) ) ;
#67 = DIRECTION ( 'NONE',  ( -8.260587980841938800E-017, 1.000000000000000000, 0.0000000000000000000 ) ) ;
#68 = DIRECTION ( 'NONE',  ( 1.000000000000000000, 0.0000000000000000000, 0.0000000000000000000 ) ) ;
#69 = SECURITY_CLASSIFICATION_LEVEL ( 'unclassified' ) ;
#70 = DATE_TIME_ROLE ( 'classification_date' ) ;
#71 = DIRECTION ( 'NONE',  ( 0.04159451654038495700, 0.04159451654038495700, 0.9982683969692435200 ) ) ;
#72 = CARTESIAN_POINT ( 'NONE',  ( -21.00000000000000000, 20.00086692690765500, 29.95836945528781600 ) ) ;
#73 = CARTESIAN_POINT ( 'NONE',  ( -21.00000000000000000, 21.20746565421131500, 1.000000000000000900 ) ) ;
#74 = DIRECTION ( 'NONE',  ( 0.04159451654038495700, 0.04159451654038495700, 0.9982683969692435200 ) ) ;
#75 = DIRECTION ( 'NONE',  ( -0.04163054471218124300, 0.0000000000000000000, 0.9991330730923518900 ) ) ;
#76 = CARTESIAN_POINT ( 'NONE',  ( -20.99999999999999600, -20.99999999999998200, 30.00000000000000000 ) ) ;
#77 = APPROVAL_STATUS ( 'not_yet_approved' ) ;
#78 = CARTESIAN_POINT ( 'NONE',  ( -21.00000000000000000, 19.99913232087798000, 30.00000000000000000 ) ) ;
#79 = CARTESIAN_POINT ( 'NONE',  ( 21.00000000000000000, 21.00000000000000400, 30.00000000000000000 ) ) ;
#80 = DIRECTION ( 'NONE',  ( 8.260587980841938800E-017, -1.000000000000000000, 0.0000000000000000000 ) ) ;
#81 = CARTESIAN_POINT ( 'NONE',  ( -22.24999999999999300, -22.24999999999999300, 0.0000000000000000000 ) ) ;
#82 = CARTESIAN_POINT ( 'NONE',  ( 20.99999999999998900, -20.99999999999999600, 30.00000000000000000 ) ) ;
#83 = CARTESIAN_POINT ( 'NONE',  ( -19.99913232087797600, 19.99913232087798000, 30.00000000000000000 ) ) ;
#84 = MECHANICAL_CONTEXT ( 'NONE', #155, 'mechanical' ) ;
#85 = PLANE ( 'NONE',  #6 ) ;
#86 = CARTESIAN_POINT ( 'NONE',  ( -20.00259553084033100, -20.00259553084033100, 29.91688296090335800 ) ) ;
#87 = CARTESIAN_POINT ( 'NONE',  ( -20.99999999999999600, -20.99999999999999600, 30.00000000000000000 ) ) ;
#88 = PERSON_AND_ORGANIZATION_ROLE ( 'design_owner' ) ;
#89 = DIRECTION ( 'NONE',  ( 1.000000000000000000, 0.0000000000000000000, 0.0000000000000000000 ) ) ;
#90 = PLANE ( 'NONE',  #2 ) ;
#91 = CARTESIAN_POINT ( 'NONE',  ( 22.25000000000000000, 22.25000000000000700, 0.0000000000000000000 ) ) ;
#92 = PLANE ( 'NONE',  #30 ) ;
#93 = DIRECTION ( 'NONE',  ( -0.04163054471218124300, 0.0000000000000000000, 0.9991330730923518900 ) ) ;
#94 = DIRECTION ( 'NONE',  ( 8.260587980841938800E-017, -1.000000000000000000, 0.0000000000000000000 ) ) ;
#95 = CARTESIAN_POINT ( 'NONE',  ( 0.0000000000000000000, 0.0000000000000000000, 0.0000000000000000000 ) ) ;
#96 = DIRECTION ( 'NONE',  ( -0.04159451654038530400, 0.04159451654038495700, 0.9982683969692435200 ) ) ;
#97 = DIRECTION ( 'NONE',  ( -0.0000000000000000000, 0.0000000000000000000, 1.000000000000000000 ) ) ;
#98 = DIRECTION ( 'NONE',  ( -0.04159451654038505400, -0.04159451654038517900, 0.9982683969692435200 ) ) ;
#99 = CARTESIAN_POINT ( 'NONE',  ( 22.25000000000001100, -22.24999999999999300, 0.0000000000000000000 ) ) ;
#100 = CARTESIAN_POINT ( 'NONE',  ( -22.24999999999999300, -22.24999999999999300, 0.0000000000000000000 ) ) ;
#101 = DIRECTION ( 'NONE',  ( 1.000000000000000000, 0.0000000000000000000, 0.0000000000000000000 ) ) ;
#102 = CARTESIAN_POINT ( 'NONE',  ( -20.00086692690764800, -20.99999999999998200, 29.95836945528781600 ) ) ;
#103 = CARTESIAN_POINT ( 'NONE',  ( 20.99999999999998900, -20.00086692690764800, 29.95836945528781600 ) ) ;
#104 = PLANE ( 'NONE',  #29 ) ;
#105 = CARTESIAN_POINT ( 'NONE',  ( -22.25000000000000000, 22.25000000000000700, 0.0000000000000000000 ) ) ;
#106 = CARTESIAN_POINT ( 'NONE',  ( 21.20746565421131200, -21.20746565421130100, 1.000000000000000000 ) ) ;
#107 = PLANE ( 'NONE',  #31 ) ;
#108 = CARTESIAN_POINT ( 'NONE',  ( 20.00086692690765100, 21.00000000000000400, 29.95836945528781600 ) ) ;
#109 = DIRECTION ( 'NONE',  ( 8.260587980841938800E-017, -1.000000000000000000, 0.0000000000000000000 ) ) ;
#110 = DIRECTION ( 'NONE',  ( -1.000000000000000000, -0.0000000000000000000, -0.0000000000000000000 ) ) ;
#111 = DIRECTION ( 'NONE',  ( -0.04163054471218113900, 0.0000000000000000000, -0.9991330730923518900 ) ) ;
#112 = CARTESIAN_POINT ( 'NONE',  ( -22.25000000000000000, 22.25000000000000700, 0.0000000000000000000 ) ) ;
#113 = APPLICATION_PROTOCOL_DEFINITION ( 'international standard', 'config_control_design', 1994, #153 ) ;
#114 = PERSON_AND_ORGANIZATION_ROLE ( 'creator' ) ;
#115 = DIRECTION ( 'NONE',  ( 0.0000000000000000000, 0.04163054471218136100, -0.9991330730923518900 ) ) ;
#116 = CARTESIAN_POINT ( 'NONE',  ( 19.99913232087797600, 21.00000000000000400, 30.00000000000000000 ) ) ;
#117 = DIRECTION ( 'NONE',  ( 1.000000000000000000, 0.0000000000000000000, 0.0000000000000000000 ) ) ;
#118 = CARTESIAN_POINT ( 'NONE',  ( 20.99999999999998900, -21.20746565421130100, 1.000000000000000900 ) ) ;
#119 = PLANE ( 'NONE',  #4 ) ;
#120 = DIRECTION ( 'NONE',  ( -0.04159451654038506800, -0.04159451654038518600, 0.9982683969692435200 ) ) ;
#121 = DIRECTION ( 'NONE',  ( -0.04159451654038506800, 0.04159451654038495700, 0.9982683969692435200 ) ) ;
#122 = CARTESIAN_POINT ( 'NONE',  ( -21.20746565421130100, -20.99999999999998200, 1.000000000000000900 ) ) ;
#123 = CARTESIAN_POINT ( 'NONE',  ( -21.20746565421130100, -21.20746565421130100, 1.000000000000000000 ) ) ;
#124 = DIRECTION ( 'NONE',  ( 0.0000000000000000000, 0.9991330730923520000, -0.04163054471218114600 ) ) ;
#125 = DIRECTION ( 'NONE',  ( -2.338953001317043400E-016, 1.000000000000000000, -0.0000000000000000000 ) ) ;
#126 = DIRECTION ( 'NONE',  ( -1.000000000000000000, 0.0000000000000000000, 0.0000000000000000000 ) ) ;
#127 = PLANE ( 'NONE',  #28 ) ;
#128 = APPROVAL_ROLE ( '' ) ;
#129 = CARTESIAN_POINT ( 'NONE',  ( 22.25000000000001100, -22.24999999999999300, 0.0000000000000000000 ) ) ;
#130 = DIRECTION ( 'NONE',  ( 0.9991330730923520000, 8.253426654848353500E-017, -0.04163054471218114600 ) ) ;
#131 = PLANE ( 'NONE',  #1 ) ;
#132 = PERSON_AND_ORGANIZATION_ROLE ( 'design_supplier' ) ;
#133 = CARTESIAN_POINT ( 'NONE',  ( -21.00000000000000000, 21.00000000000000400, 30.00000000000000000 ) ) ;
#134 = DIRECTION ( 'NONE',  ( 0.0000000000000000000, -0.9991330730923520000, -0.04163054471218136800 ) ) ;
#135 = CARTESIAN_POINT ( 'NONE',  ( 21.20746565421130800, 21.00000000000000400, 1.000000000000000900 ) ) ;
#136 = DIRECTION ( 'NONE',  ( -1.000000000000000000, -0.0000000000000000000, -0.0000000000000000000 ) ) ;
#137 = CARTESIAN_POINT ( 'NONE',  ( -22.24999999999999300, -22.24999999999999300, 1.000000000000000000 ) ) ;
#138 = APPROVAL_ROLE ( '' ) ;
#139 = CARTESIAN_POINT ( 'NONE',  ( 20.99999999999998900, -20.99999999999999600, 30.00000000000000000 ) ) ;
#140 = APPLICATION_PROTOCOL_DEFINITION ( 'international standard', 'config_control_design', 1994, #155 ) ;
#141 = DIRECTION ( 'NONE',  ( 1.000000000000000000, 0.0000000000000000000, 0.0000000000000000000 ) ) ;
#142 = DIRECTION ( 'NONE',  ( 0.0000000000000000000, 0.04163054471218136100, -0.9991330730923518900 ) ) ;
#143 = CARTESIAN_POINT ( 'NONE',  ( -22.24999999999999300, -22.24999999999999300, 0.0000000000000000000 ) ) ;
#144 = DIRECTION ( 'NONE',  ( -0.0000000000000000000, 0.0000000000000000000, 1.000000000000000000 ) ) ;
#145 = DIRECTION ( 'NONE',  ( 1.000000000000000000, 0.0000000000000000000, 0.0000000000000000000 ) ) ;
#146 = PLANE ( 'NONE',  #3 ) ;
#147 = CARTESIAN_POINT ( 'NONE',  ( 19.99913232087797600, 19.99913232087798000, 30.00000000000000000 ) ) ;
#148 = DIRECTION ( 'NONE',  ( -8.260587980841938800E-017, 1.000000000000000000, -0.0000000000000000000 ) ) ;
#149 = DIRECTION ( 'NONE',  ( -0.04163054471218113900, 0.0000000000000000000, -0.9991330730923518900 ) ) ;
#150 = CARTESIAN_POINT ( 'NONE',  ( -19.99913232087797300, -20.99999999999998200, 30.00000000000000000 ) ) ;
#151 = CARTESIAN_POINT ( 'NONE',  ( 22.25000000000000000, 22.25000000000000700, 0.0000000000000000000 ) ) ;
#152 = DIRECTION ( 'NONE',  ( 0.04159451654038495700, -0.04159451654038518600, 0.9982683969692435200 ) ) ;
#153 = APPLICATION_CONTEXT ( 'configuration controlled 3d designs of mechanical parts and assemblies' ) ;
#154 = DIRECTION ( 'NONE',  ( 1.559302000878029000E-016, -1.000000000000000000, 0.0000000000000000000 ) ) ;
#155 = APPLICATION_CONTEXT ( 'configuration controlled 3d designs of mechanical parts and assemblies' ) ;
#156 = PERSON_AND_ORGANIZATION_ROLE ( 'classification_officer' ) ;
#157 = DIRECTION ( 'NONE',  ( 1.000000000000000000, 0.0000000000000000000, 0.0000000000000000000 ) ) ;
#158 = APPROVAL_STATUS ( 'not_yet_approved' ) ;
#159 = DIRECTION ( 'NONE',  ( 0.04159451654038506800, -0.04159451654038518600, 0.9982683969692435200 ) ) ;
#160 =( NAMED_UNIT ( * ) PLANE_ANGLE_UNIT ( ) SI_UNIT ( $, .RADIAN. ) );
#161 = APPROVAL_STATUS ( 'not_yet_approved' ) ;
#162 = DATE_TIME_ROLE ( 'creation_date' ) ;
#163 = DIRECTION ( 'NONE',  ( 0.0000000000000000000, 0.04163054471218113900, 0.9991330730923518900 ) ) ;
#164 = CARTESIAN_POINT ( 'NONE',  ( 21.00000000000000000, 21.00000000000000400, 30.00000000000000000 ) ) ;
#165 = PLANE ( 'NONE',  #27 ) ;
#166 = CARTESIAN_POINT ( 'NONE',  ( -21.20746565421130500, 21.20746565421131500, 1.000000000000000000 ) ) ;
#167 = CARTESIAN_POINT ( 'NONE',  ( 21.20746565421130800, 21.20746565421131500, 1.000000000000000000 ) ) ;
#168 = DIRECTION ( 'NONE',  ( 0.0000000000000000000, 0.9991330730923520000, -0.04163054471218114600 ) ) ;
#169 = CARTESIAN_POINT ( 'NONE',  ( 19.99913232087798000, -19.99913232087797300, 30.00000000000000000 ) ) ;
#170 = CARTESIAN_POINT ( 'NONE',  ( 20.00259553084033800, -20.00259553084033100, 29.91688296090335800 ) ) ;
#171 = DIRECTION ( 'NONE',  ( -0.0000000000000000000, 0.0000000000000000000, 1.000000000000000000 ) ) ;
#172 = CARTESIAN_POINT ( 'NONE',  ( -21.00000000000000000, 21.00000000000000400, 30.00000000000000000 ) ) ;
#173 = APPROVAL_ROLE ( '' ) ;
#174 = DIRECTION ( 'NONE',  ( 1.000000000000000000, 0.0000000000000000000, 0.0000000000000000000 ) ) ;
#175 = CARTESIAN_POINT ( 'NONE',  ( -20.99999999999999600, -20.99999999999998200, 30.00000000000000000 ) ) ;
#176 = DIRECTION ( 'NONE',  ( 0.9991330730923520000, 8.253426654848353500E-017, -0.04163054471218114600 ) ) ;
#177 = CARTESIAN_POINT ( 'NONE',  ( -22.24999999999999300, -22.24999999999999300, 0.0000000000000000000 ) ) ;
#178 =( NAMED_UNIT ( * ) SI_UNIT ( $, .STERADIAN. ) SOLID_ANGLE_UNIT ( ) );
#179 = CARTESIAN_POINT ( 'NONE',  ( -19.99913232087797300, -19.99913232087797300, 30.00000000000000000 ) ) ;
#180 = CARTESIAN_POINT ( 'NONE',  ( -20.00259553084033500, 20.00259553084033800, 29.91688296090335800 ) ) ;
#181 = DIRECTION ( 'NONE',  ( 0.0000000000000000000, -0.9991330730923520000, -0.04163054471218136800 ) ) ;
#182 = CARTESIAN_POINT ( 'NONE',  ( -20.99999999999999600, -20.99999999999999600, 30.00000000000000000 ) ) ;
#183 = CARTESIAN_POINT ( 'NONE',  ( -22.25000000000000000, 22.25000000000000700, 0.0000000000000000000 ) ) ;
#184 = CARTESIAN_POINT ( 'NONE',  ( -21.00000000000000000, 21.00000000000000400, 30.00000000000000000 ) ) ;
#185 = DIRECTION ( 'NONE',  ( 0.0000000000000000000, 0.04163054471218113900, 0.9991330730923518900 ) ) ;
#186 = CARTESIAN_POINT ( 'NONE',  ( -21.00000000000000000, 21.00000000000000400, 30.00000000000000000 ) ) ;
#187 = DIRECTION ( 'NONE',  ( -8.260587980841938800E-017, 1.000000000000000000, 0.0000000000000000000 ) ) ;
#188 = CARTESIAN_POINT ( 'NONE',  ( 20.00259553084033500, 20.00259553084033800, 29.91688296090335800 ) ) ;
#189 = PLANE ( 'NONE',  #26 ) ;
#190 = CARTESIAN_POINT ( 'NONE',  ( -22.25000000000000000, 22.25000000000000700, 0.0000000000000000000 ) ) ;
#191 =( LENGTH_UNIT ( ) NAMED_UNIT ( * ) SI_UNIT ( .MILLI., .METRE. ) );
#192 = DIRECTION ( 'NONE',  ( -0.9991330730923520000, -8.253426654848353500E-017, -0.04163054471218125000 ) ) ;
#193 = CARTESIAN_POINT ( 'NONE',  ( 20.99999999999998900, -19.99913232087797300, 30.00000000000000000 ) ) ;
#194 = DIRECTION ( 'NONE',  ( 0.0000000000000000000, 0.0000000000000000000, 1.000000000000000000 ) ) ;
#195 = DIRECTION ( 'NONE',  ( -0.9991330730923520000, -8.253426654848353500E-017, -0.04163054471218125000 ) ) ;
#196 = PRODUCT_RELATED_PRODUCT_CATEGORY ( 'detail', '', ( #62 ) ) ;
#197 = EDGE_CURVE ( 'NONE', #353, #341, #276, .T. ) ;
#198 = EDGE_CURVE ( 'NONE', #256, #223, #312, .T. ) ;
#199 = EDGE_CURVE ( 'NONE', #247, #344, #340, .T. ) ;
#200 = EDGE_CURVE ( 'NONE', #231, #353, #241, .T. ) ;
#201 = MANIFOLD_SOLID_BREP ( 'Svuota1', #245 ) ;
#202 = UNCERTAINTY_MEASURE_WITH_UNIT (LENGTH_MEASURE( 1.000000000000000100E-005 ), #191, 'distance_accuracy_value', 'NONE');
#203 = ADVANCED_BREP_SHAPE_REPRESENTATION ( '¦ðóûº°úð ªþ¨¡õòð  BPO_BPO4141', ( #201, #7 ), #5 ) ;
#204 = PRODUCT_DEFINITION_SHAPE ( 'NONE', 'NONE',  #9 ) ;
#205 = DESIGN_CONTEXT ( 'detailed design', #153, 'design' ) ;
#206 = DATE_AND_TIME ( #285, #281 ) ;
#207 = EDGE_LOOP ( 'NONE', ( #324, #216, #290, #327 ) ) ;
#208 = VERTEX_POINT ( 'NONE', #175 ) ;
#209 = LOCAL_TIME ( 16, 35, 52.00000000000000000, #258 ) ;
#210 = ORIENTED_EDGE ( 'NONE', *, *, #198, .F. ) ;
#211 = VECTOR ( 'NONE', #96, 1000.000000000000000 ) ;
#212 = ORIENTED_EDGE ( 'NONE', *, *, #12, .T. ) ;
#213 = ORIENTED_EDGE ( 'NONE', *, *, #18, .T. ) ;
#214 = VECTOR ( 'NONE', #80, 1000.000000000000000 ) ;
#215 = ORIENTED_EDGE ( 'NONE', *, *, #19, .F. ) ;
#216 = ORIENTED_EDGE ( 'NONE', *, *, #59, .T. ) ;
#217 = ORIENTED_EDGE ( 'NONE', *, *, #59, .F. ) ;
#218 = FACE_OUTER_BOUND ( 'NONE', #275, .T. ) ;
#219 = EDGE_LOOP ( 'NONE', ( #210, #248, #303, #265 ) ) ;
#220 = EDGE_LOOP ( 'NONE', ( #280, #217, #274, #323 ) ) ;
#221 = DATE_AND_TIME ( #242, #238 ) ;
#222 = EDGE_LOOP ( 'NONE', ( #237, #301, #224, #372 ) ) ;
#223 = VERTEX_POINT ( 'NONE', #147 ) ;
#224 = ORIENTED_EDGE ( 'NONE', *, *, #12, .F. ) ;
#225 = EDGE_LOOP ( 'NONE', ( #212, #365, #350, #378 ) ) ;
#226 = VECTOR ( 'NONE', #94, 1000.000000000000000 ) ;
#227 = VECTOR ( 'NONE', #117, 1000.000000000000000 ) ;
#228 = EDGE_LOOP ( 'NONE', ( #215, #240, #343, #351 ) ) ;
#229 = EDGE_LOOP ( 'NONE', ( #257, #315, #342, #255 ) ) ;
#230 = VERTEX_POINT ( 'NONE', #83 ) ;
#231 = VERTEX_POINT ( 'NONE', #166 ) ;
#232 = PERSON_AND_ORGANIZATION ( #61, #288 ) ;
#233 = APPROVAL_PERSON_ORGANIZATION ( #347, #44, #128 ) ;
#234 = ORIENTED_EDGE ( 'NONE', *, *, #197, .F. ) ;
#235 = LINE ( 'NONE', #118, #299 ) ;
#236 = LINE ( 'NONE', #116, #266 ) ;
#237 = ORIENTED_EDGE ( 'NONE', *, *, #13, .T. ) ;
#238 = LOCAL_TIME ( 16, 35, 52.00000000000000000, #326 ) ;
#239 = LINE ( 'NONE', #112, #354 ) ;
#240 = ORIENTED_EDGE ( 'NONE', *, *, #25, .F. ) ;
#241 = LINE ( 'NONE', #122, #226 ) ;
#242 = CALENDAR_DATE ( 2012, 21, 11 ) ;
#243 = LINE ( 'NONE', #180, #325 ) ;
#244 = VECTOR ( 'NONE', #63, 1000.000000000000000 ) ;
#245 = CLOSED_SHELL ( 'NONE', ( #51, #57, #50, #48, #52, #56, #47, #53, #49, #55, #54 ) ) ;
#246 = VECTOR ( 'NONE', #120, 1000.000000000000000 ) ;
#247 = VERTEX_POINT ( 'NONE', #106 ) ;
#248 = ORIENTED_EDGE ( 'NONE', *, *, #58, .F. ) ;
#249 = ORIENTED_EDGE ( 'NONE', *, *, #23, .T. ) ;
#250 = ORIENTED_EDGE ( 'NONE', *, *, #20, .T. ) ;
#251 = VECTOR ( 'NONE', #159, 1000.000000000000000 ) ;
#252 = LINE ( 'NONE', #91, #246 ) ;
#253 = PERSON_AND_ORGANIZATION ( #61, #288 ) ;
#254 = VECTOR ( 'NONE', #136, 1000.000000000000000 ) ;
#255 = ORIENTED_EDGE ( 'NONE', *, *, #11, .T. ) ;
#256 = VERTEX_POINT ( 'NONE', #167 ) ;
#257 = ORIENTED_EDGE ( 'NONE', *, *, #15, .T. ) ;
#258 = COORDINATED_UNIVERSAL_TIME_OFFSET ( 4, 0, .AHEAD. ) ;
#259 = COORDINATED_UNIVERSAL_TIME_OFFSET ( 4, 0, .AHEAD. ) ;
#260 = FACE_OUTER_BOUND ( 'NONE', #219, .T. ) ;
#261 = APPROVAL_DATE_TIME ( #221, #32 ) ;
#262 = ORIENTED_EDGE ( 'NONE', *, *, #11, .F. ) ;
#263 = EDGE_LOOP ( 'NONE', ( #213, #355, #293, #345 ) ) ;
#264 = VECTOR ( 'NONE', #98, 1000.000000000000200 ) ;
#265 = ORIENTED_EDGE ( 'NONE', *, *, #24, .T. ) ;
#266 = VECTOR ( 'NONE', #67, 1000.000000000000000 ) ;
#267 = LINE ( 'NONE', #64, #295 ) ;
#268 = FACE_OUTER_BOUND ( 'NONE', #222, .T. ) ;
#269 = CALENDAR_DATE ( 2012, 21, 11 ) ;
#270 = LINE ( 'NONE', #135, #377 ) ;
#271 = ORIENTED_EDGE ( 'NONE', *, *, #10, .F. ) ;
#272 = ORIENTED_EDGE ( 'NONE', *, *, #14, .T. ) ;
#273 = EDGE_LOOP ( 'NONE', ( #337, #296, #262, #271 ) ) ;
#274 = ORIENTED_EDGE ( 'NONE', *, *, #197, .T. ) ;
#275 = EDGE_LOOP ( 'NONE', ( #376, #310, #320, #367 ) ) ;
#276 = LINE ( 'NONE', #86, #294 ) ;
#277 = LINE ( 'NONE', #78, #368 ) ;
#278 = VERTEX_POINT ( 'NONE', #79 ) ;
#279 = FACE_OUTER_BOUND ( 'NONE', #273, .T. ) ;
#280 = ORIENTED_EDGE ( 'NONE', *, *, #199, .F. ) ;
#281 = LOCAL_TIME ( 16, 35, 52.00000000000000000, #259 ) ;
#282 = FACE_OUTER_BOUND ( 'NONE', #339, .T. ) ;
#283 = LOCAL_TIME ( 16, 35, 52.00000000000000000, #371 ) ;
#284 = LINE ( 'NONE', #151, #348 ) ;
#285 = CALENDAR_DATE ( 2012, 21, 11 ) ;
#286 = PERSON_AND_ORGANIZATION ( #61, #288 ) ;
#287 = EDGE_LOOP ( 'NONE', ( #234, #375, #369, #298 ) ) ;
#288 = ORGANIZATION ( 'UNSPECIFIED', 'UNSPECIFIED', '' ) ;
#289 = LINE ( 'NONE', #87, #333 ) ;
#290 = ORIENTED_EDGE ( 'NONE', *, *, #58, .T. ) ;
#291 = CALENDAR_DATE ( 2012, 21, 11 ) ;
#292 = LINE ( 'NONE', #150, #214 ) ;
#293 = ORIENTED_EDGE ( 'NONE', *, *, #13, .F. ) ;
#294 = VECTOR ( 'NONE', #71, 1000.000000000000000 ) ;
#295 = VECTOR ( 'NONE', #148, 1000.000000000000000 ) ;
#296 = ORIENTED_EDGE ( 'NONE', *, *, #17, .F. ) ;
#297 = FACE_OUTER_BOUND ( 'NONE', #207, .T. ) ;
#298 = ORIENTED_EDGE ( 'NONE', *, *, #19, .T. ) ;
#299 = VECTOR ( 'NONE', #101, 1000.000000000000000 ) ;
#300 = DATE_AND_TIME ( #291, #209 ) ;
#301 = ORIENTED_EDGE ( 'NONE', *, *, #20, .F. ) ;
#302 = VECTOR ( 'NONE', #89, 1000.000000000000000 ) ;
#303 = ORIENTED_EDGE ( 'NONE', *, *, #199, .T. ) ;
#304 = LINE ( 'NONE', #73, #244 ) ;
#305 = VERTEX_POINT ( 'NONE', #105 ) ;
#306 = FACE_OUTER_BOUND ( 'NONE', #229, .T. ) ;
#307 = APPROVAL_DATE_TIME ( #357, #37 ) ;
#308 = APPROVAL_DATE_TIME ( #300, #44 ) ;
#309 = VERTEX_POINT ( 'NONE', #100 ) ;
#310 = ORIENTED_EDGE ( 'NONE', *, *, #379, .F. ) ;
#311 = CALENDAR_DATE ( 2012, 21, 11 ) ;
#312 = LINE ( 'NONE', #188, #264 ) ;
#313 = PERSON_AND_ORGANIZATION ( #61, #288 ) ;
#314 = VECTOR ( 'NONE', #109, 1000.000000000000000 ) ;
#315 = ORIENTED_EDGE ( 'NONE', *, *, #21, .F. ) ;
#316 = LINE ( 'NONE', #172, #254 ) ;
#317 = VERTEX_POINT ( 'NONE', #139 ) ;
#318 = PERSON_AND_ORGANIZATION ( #61, #288 ) ;
#319 = LINE ( 'NONE', #81, #346 ) ;
#320 = ORIENTED_EDGE ( 'NONE', *, *, #198, .T. ) ;
#321 = VECTOR ( 'NONE', #154, 1000.000000000000000 ) ;
#322 = VECTOR ( 'NONE', #121, 1000.000000000000000 ) ;
#323 = ORIENTED_EDGE ( 'NONE', *, *, #22, .T. ) ;
#324 = ORIENTED_EDGE ( 'NONE', *, *, #200, .T. ) ;
#325 = VECTOR ( 'NONE', #152, 1000.000000000000000 ) ;
#326 = COORDINATED_UNIVERSAL_TIME_OFFSET ( 4, 0, .AHEAD. ) ;
#327 = ORIENTED_EDGE ( 'NONE', *, *, #379, .T. ) ;
#328 = VERTEX_POINT ( 'NONE', #186 ) ;
#329 = APPROVAL_PERSON_ORGANIZATION ( #253, #32, #138 ) ;
#330 = APPROVAL_PERSON_ORGANIZATION ( #313, #37, #173 ) ;
#331 = FACE_BOUND ( 'NONE', #228, .T. ) ;
#332 = VERTEX_POINT ( 'NONE', #66 ) ;
#333 = VECTOR ( 'NONE', #141, 1000.000000000000000 ) ;
#334 = PERSON_AND_ORGANIZATION ( #61, #288 ) ;
#335 = VERTEX_POINT ( 'NONE', #129 ) ;
#336 = LINE ( 'NONE', #177, #302 ) ;
#337 = ORIENTED_EDGE ( 'NONE', *, *, #16, .F. ) ;
#338 = FACE_OUTER_BOUND ( 'NONE', #287, .T. ) ;
#339 = EDGE_LOOP ( 'NONE', ( #250, #249, #360, #272 ) ) ;
#340 = LINE ( 'NONE', #170, #322 ) ;
#341 = VERTEX_POINT ( 'NONE', #179 ) ;
#342 = ORIENTED_EDGE ( 'NONE', *, *, #18, .F. ) ;
#343 = ORIENTED_EDGE ( 'NONE', *, *, #24, .F. ) ;
#344 = VERTEX_POINT ( 'NONE', #169 ) ;
#345 = ORIENTED_EDGE ( 'NONE', *, *, #10, .T. ) ;
#346 = VECTOR ( 'NONE', #74, 1000.000000000000000 ) ;
#347 = PERSON_AND_ORGANIZATION ( #61, #288 ) ;
#348 = VECTOR ( 'NONE', #125, 1000.000000000000000 ) ;
#349 = DATE_AND_TIME ( #269, #283 ) ;
#350 = ORIENTED_EDGE ( 'NONE', *, *, #15, .F. ) ;
#351 = ORIENTED_EDGE ( 'NONE', *, *, #22, .F. ) ;
#352 = LINE ( 'NONE', #133, #314 ) ;
#353 = VERTEX_POINT ( 'NONE', #123 ) ;
#354 = VECTOR ( 'NONE', #110, 1000.000000000000000 ) ;
#355 = ORIENTED_EDGE ( 'NONE', *, *, #23, .F. ) ;
#356 = LINE ( 'NONE', #183, #321 ) ;
#357 = DATE_AND_TIME ( #311, #366 ) ;
#358 = SHAPE_DEFINITION_REPRESENTATION ( #204, #203 ) ;
#359 = PERSON_AND_ORGANIZATION ( #61, #288 ) ;
#360 = ORIENTED_EDGE ( 'NONE', *, *, #21, .T. ) ;
#361 = FACE_OUTER_BOUND ( 'NONE', #220, .T. ) ;
#362 = LINE ( 'NONE', #190, #251 ) ;
#363 = FACE_OUTER_BOUND ( 'NONE', #225, .T. ) ;
#364 = LINE ( 'NONE', #193, #227 ) ;
#365 = ORIENTED_EDGE ( 'NONE', *, *, #14, .F. ) ;
#366 = LOCAL_TIME ( 16, 35, 52.00000000000000000, #370 ) ;
#367 = ORIENTED_EDGE ( 'NONE', *, *, #25, .T. ) ;
#368 = VECTOR ( 'NONE', #126, 1000.000000000000000 ) ;
#369 = ORIENTED_EDGE ( 'NONE', *, *, #60, .T. ) ;
#370 = COORDINATED_UNIVERSAL_TIME_OFFSET ( 4, 0, .AHEAD. ) ;
#371 = COORDINATED_UNIVERSAL_TIME_OFFSET ( 4, 0, .AHEAD. ) ;
#372 = ORIENTED_EDGE ( 'NONE', *, *, #16, .T. ) ;
#373 = FACE_OUTER_BOUND ( 'NONE', #263, .T. ) ;
#374 = LINE ( 'NONE', #99, #211 ) ;
#375 = ORIENTED_EDGE ( 'NONE', *, *, #200, .F. ) ;
#376 = ORIENTED_EDGE ( 'NONE', *, *, #60, .F. ) ;
#377 = VECTOR ( 'NONE', #187, 1000.000000000000000 ) ;
#378 = ORIENTED_EDGE ( 'NONE', *, *, #17, .T. ) ;
#379 = EDGE_CURVE ( 'NONE', #256, #231, #304, .T. ) ;
ENDSEC;
END-ISO-10303-21;
