  0
SECTION
  2
HEADER
  9
$ACADVER
  1
AC1015
  9
$ACADMAINTVER
 70
     6
  9
$DWGCODEPAGE
  3
ANSI_1251
  9
$INSBASE
 10
0.0
 20
0.0
 30
0.0
  9
$EXTMIN
 10
0.0
 20
0.0
 30
0.0
  9
$EXTMAX
 10
2000.0
 20
2000.0
 30
0.0
  9
$LIMMIN
 10
0.0
 20
0.0
  9
$LIMMAX
 10
2000.0
 20
2000.0
  9
$ORTHOMODE
 70
     0
  9
$REGENMODE
 70
     1
  9
$FILLMODE
 70
     1
  9
$QTEXTMODE
 70
     0
  9
$MIRRTEXT
 70
     1
  9
$LTSCALE
 40
1.0
  9
$ATTMODE
 70
     1
  9
$TEXTSIZE
 40
5.0
  9
$TRACEWID
 40
1.0
  9
$TEXTSTYLE
  7
Standard
  9
$CLAYER
  8
0
  9
$CELTYPE
  6
ByLayer
  9
$CECOLOR
 62
   256
  9
$CELTSCALE
 40
1.0
  9
$DISPSILH
 70
     0
  9
$DIMSCALE
 40
1.0
  9
$DIMASZ
 40
5.0
  9
$DIMEXO
 40
0.0
  9
$DIMDLI
 40
3.75
  9
$DIMRND
 40
0.0
  9
$DIMDLE
 40
0.0
  9
$DIMEXE
 40
1.0
  9
$DIMTP
 40
0.0
  9
$DIMTM
 40
0.0
  9
$DIMTXT
 40
3.5
  9
$DIMCEN
 40
2.5
  9
$DIMTSZ
 40
0.0
  9
$DIMTOL
 70
     0
  9
$DIMLIM
 70
     0
  9
$DIMTIH
 70
     1
  9
$DIMTOH
 70
     1
  9
$DIMSE1
 70
     0
  9
$DIMSE2
 70
     0
  9
$DIMTAD
 70
     1
  9
$DIMZIN
 70
     0
  9
$DIMBLK
  1

  9
$DIMASO
 70
     1
  9
$DIMSHO
 70
     1
  9
$DIMPOST
  1

  9
$DIMAPOST
  1

  9
$DIMALT
 70
     0
  9
$DIMALTD
 70
     3
  9
$DIMALTF
 40
0.0393700787
  9
$DIMLFAC
 40
1.0
  9
$DIMTOFL
 70
     1
  9
$DIMTVP
 40
0.0
  9
$DIMTIX
 70
     0
  9
$DIMSOXD
 70
     0
  9
$DIMSAH
 70
     0
  9
$DIMBLK1
  1

  9
$DIMBLK2
  1

  9
$DIMSTYLE
  2
ISO-25
  9
$DIMCLRD
 70
     0
  9
$DIMCLRE
 70
     0
  9
$DIMCLRT
 70
     0
  9
$DIMTFAC
 40
1.0
  9
$DIMGAP
 40
1.5
  9
$DIMJUST
 70
     0
  9
$DIMSD1
 70
     0
  9
$DIMSD2
 70
     0
  9
$DIMTOLJ
 70
     0
  9
$DIMTZIN
 70
     0
  9
$DIMALTZ
 70
     0
  9
$DIMALTTZ
 70
     0
  9
$DIMUPT
 70
     0
  9
$DIMDEC
 70
     1
  9
$DIMTDEC
 70
     1
  9
$DIMALTU
 70
     2
  9
$DIMALTTD
 70
     3
  9
$DIMTXSTY
  7
Standard
  9
$DIMAUNIT
 70
     0
  9
$DIMADEC
 70
     2
  9
$DIMALTRND
 40
0.0
  9
$DIMAZIN
 70
     0
  9
$DIMDSEP
 70
    44
  9
$DIMATFIT
 70
     3
  9
$DIMFRAC
 70
     0
  9
$DIMLDRBLK
  1

  9
$DIMLUNIT
 70
     2
  9
$DIMLWD
 70
    -2
  9
$DIMLWE
 70
    -2
  9
$DIMTMOVE
 70
     0
  9
$LUNITS
 70
     2
  9
$LUPREC
 70
     1
  9
$SKETCHINC
 40
1.0
  9
$FILLETRAD
 40
0.0
  9
$AUNITS
 70
     0
  9
$AUPREC
 70
     2
  9
$MENU
  1
.
  9
$ELEVATION
 40
0.0
  9
$PELEVATION
 40
0.0
  9
$THICKNESS
 40
0.0
  9
$LIMCHECK
 70
     0
  9
$CHAMFERA
 40
0.0
  9
$CHAMFERB
 40
0.0
  9
$CHAMFERC
 40
0.0
  9
$CHAMFERD
 40
0.0
  9
$SKPOLY
 70
     0
  9
$TDCREATE
 40
2460213.627881296
  9
$TDUCREATE
 40
2460213.502881296
  9
$TDUPDATE
 40
2460213.627881898
  9
$TDUUPDATE
 40
2460213.502881898
  9
$TDINDWG
 40
0.0000000116
  9
$TDUSRTIMER
 40
0.0000000116
  9
$USRTIMER
 70
     1
  9
$ANGBASE
 50
0.0
  9
$ANGDIR
 70
     0
  9
$PDMODE
 70
     0
  9
$PDSIZE
 40
-1.0
  9
$PLINEWID
 40
0.0
  9
$SPLFRAME
 70
     0
  9
$SPLINETYPE
 70
     6
  9
$SPLINESEGS
 70
     8
  9
$HANDSEED
  5
4DC
  9
$SURFTAB1
 70
     6
  9
$SURFTAB2
 70
     6
  9
$SURFTYPE
 70
     6
  9
$SURFU
 70
     6
  9
$SURFV
 70
     6
  9
$UCSBASE
  2

  9
$UCSNAME
  2

  9
$UCSORG
 10
0.0
 20
0.0
 30
0.0
  9
$UCSXDIR
 10
1.0
 20
0.0
 30
0.0
  9
$UCSYDIR
 10
0.0
 20
1.0
 30
0.0
  9
$UCSORTHOREF
  2

  9
$UCSORTHOVIEW
 70
     0
  9
$UCSORGTOP
 10
0.0
 20
0.0
 30
0.0
  9
$UCSORGBOTTOM
 10
0.0
 20
0.0
 30
0.0
  9
$UCSORGLEFT
 10
0.0
 20
0.0
 30
0.0
  9
$UCSORGRIGHT
 10
0.0
 20
0.0
 30
0.0
  9
$UCSORGFRONT
 10
0.0
 20
0.0
 30
0.0
  9
$UCSORGBACK
 10
0.0
 20
0.0
 30
0.0
  9
$PUCSBASE
  2

  9
$PUCSNAME
  2

  9
$PUCSORG
 10
0.0
 20
0.0
 30
0.0
  9
$PUCSXDIR
 10
1.0
 20
0.0
 30
0.0
  9
$PUCSYDIR
 10
0.0
 20
1.0
 30
0.0
  9
$PUCSORTHOREF
  2

  9
$PUCSORTHOVIEW
 70
     0
  9
$PUCSORGTOP
 10
0.0
 20
0.0
 30
0.0
  9
$PUCSORGBOTTOM
 10
0.0
 20
0.0
 30
0.0
  9
$PUCSORGLEFT
 10
0.0
 20
0.0
 30
0.0
  9
$PUCSORGRIGHT
 10
0.0
 20
0.0
 30
0.0
  9
$PUCSORGFRONT
 10
0.0
 20
0.0
 30
0.0
  9
$PUCSORGBACK
 10
0.0
 20
0.0
 30
0.0
  9
$USERI1
 70
     0
  9
$USERI2
 70
     0
  9
$USERI3
 70
     0
  9
$USERI4
 70
     0
  9
$USERI5
 70
     0
  9
$USERR1
 40
0.0
  9
$USERR2
 40
0.0
  9
$USERR3
 40
0.0
  9
$USERR4
 40
0.0
  9
$USERR5
 40
0.0
  9
$WORLDVIEW
 70
     1
  9
$SHADEDGE
 70
     3
  9
$SHADEDIF
 70
    70
  9
$TILEMODE
 70
     1
  9
$MAXACTVP
 70
    64
  9
$PINSBASE
 10
0.0
 20
0.0
 30
0.0
  9
$PLIMCHECK
 70
     0
  9
$PEXTMIN
 10
1.0000000000E+20
 20
1.0000000000E+20
 30
1.0000000000E+20
  9
$PEXTMAX
 10
-1.0000000000E+20
 20
-1.0000000000E+20
 30
-1.0000000000E+20
  9
$PLIMMIN
 10
0.0
 20
0.0
  9
$PLIMMAX
 10
420.0
 20
297.0
  9
$UNITMODE
 70
     0
  9
$VISRETAIN
 70
     1
  9
$PLINEGEN
 70
     0
  9
$PSLTSCALE
 70
     1
  9
$TREEDEPTH
 70
  3020
  9
$CMLSTYLE
  2
Standard
  9
$CMLJUST
 70
     0
  9
$CMLSCALE
 40
20.0
  9
$PROXYGRAPHICS
 70
     1
  9
$MEASUREMENT
 70
     1
  9
$CELWEIGHT
370
    -1
  9
$ENDCAPS
280
     0
  9
$JOINSTYLE
280
     0
  9
$LWDISPLAY
290
     1
  9
$INSUNITS
 70
     4
  9
$HYPERLINKBASE
  1

  9
$STYLESHEET
  1

  9
$XEDIT
290
     1
  9
$CEPSNTYPE
380
     0
  9
$PSTYLEMODE
290
     1
  9
$FINGERPRINTGUID
  2
{2aa53d17-074c-4d60-9bf6-c35046b8f9a8}
  9
$VERSIONGUID
  2
{FAEB1C32-E019-11D5-929B-00C0DF256EC4}
  9
$EXTNAMES
290
     1
  9
$PSVPSCALE
 40
0.0
  9
$OLESTARTUP
290
     0
  0
ENDSEC
  0
SECTION
  2
CLASSES
  0
CLASS
  1
ACDBDICTIONARYWDFLT
  2
AcDbDictionaryWithDefault
  3
ObjectDBX Classes
 90
        0
280
     0
281
     0
  0
CLASS
  1
VISUALSTYLE
  2
AcDbVisualStyle
  3
ObjectDBX Classes
 90
     4095
280
     0
281
     0
  0
CLASS
  1
MATERIAL
  2
AcDbMaterial
  3
ObjectDBX Classes
 90
     1153
280
     0
281
     0
  0
CLASS
  1
SCALE
  2
AcDbScale
  3
ObjectDBX Classes
 90
     1153
280
     0
281
     0
  0
CLASS
  1
TABLESTYLE
  2
AcDbTableStyle
  3
ObjectDBX Classes
 90
     4095
280
     0
281
     0
  0
CLASS
  1
MLEADERSTYLE
  2
AcDbMLeaderStyle
  3
ACDB_MLEADERSTYLE_CLASS
 90
     4095
280
     0
281
     0
  0
CLASS
  1
SUN
  2
AcDbSun
  3
SCENEOE
 90
     1153
280
     0
281
     0
  0
CLASS
  1
ACDBPLACEHOLDER
  2
AcDbPlaceHolder
  3
ObjectDBX Classes
 90
        0
280
     0
281
     0
  0
CLASS
  1
LAYOUT
  2
AcDbLayout
  3
ObjectDBX Classes
 90
        0
280
     0
281
     0
  0
ENDSEC
  0
SECTION
  2
TABLES
  0
TABLE
  2
VPORT
  5
8
330
0
100
AcDbSymbolTable
 70
     1
  0
VPORT
  5
29
330
8
100
AcDbSymbolTableRecord
100
AcDbViewportTableRecord
  2
*Active
 70
     0
 10
0.0
 20
0.0
 11
1.0
 21
1.0
 12
1000.0
 22
1000.0
 13
0.0
 23
0.0
 14
10.0
 24
10.0
 15
10.0
 25
10.0
 16
0.0
 26
0.0
 36
1.0
 17
0.0
 27
0.0
 37
0.0
 40
2000.0
 41
1.0
 42
50.0
 43
0.0
 44
0.0
 50
0.0
 51
0.0
 71
     0
 72
  2000
 73
     1
 74
     3
 75
     0
 76
     0
 77
     0
 78
     0
281
     0
 65
     1
110
0.0
120
0.0
130
0.0
111
1.0
121
0.0
131
0.0
112
0.0
122
1.0
132
0.0
 79
     0
146
0.0
  0
ENDTAB
  0
TABLE
  2
LTYPE
  5
5
330
0
100
AcDbSymbolTable
 70
     8
  0
LTYPE
  5
14
330
5
100
AcDbSymbolTableRecord
100
AcDbLinetypeTableRecord
  2
ByBlock
 70
     0
  3

 72
    65
 73
     0
 40
0.0
  0
LTYPE
  5
15
330
5
100
AcDbSymbolTableRecord
100
AcDbLinetypeTableRecord
  2
ByLayer
 70
     0
  3

 72
    65
 73
     0
 40
0.0
  0
LTYPE
  5
16
330
5
100
AcDbSymbolTableRecord
100
AcDbLinetypeTableRecord
  2
Continuous
 70
     0
  3
Solid line
 72
    65
 73
     0
 40
0.0
  0
LTYPE
  5
5E
330
5
100
AcDbSymbolTableRecord
100
AcDbLinetypeTableRecord
  2
SLD-Сплошная
 70
     0
  3
SolidWorks Line Style
 72
    65
 73
     0
 40
0.0
  0
LTYPE
  5
5F
330
5
100
AcDbSymbolTableRecord
100
AcDbLinetypeTableRecord
  2
SLD-Штриховая
 70
     0
  3
SolidWorks Line Style
 72
    65
 73
     2
 40
1.905
 49
1.27
 74
     0
 49
-0.635
 74
     0
  0
LTYPE
  5
60
330
5
100
AcDbSymbolTableRecord
100
AcDbLinetypeTableRecord
  2
SLD-Штрихпункт.-с-двумя-точками
 70
     0
  3
SolidWorks Line Style
 72
    65
 73
     6
 40
12.7
 49
6.35
 74
     0
 49
-1.27
 74
     0
 49
1.27
 74
     0
 49
-1.27
 74
     0
 49
1.27
 74
     0
 49
-1.27
 74
     0
  0
LTYPE
  5
61
330
5
100
AcDbSymbolTableRecord
100
AcDbLinetypeTableRecord
  2
SLD-Штрихпункт.-утолщ.
 70
     0
  3
SolidWorks Line Style
 72
    65
 73
     4
 40
10.16
 49
6.35
 74
     0
 49
-1.27
 74
     0
 49
1.27
 74
     0
 49
-1.27
 74
     0
  0
LTYPE
  5
62
330
5
100
AcDbSymbolTableRecord
100
AcDbLinetypeTableRecord
  2
SLD-Осевая
 70
     0
  3
SolidWorks Line Style
 72
    65
 73
     4
 40
19.05
 49
15.24
 74
     0
 49
-1.27
 74
     0
 49
1.27
 74
     0
 49
-1.27
 74
     0
  0
LTYPE
  5
63
330
5
100
AcDbSymbolTableRecord
100
AcDbLinetypeTableRecord
  2
SLD-Сшитая
 70
     0
  3
SolidWorks Line Style
 72
    65
 73
     2
 40
0.635
 49
0.0
 74
     0
 49
-0.635
 74
     0
  0
LTYPE
  5
64
330
5
100
AcDbSymbolTableRecord
100
AcDbLinetypeTableRecord
  2
SLD-Тонкая-Толстая
 70
     0
  3
SolidWorks Line Style
 72
    65
 73
     2
 40
5.080508
 49
0.000508
 74
     0
 49
-5.08
 74
     0
  0
ENDTAB
  0
TABLE
  2
LAYER
  5
2
330
0
100
AcDbSymbolTable
 70
     3
  0
LAYER
  5
10
330
2
100
AcDbSymbolTableRecord
100
AcDbLayerTableRecord
  2
0
 70
     0
 62
     7
  6
Continuous
370
    -3
390
F
  0
LAYER
  5
65
330
2
100
AcDbSymbolTableRecord
100
AcDbLayerTableRecord
  2
1
 70
     0
 62
     7
  6
SLD-Сплошная
370
    -1
390
F
  0
LAYER
  5
66
330
2
100
AcDbSymbolTableRecord
100
AcDbLayerTableRecord
  2
2
 70
     0
 62
     7
  6
SLD-Сплошная
370
    -3
390
F
  0
ENDTAB
  0
TABLE
  2
STYLE
  5
3
330
0
100
AcDbSymbolTable
 70
     1
  0
STYLE
  5
11
330
3
100
AcDbSymbolTableRecord
100
AcDbTextStyleTableRecord
  2
Standard
 70
     0
 40
0.0
 41
1.0
 50
0.0
 71
     0
 42
5.0
  3
txt
  4

  0
ENDTAB
  0
TABLE
  2
VIEW
  5
6
330
0
100
AcDbSymbolTable
 70
     0
  0
ENDTAB
  0
TABLE
  2
UCS
  5
7
330
0
100
AcDbSymbolTable
 70
     0
  0
ENDTAB
  0
TABLE
  2
APPID
  5
9
330
0
100
AcDbSymbolTable
 70
     1
  0
APPID
  5
12
330
9
100
AcDbSymbolTableRecord
100
AcDbRegAppTableRecord
  2
ACAD
 70
     0
  0
ENDTAB
  0
TABLE
  2
DIMSTYLE
  5
A
330
0
100
AcDbSymbolTable
 70
     1
100
AcDbDimStyleTable
  0
DIMSTYLE
105
27
330
A
100
AcDbSymbolTableRecord
100
AcDbDimStyleTableRecord
  2
ISO-25
 70
     0
 41
2.5
 42
0.625
 43
3.75
 44
1.25
 73
     0
 74
     0
 77
     1
 78
     8
140
2.5
141
2.5
143
0.0393700787
147
0.625
171
     3
172
     1
178
     0
271
     2
272
     2
274
     3
278
    44
283
     0
284
     8
340
11
  0
ENDTAB
  0
TABLE
  2
BLOCK_RECORD
  5
1
330
0
100
AcDbSymbolTable
 70
     1
  0
BLOCK_RECORD
  5
1F
330
1
100
AcDbSymbolTableRecord
100
AcDbBlockTableRecord
  2
*Model_Space
340
22
  0
BLOCK_RECORD
  5
1B
330
1
100
AcDbSymbolTableRecord
100
AcDbBlockTableRecord
  2
*Paper_Space
340
1E
  0
BLOCK_RECORD
  5
23
330
1
100
AcDbSymbolTableRecord
100
AcDbBlockTableRecord
  2
*Paper_Space0
340
26
  0
ENDTAB
  0
ENDSEC
  0
SECTION
  2
BLOCKS
  0
BLOCK
  5
20
330
1F
100
AcDbEntity
  8
0
100
AcDbBlockBegin
  2
*Model_Space
 70
     0
 10
0.0
 20
0.0
 30
0.0
  3
*Model_Space
  1

  0
ENDBLK
  5
21
330
1F
100
AcDbEntity
  8
0
100
AcDbBlockEnd
  0
BLOCK
  5
1C
330
1B
100
AcDbEntity
 67
     1
  8
0
100
AcDbBlockBegin
  2
*Paper_Space
 70
     0
 10
0.0
 20
0.0
 30
0.0
  3
*Paper_Space
  1

  0
ENDBLK
  5
1D
330
1B
100
AcDbEntity
 67
     1
  8
0
100
AcDbBlockEnd
  0
BLOCK
  5
24
330
23
100
AcDbEntity
  8
0
100
AcDbBlockBegin
  2
*Paper_Space0
 70
     0
 10
0.0
 20
0.0
 30
0.0
  3
*Paper_Space0
  1

  0
ENDBLK
  5
25
330
23
100
AcDbEntity
  8
0
100
AcDbBlockEnd
  0
ENDSEC
  0
SECTION
  2
ENTITIES
  0
LINE
  5
67
330
1F
100
AcDbEntity
  8
1
  6
SLD-Сплошная
100
AcDbLine
 10
1018.6054271659
 20
418.2292289255
 30
0.0
 11
1018.6054271659
 21
417.0234668679
 31
0.0
  0
LINE
  5
68
330
1F
100
AcDbEntity
  8
1
  6
SLD-Сплошная
100
AcDbLine
 10
1035.2054271659
 20
417.0234668679
 30
0.0
 11
1035.2054271659
 21
418.2292289255
 31
0.0
  0
ARC
  5
69
330
1F
100
AcDbEntity
  8
1
  6
SLD-Сплошная
100
AcDbCircle
 10
1019.6054271659
 20
417.0234668679
 30
0.0
 40
1.000000000000038
100
AcDbArc
 50
180.0
 51
257.5813184942
  0
ARC
  5
6A
330
1F
100
AcDbEntity
  8
1
  6
SLD-Сплошная
100
AcDbCircle
 10
1034.2054271659
 20
417.0234668679
 30
0.0
 40
1.000000000000038
100
AcDbArc
 50
282.4186815058
 51
0.0
  0
ARC
  5
6B
330
1F
100
AcDbEntity
  8
1
  6
SLD-Сплошная
100
AcDbCircle
 10
1026.9054271659
 20
450.1742289255
 30
0.0
 40
34.94500000000001
100
AcDbArc
 50
270.0104111827
 51
282.4186815058
  0
ARC
  5
6C
330
1F
100
AcDbEntity
  8
1
  6
SLD-Сплошная
100
AcDbCircle
 10
1026.9054271659
 20
450.1742289255
 30
0.0
 40
34.94499999999999
100
AcDbArc
 50
257.5813184942
 51
270.0104111827
  0
LINE
  5
6D
330
1F
100
AcDbEntity
  8
1
  6
SLD-Сплошная
100
AcDbLine
 10
544.1054271659
 20
915.4463862129
 30
0.0
 11
546.8054271659
 21
914.0292289254
 31
0.0
  0
LINE
  5
6E
330
1F
100
AcDbEntity
  8
1
  6
SLD-Сплошная
100
AcDbLine
 10
544.1054271659
 20
421.0120716381
 30
0.0
 11
546.8054271659
 21
422.4292289256
 31
0.0
  0
LINE
  5
6F
330
1F
100
AcDbEntity
  8
1
  6
SLD-Сплошная
100
AcDbLine
 10
544.1054271659
 20
915.4463862129
 30
0.0
 11
544.1054271659
 21
421.0120716381
 31
0.0
  0
LINE
  5
70
330
1F
100
AcDbEntity
  8
1
  6
SLD-Сплошная
100
AcDbLine
 10
544.1054271659
 20
915.4463862129
 30
0.0
 11
545.1054271659
 21
915.4463862129
 31
0.0
  0
LINE
  5
71
330
1F
100
AcDbEntity
  8
1
  6
SLD-Сплошная
100
AcDbLine
 10
545.1054271659
 20
915.4463862129
 30
0.0
 11
546.8054271659
 21
914.0292289254
 31
0.0
  0
LINE
  5
72
330
1F
100
AcDbEntity
  8
1
  6
SLD-Сплошная
100
AcDbLine
 10
546.805427166
 20
914.0292289254
 30
0.0
 11
545.3882698785
 21
916.7292289255
 31
0.0
  0
LINE
  5
73
330
1F
100
AcDbEntity
  8
1
  6
SLD-Сплошная
100
AcDbLine
 10
545.3882698785
 20
916.7292289255
 30
0.0
 11
1037.8225844534
 21
916.7292289255
 31
0.0
  0
LINE
  5
74
330
1F
100
AcDbEntity
  8
1
  6
SLD-Сплошная
100
AcDbLine
 10
1036.4054271658
 20
914.0292289255
 30
0.0
 11
1037.8225844533
 21
916.7292289255
 31
0.0
  0
LINE
  5
75
330
1F
100
AcDbEntity
  8
1
  6
SLD-Сплошная
100
AcDbLine
 10
546.8054271659
 20
914.0292289255
 30
0.0
 11
545.3882698785
 21
915.7292289255
 31
0.0
  0
LINE
  5
76
330
1F
100
AcDbEntity
  8
1
  6
SLD-Сплошная
100
AcDbLine
 10
545.3882698785
 20
916.7292289255
 30
0.0
 11
545.3882698785
 21
915.7292289255
 31
0.0
  0
CIRCLE
  5
77
330
1F
100
AcDbEntity
  8
1
  6
SLD-Сплошная
100
AcDbCircle
 10
979.105427166
 20
459.7292289255
 30
0.0
 40
0.5
  0
CIRCLE
  5
78
330
1F
100
AcDbEntity
  8
1
  6
SLD-Сплошная
100
AcDbCircle
 10
979.1054271659
 20
876.7292289255
 30
0.0
 40
0.4999999999998863
  0
CIRCLE
  5
79
330
1F
100
AcDbEntity
  8
1
  6
SLD-Сплошная
100
AcDbCircle
 10
599.1054271659
 20
856.7292289255
 30
0.0
 40
0.5000000000001137
  0
CIRCLE
  5
7A
330
1F
100
AcDbEntity
  8
1
  6
SLD-Сплошная
100
AcDbCircle
 10
599.1054271659
 20
479.7292289255
 30
0.0
 40
0.5
  0
LINE
  5
7B
330
1F
100
AcDbEntity
  8
1
  6
SLD-Сплошная
100
AcDbLine
 10
545.3882698785
 20
419.7292289255
 30
0.0
 11
1037.8225844534
 21
419.7292289255
 31
0.0
  0
LINE
  5
7C
330
1F
100
AcDbEntity
  8
1
  6
SLD-Сплошная
100
AcDbLine
 10
546.805427166
 20
422.4292289256
 30
0.0
 11
545.3882698785
 21
419.7292289255
 31
0.0
  0
LINE
  5
7D
330
1F
100
AcDbEntity
  8
1
  6
SLD-Сплошная
100
AcDbLine
 10
1036.4054271659
 20
422.4292289256
 30
0.0
 11
1037.8225844534
 21
419.7292289255
 31
0.0
  0
LINE
  5
7E
330
1F
100
AcDbEntity
  8
1
  6
SLD-Сплошная
100
AcDbLine
 10
546.805427166
 20
422.4292289255
 30
0.0
 11
545.3882698785
 21
420.7292289255
 31
0.0
  0
LINE
  5
7F
330
1F
100
AcDbEntity
  8
1
  6
SLD-Сплошная
100
AcDbLine
 10
545.3882698785
 20
419.7292289255
 30
0.0
 11
545.3882698785
 21
420.7292289255
 31
0.0
  0
LINE
  5
80
330
1F
100
AcDbEntity
  8
1
  6
SLD-Сплошная
100
AcDbLine
 10
545.1054271659
 20
421.0120716381
 30
0.0
 11
546.8054271659
 21
422.4292289256
 31
0.0
  0
LINE
  5
81
330
1F
100
AcDbEntity
  8
1
  6
SLD-Сплошная
100
AcDbLine
 10
544.1054271659
 20
421.0120716381
 30
0.0
 11
545.1054271659
 21
421.0120716381
 31
0.0
  0
LINE
  5
82
330
1F
100
AcDbEntity
  8
1
  6
SLD-Сплошная
100
AcDbLine
 10
1038.1054271659
 20
915.4463862129
 30
0.0
 11
1036.405427166
 21
914.0292289255
 31
0.0
  0
LINE
  5
83
330
1F
100
AcDbEntity
  8
1
  6
SLD-Сплошная
100
AcDbLine
 10
1039.1054271659
 20
915.4463862129
 30
0.0
 11
1038.1054271659
 21
915.4463862129
 31
0.0
  0
LINE
  5
84
330
1F
100
AcDbEntity
  8
1
  6
SLD-Сплошная
100
AcDbLine
 10
1039.1054271659
 20
915.4463862129
 30
0.0
 11
1036.4054271659
 21
914.0292289254
 31
0.0
  0
LINE
  5
85
330
1F
100
AcDbEntity
  8
1
  6
SLD-Сплошная
100
AcDbLine
 10
1039.1054271659
 20
915.4463862129
 30
0.0
 11
1039.105427166
 21
421.0120716382
 31
0.0
  0
LINE
  5
86
330
1F
100
AcDbEntity
  8
1
  6
SLD-Сплошная
100
AcDbLine
 10
1039.105427166
 20
421.0120716382
 30
0.0
 11
1036.405427166
 21
422.4292289256
 31
0.0
  0
LINE
  5
87
330
1F
100
AcDbEntity
  8
1
  6
SLD-Сплошная
100
AcDbLine
 10
1036.4054271659
 20
914.0292289256
 30
0.0
 11
1037.8225844533
 21
915.7292289255
 31
0.0
  0
LINE
  5
88
330
1F
100
AcDbEntity
  8
1
  6
SLD-Сплошная
100
AcDbLine
 10
1037.8225844534
 20
916.7292289255
 30
0.0
 11
1037.8225844533
 21
915.7292289255
 31
0.0
  0
LINE
  5
89
330
1F
100
AcDbEntity
  8
1
  6
SLD-Сплошная
100
AcDbLine
 10
1039.105427166
 20
421.0120716382
 30
0.0
 11
1038.105427166
 21
421.0120716382
 31
0.0
  0
LINE
  5
8A
330
1F
100
AcDbEntity
  8
1
  6
SLD-Сплошная
100
AcDbLine
 10
1038.105427166
 20
421.0120716382
 30
0.0
 11
1036.405427166
 21
422.4292289256
 31
0.0
  0
LINE
  5
8B
330
1F
100
AcDbEntity
  8
1
  6
SLD-Сплошная
100
AcDbLine
 10
1036.4054271659
 20
422.4292289255
 30
0.0
 11
1037.8225844534
 21
420.7292289255
 31
0.0
  0
LINE
  5
8C
330
1F
100
AcDbEntity
  8
1
  6
SLD-Сплошная
100
AcDbLine
 10
1037.8225844534
 20
419.7292289255
 30
0.0
 11
1037.8225844534
 21
420.7292289255
 31
0.0
  0
LINE
  5
8D
330
1F
100
AcDbEntity
  8
1
  6
SLD-Сплошная
100
AcDbLine
 10
1039.9054271659
 20
420.2999396036
 30
0.0
 11
1039.105427166
 21
421.0999396036
 31
0.0
  0
LINE
  5
8E
330
1F
100
AcDbEntity
  8
1
  6
SLD-Сплошная
100
AcDbLine
 10
1039.9054271659
 20
916.1585182474
 30
0.0
 11
1039.1054271659
 21
915.3585182474
 31
0.0
  0
LINE
  5
8F
330
1F
100
AcDbEntity
  8
1
  6
SLD-Сплошная
100
AcDbLine
 10
544.6175592005
 20
421.0120716381
 30
0.0
 11
543.9054271659
 21
420.2999396036
 31
0.0
  0
LINE
  5
90
330
1F
100
AcDbEntity
  8
1
  6
SLD-Сплошная
100
AcDbLine
 10
544.6175592005
 20
915.4463862129
 30
0.0
 11
543.9054271659
 21
916.1585182474
 31
0.0
  0
LINE
  5
91
330
1F
100
AcDbEntity
  8
1
  6
SLD-Сплошная
100
AcDbLine
 10
1039.0518737752
 20
915.4463862129
 30
0.0
 11
1039.8347164878
 21
916.2292289255
 31
0.0
  0
LINE
  5
92
330
1F
100
AcDbEntity
  8
1
  6
SLD-Сплошная
100
AcDbLine
 10
543.976137844
 20
916.2292289255
 30
0.0
 11
544.7589805567
 21
915.4463862129
 31
0.0
  0
LINE
  5
93
330
1F
100
AcDbEntity
  8
1
  6
SLD-Сплошная
100
AcDbLine
 10
1039.0518737752
 20
421.0120716382
 30
0.0
 11
1039.8347164878
 21
420.2292289255
 31
0.0
  0
LINE
  5
94
330
1F
100
AcDbEntity
  8
1
  6
SLD-Сплошная
100
AcDbLine
 10
543.976137844
 20
420.2292289255
 30
0.0
 11
544.7589805566
 21
421.0120716381
 31
0.0
  0
ELLIPSE
  5
95
330
1F
100
AcDbEntity
  8
1
  6
SLD-Сплошная
100
AcDbEllipse
 10
543.9054271659
 20
916.2292289255
 30
0.0
 11
1.000000000000114
 21
0.0
 31
0.0
210
0.0
220
0.0
230
1.0
 40
0.0707106781
 41
3.141592653588184
 42
4.712388980384691
  0
ELLIPSE
  5
96
330
1F
100
AcDbEntity
  8
1
  6
SLD-Сплошная
100
AcDbEllipse
 10
543.9054271659
 20
916.2292289255
 30
0.0
 11
2.0
 21
0.0
 31
0.0
210
0.0
220
0.0
230
1.0
 40
0.035355339
 41
3.141592653588182
 42
4.71238898038469
  0
LINE
  5
97
330
1F
100
AcDbEntity
  8
1
  6
SLD-Сплошная
100
AcDbLine
 10
542.9054271659
 20
916.2292289255
 30
0.0
 11
541.9054271659
 21
916.2292289255
 31
0.0
  0
ELLIPSE
  5
98
330
1F
100
AcDbEntity
  8
1
  6
SLD-Сплошная
100
AcDbEllipse
 10
543.9054271659
 20
420.2292289255
 30
0.0
 11
0.0
 21
2.0
 31
0.0
210
0.0
220
0.0
230
1.0
 40
0.035355339
 41
3.141592653662541
 42
4.712388980384661
  0
LINE
  5
99
330
1F
100
AcDbEntity
  8
1
  6
SLD-Сплошная
100
AcDbLine
 10
543.9054271659
 20
418.2292289255
 30
0.0
 11
543.9054271659
 21
418.5588996167
 31
0.0
  0
LINE
  5
9A
330
1F
100
AcDbEntity
  8
1
  6
SLD-Сплошная
100
AcDbLine
 10
543.9054271659
 20
418.5588996167
 30
0.0
 11
543.9054271659
 21
419.2292289255
 31
0.0
  0
ELLIPSE
  5
9B
330
1F
100
AcDbEntity
  8
1
  6
SLD-Сплошная
100
AcDbEllipse
 10
543.9054271659
 20
420.2292289255
 30
0.0
 11
0.0
 21
1.0
 31
0.0
210
0.0
220
0.0
230
1.0
 40
0.0707106781
 41
3.141592653665558
 42
4.712388980384634
  0
ELLIPSE
  5
9C
330
1F
100
AcDbEntity
  8
1
  6
SLD-Сплошная
100
AcDbEllipse
 10
543.9054271659
 20
916.2292289255
 30
0.0
 11
0.0
 21
1.0
 31
0.0
210
0.0
220
0.0
230
1.0
 40
0.0707106781
 41
4.712388980384691
 42
6.283185307179586
  0
LINE
  5
9D
330
1F
100
AcDbEntity
  8
1
  6
SLD-Сплошная
100
AcDbLine
 10
543.9054271659
 20
918.2292289255
 30
0.0
 11
543.9054271659
 21
917.2292289255
 31
0.0
  0
ELLIPSE
  5
9E
330
1F
100
AcDbEntity
  8
1
  6
SLD-Сплошная
100
AcDbEllipse
 10
543.9054271659
 20
916.2292289255
 30
0.0
 11
1.136868377216160E-13
 21
2.0
 31
0.0
210
0.0
220
0.0
230
1.0
 40
0.035355339
 41
4.712388980384692
 42
6.283185307179586
  0
ELLIPSE
  5
9F
330
1F
100
AcDbEntity
  8
1
  6
SLD-Сплошная
100
AcDbEllipse
 10
543.9054271659
 20
420.2292289255
 30
0.0
 11
2.0
 21
5.684341886080801E-14
 31
0.0
210
0.0
220
0.0
230
1.0
 40
0.035355339
 41
1.570796326794896
 42
3.141592653590995
  0
ELLIPSE
  5
A0
330
1F
100
AcDbEntity
  8
1
  6
SLD-Сплошная
100
AcDbEllipse
 10
543.9054271659
 20
420.2292289255
 30
0.0
 11
1.000000000000114
 21
0.0
 31
0.0
210
0.0
220
0.0
230
1.0
 40
0.0707106781
 41
1.570796326794897
 42
3.141592653590796
  0
LINE
  5
A1
330
1F
100
AcDbEntity
  8
1
  6
SLD-Сплошная
100
AcDbLine
 10
542.9054271659
 20
420.2292289255
 30
0.0
 11
541.9054271659
 21
420.2292289255
 31
0.0
  0
LINE
  5
A2
330
1F
100
AcDbEntity
  8
1
  6
SLD-Сплошная
100
AcDbLine
 10
541.9054271659
 20
420.2292289255
 30
0.0
 11
541.9054271659
 21
916.2292289255
 31
0.0
  0
ELLIPSE
  5
A3
330
1F
100
AcDbEntity
  8
1
  6
SLD-Сплошная
100
AcDbEllipse
 10
1039.905427166
 20
420.2292289255
 30
0.0
 11
0.0
 21
2.0
 31
0.0
210
0.0
220
0.0
230
1.0
 40
0.0353553391
 41
1.570796326794897
 42
3.141592653490108
  0
LINE
  5
A4
330
1F
100
AcDbEntity
  8
1
  6
SLD-Сплошная
100
AcDbLine
 10
545.0054271659
 20
418.2292289255
 30
0.0
 11
1039.9054271659
 21
418.2292289255
 31
0.0
  0
LINE
  5
A5
330
1F
100
AcDbEntity
  8
1
  6
SLD-Сплошная
100
AcDbLine
 10
543.9054271659
 20
418.2292289255
 30
0.0
 11
545.0054271659
 21
418.2292289255
 31
0.0
  0
ELLIPSE
  5
A6
330
1F
100
AcDbEntity
  8
1
  6
SLD-Сплошная
100
AcDbEllipse
 10
1039.9054271659
 20
916.2292289255
 30
0.0
 11
0.9999999999997726
 21
0.0
 31
0.0
210
0.0
220
0.0
230
1.0
 40
0.0707106781
 41
4.712388980384691
 42
6.283185307179586
  0
LINE
  5
A7
330
1F
100
AcDbEntity
  8
1
  6
SLD-Сплошная
100
AcDbLine
 10
1041.9054271659
 20
916.2292289255
 30
0.0
 11
1040.9054271659
 21
916.2292289255
 31
0.0
  0
ELLIPSE
  5
A8
330
1F
100
AcDbEntity
  8
1
  6
SLD-Сплошная
100
AcDbEllipse
 10
1039.9054271659
 20
916.2292289255
 30
0.0
 11
1.999999999999773
 21
0.0
 31
0.0
210
0.0
220
0.0
230
1.0
 40
0.0353553391
 41
4.71238898038469
 42
6.283185307179586
  0
ELLIPSE
  5
A9
330
1F
100
AcDbEntity
  8
1
  6
SLD-Сплошная
100
AcDbEllipse
 10
1039.905427166
 20
916.2292289255
 30
0.0
 11
0.0
 21
1.0
 31
0.0
210
0.0
220
0.0
230
1.0
 40
0.0707106782
 41
0.0
 42
1.570796326794783
  0
ELLIPSE
  5
AA
330
1F
100
AcDbEntity
  8
1
  6
SLD-Сплошная
100
AcDbEllipse
 10
1039.905427166
 20
916.2292289255
 30
0.0
 11
0.0
 21
2.0
 31
0.0
210
0.0
220
0.0
230
1.0
 40
0.0353553391
 41
0.0
 42
1.57079632679484
  0
LINE
  5
AB
330
1F
100
AcDbEntity
  8
1
  6
SLD-Сплошная
100
AcDbLine
 10
1039.9054271659
 20
917.2292289255
 30
0.0
 11
1039.9054271659
 21
918.2292289255
 31
0.0
  0
ELLIPSE
  5
AC
330
1F
100
AcDbEntity
  8
1
  6
SLD-Сплошная
100
AcDbEllipse
 10
1039.9054271659
 20
420.2292289255
 30
0.0
 11
1.999999999999773
 21
0.0
 31
0.0
210
0.0
220
0.0
230
1.0
 40
0.0353553391
 41
0.0
 42
1.570796326794897
  0
LINE
  5
AD
330
1F
100
AcDbEntity
  8
1
  6
SLD-Сплошная
100
AcDbLine
 10
1041.9054271659
 20
420.2292289255
 30
0.0
 11
1040.9054271659
 21
420.2292289255
 31
0.0
  0
ELLIPSE
  5
AE
330
1F
100
AcDbEntity
  8
1
  6
SLD-Сплошная
100
AcDbEllipse
 10
1039.9054271659
 20
420.2292289255
 30
0.0
 11
0.9999999999997726
 21
0.0
 31
0.0
210
0.0
220
0.0
230
1.0
 40
0.0707106781
 41
0.0
 42
1.570796326794897
  0
ELLIPSE
  5
AF
330
1F
100
AcDbEntity
  8
1
  6
SLD-Сплошная
100
AcDbEllipse
 10
1039.905427166
 20
420.2292289255
 30
0.0
 11
0.0
 21
1.0
 31
0.0
210
0.0
220
0.0
230
1.0
 40
0.0707106782
 41
1.570796326794897
 42
3.141592653490109
  0
LINE
  5
B0
330
1F
100
AcDbEntity
  8
1
  6
SLD-Сплошная
100
AcDbLine
 10
1039.9054271659
 20
419.2292289255
 30
0.0
 11
1039.9054271659
 21
418.2292289255
 31
0.0
  0
LINE
  5
B1
330
1F
100
AcDbEntity
  8
1
  6
SLD-Сплошная
100
AcDbLine
 10
543.9054271659
 20
918.2292289255
 30
0.0
 11
1039.9054271659
 21
918.2292289255
 31
0.0
  0
LINE
  5
B2
330
1F
100
AcDbEntity
  8
1
  6
SLD-Сплошная
100
AcDbLine
 10
1041.9054271659
 20
916.2292289255
 30
0.0
 11
1041.9054271659
 21
420.2292289255
 31
0.0
  0
LINE
  5
B3
330
1F
100
AcDbEntity
  8
1
  6
SLD-Сплошная
100
AcDbLine
 10
543.0054271659
 20
420.2292289255
 30
0.0
 11
543.0054271659
 21
420.2600509955
 31
0.0
  0
LINE
  5
B4
330
1F
100
AcDbEntity
  8
1
  6
SLD-Сплошная
100
AcDbLine
 10
544.0054271659
 20
420.2585182474
 30
0.0
 11
544.0054271659
 21
420.3999396036
 31
0.0
  0
ARC
  5
B5
330
1F
100
AcDbEntity
  8
1
  6
SLD-Сплошная
100
AcDbCircle
 10
545.0054271659
 20
420.2292289255
 30
0.0
 40
2.000000000000145
100
AcDbArc
 50
180.0
 51
236.6329870308
  0
ARC
  5
B6
330
1F
100
AcDbEntity
  8
1
  6
SLD-Сплошная
100
AcDbCircle
 10
543.9054271659
 20
916.2292289255
 30
0.0
 40
1.000000000006935
100
AcDbArc
 50
90.0
 51
180.0
  0
ARC
  5
B7
330
1F
100
AcDbEntity
  8
1
  6
SLD-Сплошная
100
AcDbCircle
 10
543.9054271659
 20
916.2292289255
 30
0.0
 40
2.000000000006935
100
AcDbArc
 50
90.0
 51
180.0
  0
ARC
  5
B8
330
1F
100
AcDbEntity
  8
1
  6
SLD-Сплошная
100
AcDbCircle
 10
1039.9054271659
 20
916.2292289255
 30
0.0
 40
2.0
100
AcDbArc
 50
0.0
 51
90.0
  0
ARC
  5
B9
330
1F
100
AcDbEntity
  8
1
  6
SLD-Сплошная
100
AcDbCircle
 10
1039.9054271659
 20
916.2292289255
 30
0.0
 40
1.0
100
AcDbArc
 50
0.0
 51
90.0
  0
ARC
  5
BA
330
1F
100
AcDbEntity
  8
1
  6
SLD-Сплошная
100
AcDbCircle
 10
1039.9054271659
 20
420.2292289255
 30
0.0
 40
1.0
100
AcDbArc
 50
270.0
 51
0.0
  0
ARC
  5
BB
330
1F
100
AcDbEntity
  8
1
  6
SLD-Сплошная
100
AcDbCircle
 10
1039.9054271659
 20
420.2292289255
 30
0.0
 40
2.0
100
AcDbArc
 50
270.0
 51
0.0
  0
LINE
  5
BC
330
1F
100
AcDbEntity
  8
1
  6
SLD-Сплошная
100
AcDbLine
 10
1040.9054271659
 20
420.2292289255
 30
0.0
 11
1039.9761378441
 21
420.2292289255
 31
0.0
  0
LINE
  5
BD
330
1F
100
AcDbEntity
  8
1
  6
SLD-Сплошная
100
AcDbLine
 10
1040.9054271659
 20
916.2292289255
 30
0.0
 11
1039.9761378441
 21
916.2292289255
 31
0.0
  0
LINE
  5
BE
330
1F
100
AcDbEntity
  8
1
  6
SLD-Сплошная
100
AcDbLine
 10
543.8347164878
 20
916.2292289255
 30
0.0
 11
542.9054271659
 21
916.2292289255
 31
0.0
  0
LINE
  5
BF
330
1F
100
AcDbEntity
  8
1
  6
SLD-Сплошная
100
AcDbLine
 10
543.0054271659
 20
420.2292289255
 30
0.0
 11
542.9054271659
 21
420.2292289255
 31
0.0
  0
LINE
  5
C0
330
1F
100
AcDbEntity
  8
1
  6
SLD-Сплошная
100
AcDbLine
 10
1039.9054271659
 20
420.1585182474
 30
0.0
 11
1039.9054271659
 21
419.2292289255
 31
0.0
  0
LINE
  5
C1
330
1F
100
AcDbEntity
  8
1
  6
SLD-Сплошная
100
AcDbLine
 10
1039.9054271659
 20
916.2999396037
 30
0.0
 11
1039.9054271659
 21
917.2292289255
 31
0.0
  0
LINE
  5
C2
330
1F
100
AcDbEntity
  8
1
  6
SLD-Сплошная
100
AcDbLine
 10
543.9054271659
 20
917.2292289255
 30
0.0
 11
543.9054271659
 21
916.2999396036
 31
0.0
  0
LINE
  5
C3
330
1F
100
AcDbEntity
  8
1
  6
SLD-Сплошная
100
AcDbLine
 10
999.3971010539
 20
417.7292289255
 30
0.0
 11
988.9054271659
 21
417.7292289255
 31
0.0
  0
ARC
  5
C4
330
1F
100
AcDbEntity
  8
1
  6
SLD-Сплошная
100
AcDbCircle
 10
999.3971010539
 20
420.1292289255
 30
0.0
 40
2.400000000000068
100
AcDbArc
 50
270.0
 51
307.6584620064
  0
LINE
  5
C5
330
1F
100
AcDbEntity
  8
1
  6
SLD-Сплошная
100
AcDbLine
 10
988.9054271659
 20
417.7292289255
 30
0.0
 11
594.9054271659
 21
417.7292289255
 31
0.0
  0
LINE
  5
C6
330
1F
100
AcDbEntity
  8
1
  6
SLD-Сплошная
100
AcDbLine
 10
594.9054271659
 20
417.7292289255
 30
0.0
 11
584.413753278
 21
417.7292289255
 31
0.0
  0
ARC
  5
C7
330
1F
100
AcDbEntity
  8
1
  6
SLD-Сплошная
100
AcDbCircle
 10
584.413753278
 20
420.1292289255
 30
0.0
 40
2.400000000000019
100
AcDbArc
 50
232.3415379936
 51
270.0
  0
CIRCLE
  5
C8
330
1F
100
AcDbEntity
  8
1
  6
SLD-Сплошная
100
AcDbCircle
 10
599.1054271659
 20
668.2292289255
 30
0.0
 40
14.0
  0
CIRCLE
  5
C9
330
1F
100
AcDbEntity
  8
1
  6
SLD-Сплошная
100
AcDbCircle
 10
599.1054271659
 20
668.2292289255
 30
0.0
 40
11.00000000000011
  0
CIRCLE
  5
CA
330
1F
100
AcDbEntity
  8
1
  6
SLD-Сплошная
100
AcDbCircle
 10
599.1054271659
 20
668.2292289255
 30
0.0
 40
8.000000000000114
  0
LINE
  5
CB
330
1F
100
AcDbEntity
  8
1
  6
SLD-Сплошная
100
AcDbLine
 10
594.831924474
 20
667.3632035217
 30
0.0
 11
600.4921785119
 21
664.0952543293
 31
0.0
  0
ARC
  5
CC
330
1F
100
AcDbEntity
  8
1
  6
SLD-Сплошная
100
AcDbCircle
 10
595.331924474
 20
668.2292289255
 30
0.0
 40
1.000000000000082
100
AcDbArc
 50
120.0
 51
240.0
  0
LINE
  5
CD
330
1F
100
AcDbEntity
  8
1
  6
SLD-Сплошная
100
AcDbLine
 10
600.4921785119
 20
672.3632035217
 30
0.0
 11
594.831924474
 21
669.0952543293
 31
0.0
  0
ARC
  5
CE
330
1F
100
AcDbEntity
  8
1
  6
SLD-Сплошная
100
AcDbCircle
 10
600.9921785119
 20
671.4971781179
 30
0.0
 40
1.00000000000004
100
AcDbArc
 50
0.0
 51
120.0
  0
LINE
  5
CF
330
1F
100
AcDbEntity
  8
1
  6
SLD-Сплошная
100
AcDbLine
 10
601.9921785119
 20
664.9612797331
 30
0.0
 11
601.9921785119
 21
671.4971781179
 31
0.0
  0
ARC
  5
D0
330
1F
100
AcDbEntity
  8
1
  6
SLD-Сплошная
100
AcDbCircle
 10
600.9921785119
 20
664.9612797331
 30
0.0
 40
1.0
100
AcDbArc
 50
240.0
 51
0.0
  0
LINE
  5
D1
330
1F
100
AcDbEntity
  8
1
  6
SLD-Сплошная
100
AcDbLine
 10
1559.3079306929
 20
954.2018442427
 30
0.0
 11
1559.3079306928
 21
1357.931764421
 31
0.0
  0
LINE
  5
D2
330
1F
100
AcDbEntity
  8
1
  6
SLD-Сплошная
100
AcDbLine
 10
1558.6200288111
 20
1359.1231961629
 30
0.0
 11
1210.412814797
 21
1560.1389420727
 31
0.0
  0
LINE
  5
D3
330
1F
100
AcDbEntity
  8
1
  6
SLD-Сплошная
100
AcDbLine
 10
1197.4083460218
 20
1551.8959069715
 30
0.0
 11
1197.4083460218
 21
1148.8479629197
 31
0.0
  0
LINE
  5
D4
330
1F
100
AcDbEntity
  8
1
  6
SLD-Сплошная
100
AcDbLine
 10
1198.0498195095
 20
1147.7369584397
 30
0.0
 11
1545.6665720251
 21
947.0620786974
 31
0.0
  0
LINE
  5
D5
330
1F
100
AcDbEntity
  8
1
  6
SLD-Сплошная
100
AcDbLine
 10
1688.7442580876
 20
1026.3474661531
 30
0.0
 11
1688.7442580876
 21
1431.3517088485
 31
0.0
  0
LINE
  5
D6
330
1F
100
AcDbEntity
  8
1
  6
SLD-Сплошная
100
AcDbLine
 10
1687.847709894
 20
1432.9044585705
 30
0.0
 11
1337.1227464255
 21
1635.3736703025
 31
0.0
  0
LINE
  5
D7
330
1F
100
AcDbEntity
  8
1
  6
SLD-Сплошная
100
AcDbLine
 10
1567.7431307997
 20
955.2206789234
 30
0.0
 11
1687.5977302108
 21
1024.4112664004
 31
0.0
  0
LINE
  5
D8
330
1F
100
AcDbEntity
  8
1
  6
SLD-Сплошная
100
AcDbLine
 10
1559.3079306929
 20
958.9357346992
 30
0.0
 11
1565.7079408686
 21
955.2410874675
 31
0.0
  0
LINE
  5
D9
330
1F
100
AcDbEntity
  8
1
  6
SLD-Сплошная
100
AcDbLine
 10
1214.0182485985
 20
1564.385404035
 30
0.0
 11
1214.0182485985
 21
1558.0575694423
 31
0.0
  0
LINE
  5
DA
330
1F
100
AcDbEntity
  8
1
  6
SLD-Сплошная
100
AcDbLine
 10
1334.872929277
 20
1635.3489162773
 30
0.0
 11
1215.0183298659
 21
1566.1583288003
 31
0.0
  0
LINE
  5
DB
330
1F
100
AcDbEntity
  8
1
  6
SLD-Сплошная
100
AcDbLine
 10
1224.5742406509
 20
1333.2273645973
 30
0.0
 11
1224.5742406509
 21
1330.7781402619
 31
0.0
  0
LINE
  5
DC
330
1F
100
AcDbEntity
  8
1
  6
SLD-Сплошная
100
AcDbLine
 10
1232.3511510718
 20
1317.3066766258
 30
0.0
 11
1234.4721266412
 21
1316.0818654241
 31
0.0
  0
LINE
  5
DD
330
1F
100
AcDbEntity
  8
1
  6
SLD-Сплошная
100
AcDbLine
 10
1228.1814112402
 20
1340.0453959438
 30
0.0
 11
1227.474304459
 21
1339.6371918879
 31
0.0
  0
LINE
  5
DE
330
1F
100
AcDbEntity
  8
1
  6
SLD-Сплошная
100
AcDbLine
 10
1241.4731667159
 20
1315.3878237412
 30
0.0
 11
1242.1802734971
 21
1315.7960277972
 31
0.0
  0
LINE
  5
DF
330
1F
100
AcDbEntity
  8
1
  6
SLD-Сплошная
100
AcDbLine
 10
1236.3078296249
 20
1323.2078655135
 30
0.0
 11
1237.9316760519
 21
1324.1452921021
 31
0.0
  0
LINE
  5
E0
330
1F
100
AcDbEntity
  8
1
  6
SLD-Сплошная
100
AcDbLine
 10
1233.0025631538
 20
1330.898605515
 30
0.0
 11
1231.3055068789
 21
1329.9189157808
 31
0.0
  0
LINE
  5
E1
330
1F
100
AcDbEntity
  8
1
  6
SLD-Сплошная
100
AcDbLine
 10
1562.0862765502
 20
1004.2131276366
 30
0.0
 11
1563.5004901126
 21
1005.0295357484
 31
0.0
  0
LINE
  5
E2
330
1F
100
AcDbEntity
  8
1
  6
SLD-Сплошная
100
AcDbLine
 10
1559.8506369967
 20
1288.1586234102
 30
0.0
 11
1560.1334797092
 21
1288.3219050326
 31
0.0
  0
LINE
  5
E3
330
1F
100
AcDbEntity
  8
1
  6
SLD-Сплошная
100
AcDbLine
 10
1561.0863578176
 20
1290.4279911423
 30
0.0
 11
1561.0863578176
 21
1290.5096319535
 31
0.0
  0
LINE
  5
E4
330
1F
100
AcDbEntity
  8
1
  6
SLD-Сплошная
100
AcDbLine
 10
1559.4970836061
 20
1026.6614615788
 30
0.0
 11
1559.7799263186
 21
1026.8247432011
 31
0.0
  0
LINE
  5
E5
330
1F
100
AcDbEntity
  8
1
  6
SLD-Сплошная
100
AcDbLine
 10
1560.732804427
 20
1028.9308293109
 30
0.0
 11
1560.732804427
 21
1030.2541760858
 31
0.0
  0
LINE
  5
E6
330
1F
100
AcDbEntity
  8
1
  6
SLD-Сплошная
100
AcDbLine
 10
1560.732804427
 20
1029.7996334725
 30
0.0
 11
1560.7878043996
 21
1029.8313842809
 31
0.0
  0
LINE
  5
E7
330
1F
100
AcDbEntity
  8
1
  6
SLD-Сплошная
100
AcDbLine
 10
1562.4398299408
 20
1265.710289468
 30
0.0
 11
1563.5004901126
 21
1266.3225955519
 31
0.0
  0
ELLIPSE
  5
E8
330
1F
100
AcDbEntity
  8
1
  6
SLD-Сплошная
100
AcDbEllipse
 10
1546.3078260908
 20
1351.2209607329
 30
0.0
 11
1.698791117367136
 21
0.8238102184852779
 31
0.0
210
0.0
220
0.0
230
1.0
 40
0.0778085159
 41
3.889276317357066
 42
5.4600726445556
  0
ELLIPSE
  5
E9
330
1F
100
AcDbEntity
  8
1
  6
SLD-Сплошная
100
AcDbEllipse
 10
1546.3078260908
 20
1351.2209607329
 30
0.0
 11
2.691140751009016
 21
0.8754882017487944
 31
0.0
210
0.0
220
0.0
230
1.0
 40
0.2496252376
 41
3.845959967500102
 42
5.416756294295046
  0
LINE
  5
EA
330
1F
100
AcDbEntity
  8
1
  6
SLD-Сплошная
100
AcDbLine
 10
1544.3986377816
 20
1350.1188097819
 30
0.0
 11
1545.1057445627
 21
1350.5270138379
 31
0.0
  0
ELLIPSE
  5
EB
330
1F
100
AcDbEntity
  8
1
  6
SLD-Сплошная
100
AcDbEllipse
 10
1546.3078260908
 20
949.80949761
 30
0.0
 11
2.346496907418668
 21
-1.886933551487118
 31
0.0
210
0.0
220
0.0
230
1.0
 40
0.7078398481
 41
4.444461987435314
 42
6.015258314230248
  0
ELLIPSE
  5
EC
330
1F
100
AcDbEntity
  8
1
  6
SLD-Сплошная
100
AcDbEllipse
 10
1546.3078260907
 20
1351.220960733
 30
0.0
 11
1.562801634037442
 21
1.059350639198783
 31
0.0
210
0.0
220
0.0
230
1.0
 40
0.0779476132
 41
0.8230997739036137
 42
2.393896100816687
  0
ELLIPSE
  5
ED
330
1F
100
AcDbEntity
  8
1
  6
SLD-Сплошная
100
AcDbEllipse
 10
1546.3078260907
 20
1351.220960733
 30
0.0
 11
2.103726216603491
 21
1.892910169518928
 31
0.0
210
0.0
220
0.0
230
1.0
 40
0.2497537726
 41
0.8663954412080038
 42
2.437191768144537
  0
ELLIPSE
  5
EE
330
1F
100
AcDbEntity
  8
1
  6
SLD-Сплошная
100
AcDbEllipse
 10
1200.1083460218
 20
1551.0776665071
 30
0.0
 11
-0.4612130826794782
 21
2.975579473084963
 31
0.0
210
0.0
220
0.0
230
0.9999999999999997
 40
0.7078581484
 41
0.267780228530279
 42
1.838576555328052
  0
LINE
  5
EF
330
1F
100
AcDbEntity
  8
1
  6
SLD-Сплошная
100
AcDbLine
 10
1559.0003928131
 20
953.7752917495
 30
0.0
 11
1548.2170144
 21
947.5501798969
 31
0.0
  0
LINE
  5
F0
330
1F
100
AcDbEntity
  8
1
  6
SLD-Сплошная
100
AcDbLine
 10
1559.0003928131
 20
1357.5010883967
 30
0.0
 11
1548.2170144
 21
1351.275976544
 31
0.0
  0
LINE
  5
F1
330
1F
100
AcDbEntity
  8
1
  6
SLD-Сплошная
100
AcDbLine
 10
1558.2932860319
 20
1357.9092924526
 30
0.0
 11
1547.5099076188
 21
1351.6841806
 31
0.0
  0
LINE
  5
F2
330
1F
100
AcDbEntity
  8
1
  6
SLD-Сплошная
100
AcDbLine
 10
1559.0003928131
 20
1357.5010883967
 30
0.0
 11
1558.2932860319
 21
1357.9092924526
 31
0.0
  0
LINE
  5
F3
330
1F
100
AcDbEntity
  8
1
  6
SLD-Сплошная
100
AcDbLine
 10
1547.3099076187
 20
1352.0305907606
 30
0.0
 11
1558.0932860318
 21
1358.2557026132
 31
0.0
  0
LINE
  5
F4
330
1F
100
AcDbEntity
  8
1
  6
SLD-Сплошная
100
AcDbLine
 10
1547.3099076187
 20
1352.8471315724
 30
0.0
 11
1558.0932860318
 21
1359.0722434251
 31
0.0
  0
LINE
  5
F5
330
1F
100
AcDbEntity
  8
1
  6
SLD-Сплошная
100
AcDbLine
 10
1558.0932860318
 20
1359.0722434251
 30
0.0
 11
1558.0932860318
 21
1358.2557026132
 31
0.0
  0
LINE
  5
F6
330
1F
100
AcDbEntity
  8
1
  6
SLD-Сплошная
100
AcDbLine
 10
1199.1062644939
 20
1553.8608160518
 30
0.0
 11
1209.889642907
 21
1560.0859279045
 31
0.0
  0
LWPOLYLINE
  5
F7
330
1F
100
AcDbEntity
  8
1
  6
SLD-Сплошная
100
AcDbPolyline
 90
       17
 70
   128
 43
0.0
 10
1503.527865829
 20
1002.7585133739
 10
1503.5547784784
 20
1002.8992153524
 10
1503.6314192196
 20
1002.9874240466
 10
1503.7461201946
 20
1003.0097104824
 10
1503.8814192196
 20
1002.9626817519
 10
1504.0167182446
 20
1002.8534975532
 10
1504.1314192196
 20
1002.6987801906
 10
1504.2080599608
 20
1002.5220839801
 10
1504.2349726102
 20
1002.350309318
 10
1504.2080599608
 20
1002.2096073395
 10
1504.1314192196
 20
1002.1213986454
 10
1504.0167182446
 20
1002.0991122096
 10
1503.8814192196
 20
1002.14614094
 10
1503.7461201946
 20
1002.2553251388
 10
1503.6314192196
 20
1002.4100425014
 10
1503.5547784784
 20
1002.5867387119
 10
1503.527865829
 20
1002.7585133739
  0
LWPOLYLINE
  5
F8
330
1F
100
AcDbEntity
  8
1
  6
SLD-Сплошная
100
AcDbPolyline
 90
       17
 70
   128
 43
0.0
 10
1504.2349726102
 20
1342.8478278744
 10
1504.2080599608
 20
1342.7071258959
 10
1504.1314192196
 20
1342.6189172017
 10
1504.0167182446
 20
1342.596630766
 10
1503.8814192196
 20
1342.6436594964
 10
1503.7461201945
 20
1342.7528436952
 10
1503.6314192196
 20
1342.9075610578
 10
1503.5547784784
 20
1343.0842572683
 10
1503.527865829
 20
1343.2560319303
 10
1503.5547784784
 20
1343.3967339088
 10
1503.6314192196
 20
1343.484942603
 10
1503.7461201945
 20
1343.5072290388
 10
1503.8814192196
 20
1343.4602003083
 10
1504.0167182446
 20
1343.3510161095
 10
1504.1314192196
 20
1343.1962987469
 10
1504.2080599608
 20
1343.0196025365
 10
1504.2349726102
 20
1342.8478278744
  0
LWPOLYLINE
  5
F9
330
1F
100
AcDbEntity
  8
1
  6
SLD-Сплошная
100
AcDbPolyline
 90
       17
 70
   128
 43
0.0
 10
1234.8272889781
 20
1482.0427569389
 10
1234.8542016274
 20
1482.1834589174
 10
1234.9308423687
 20
1482.2716676116
 10
1235.0455433436
 20
1482.2939540473
 10
1235.1808423687
 20
1482.2469253169
 10
1235.3161413937
 20
1482.1377411181
 10
1235.4308423687
 20
1481.9830237555
 10
1235.5074831099
 20
1481.8063275451
 10
1235.5343957593
 20
1481.634552883
 10
1235.5074831099
 20
1481.4938509045
 10
1235.4308423687
 20
1481.4056422103
 10
1235.3161413937
 20
1481.3833557746
 10
1235.1808423687
 20
1481.430384505
 10
1235.0455433436
 20
1481.5395687038
 10
1234.9308423687
 20
1481.6942860664
 10
1234.8542016274
 20
1481.8709822768
 10
1234.8272889781
 20
1482.0427569389
  0
LWPOLYLINE
  5
FA
330
1F
100
AcDbEntity
  8
1
  6
SLD-Сплошная
100
AcDbPolyline
 90
       17
 70
   128
 43
0.0
 10
1235.5343957593
 20
1173.7986668021
 10
1235.5074831099
 20
1173.6579648236
 10
1235.4308423687
 20
1173.5697561294
 10
1235.3161413937
 20
1173.5474696936
 10
1235.1808423687
 20
1173.5944984241
 10
1235.0455433437
 20
1173.7036826228
 10
1234.9308423687
 20
1173.8583999854
 10
1234.8542016275
 20
1174.0350961959
 10
1234.8272889781
 20
1174.206870858
 10
1234.8542016275
 20
1174.3475728365
 10
1234.9308423687
 20
1174.4357815306
 10
1235.0455433437
 20
1174.4580679664
 10
1235.1808423687
 20
1174.411039236
 10
1235.3161413937
 20
1174.3018550372
 10
1235.4308423687
 20
1174.1471376746
 10
1235.5074831099
 20
1173.9704414641
 10
1235.5343957593
 20
1173.7986668021
  0
LINE
  5
FB
330
1F
100
AcDbEntity
  8
1
  6
SLD-Сплошная
100
AcDbLine
 10
1547.2665604081
 20
1352.0054209785
 30
0.0
 11
1547.3099708222
 21
1352.0304812771
 31
0.0
  0
SPLINE
  5
FC
330
1F
100
AcDbEntity
  8
1
  6
SLD-Сплошная
100
AcDbSpline
210
0.0
220
0.0
230
1.0
 70
     8
 71
     3
 72
     9
 73
     5
 74
     0
 42
0.00000001
 43
0.00000001
 40
0.0
 40
0.0
 40
0.0
 40
0.0
 40
0.4999999999999966
 40
1.0
 40
1.0
 40
1.0
 40
1.0
 10
1559.000392813103
 20
953.7752917495184
 30
0.0
 10
1559.088570350902
 20
953.8413010947231
 30
0.0
 10
1559.264925426501
 20
953.9733197851325
 30
0.0
 10
1559.293595604071
 20
954.1406529473937
 30
0.0
 10
1559.307930692857
 20
954.2243195285242
 30
0.0
  0
SPLINE
  5
FD
330
1F
100
AcDbEntity
  8
1
  6
SLD-Сплошная
100
AcDbSpline
210
0.0
220
0.0
230
1.0
 70
     8
 71
     3
 72
    11
 73
     7
 74
     0
 42
0.00000001
 43
0.00000001
 40
0.0
 40
0.0
 40
0.0
 40
0.0
 40
0.250000000000002
 40
0.5000000000000013
 40
0.7499999999999987
 40
1.0
 40
1.0
 40
1.0
 40
1.0
 10
1559.000392813069
 20
1358.317489873513
 30
0.0
 10
1559.086522481042
 20
1358.258285035074
 30
0.0
 10
1559.258781816987
 20
1358.139875358196
 30
0.0
 10
1559.332505130741
 20
1357.909289135103
 30
0.0
 10
1559.258781816987
 20
1357.678702912009
 30
0.0
 10
1559.086522481042
 20
1357.560293235132
 30
0.0
 10
1559.000392813069
 20
1357.501088396693
 30
0.0
  0
SPLINE
  5
FE
330
1F
100
AcDbEntity
  8
1
  6
SLD-Сплошная
100
AcDbSpline
210
0.0
220
0.0
230
1.0
 70
     8
 71
     3
 72
    12
 73
     8
 74
     0
 42
0.00000001
 43
0.00000001
 40
0.0
 40
0.0
 40
0.0
 40
0.0
 40
0.076834993471658
 40
0.1653464171651755
 40
0.3824629150534855
 40
0.659555463825205
 40
0.9999999999999999
 40
0.9999999999999999
 40
0.9999999999999999
 40
0.9999999999999999
 10
1557.515468572577
 20
1357.460122021032
 30
0.0
 10
1557.552523578373
 20
1357.485319268189
 30
0.0
 10
1557.632264750587
 20
1357.5395429279
 30
0.0
 10
1557.836334849758
 20
1357.681969706894
 30
0.0
 10
1558.164033064846
 20
1357.892002614063
 30
0.0
 10
1558.622839485326
 20
1358.136785347579
 30
0.0
 10
1558.866219082894
 20
1358.25327165976
 30
0.0
 10
1559.000392813069
 20
1358.317489873513
 30
0.0
  0
SPLINE
  5
FF
330
1F
100
AcDbEntity
  8
1
  6
SLD-Сплошная
100
AcDbSpline
210
0.0
220
0.0
230
1.0
 70
     8
 71
     3
 72
    11
 73
     7
 74
     0
 42
0.00000001
 43
0.00000001
 40
0.0
 40
0.0
 40
0.0
 40
0.0
 40
0.2499999999999795
 40
0.5000000000003948
 40
0.7500000000001813
 40
1.0
 40
1.0
 40
1.0
 40
1.0
 10
1558.293286031882
 20
1357.909285817601
 30
0.0
 10
1558.297387444643
 20
1357.909706780897
 30
0.0
 10
1558.305590270164
 20
1357.91054870749
 30
0.0
 10
1558.309100904152
 20
1357.909289135103
 30
0.0
 10
1558.305590270164
 20
1357.908029562716
 30
0.0
 10
1558.297387444643
 20
1357.908871489308
 30
0.0
 10
1558.293286031882
 20
1357.909292452604
 30
0.0
  0
LINE
  5
100
330
1F
100
AcDbEntity
  8
1
  6
SLD-Сплошная
100
AcDbLine
 10
1558.2932860319
 20
1357.9092858176
 30
0.0
 11
1559.0003928131
 21
1358.3174898735
 31
0.0
  0
SPLINE
  5
101
330
1F
100
AcDbEntity
  8
1
  6
SLD-Сплошная
100
AcDbSpline
210
0.0
220
0.0
230
1.0
 70
     8
 71
     3
 72
    11
 73
     7
 74
     0
 42
0.00000001
 43
0.00000001
 40
0.0
 40
0.0
 40
0.0
 40
0.0
 40
0.2499999999999987
 40
0.5000000000000044
 40
0.7500000000000061
 40
1.0
 40
1.0
 40
1.0
 40
1.0
 10
1558.093286031811
 20
1359.072243425094
 30
0.0
 10
1558.187629794931
 20
1359.117221033441
 30
0.0
 10
1558.376317321172
 20
1359.207176250135
 30
0.0
 10
1558.61289558124
 20
1359.155689432775
 30
0.0
 10
1558.775750527555
 20
1358.976510090665
 30
0.0
 10
1558.79217871785
 20
1358.768103386299
 30
0.0
 10
1558.800392812998
 20
1358.663900034116
 30
0.0
  0
LINE
  5
102
330
1F
100
AcDbEntity
  8
1
  6
SLD-Сплошная
100
AcDbLine
 10
1558.0932860318
 20
1358.2556959782
 30
0.0
 11
1558.800392813
 21
1358.6639000341
 31
0.0
  0
SPLINE
  5
103
330
1F
100
AcDbEntity
  8
1
  6
SLD-Сплошная
100
AcDbSpline
210
0.0
220
0.0
230
1.0
 70
     8
 71
     3
 72
    11
 73
     7
 74
     0
 42
0.00000001
 43
0.00000001
 40
0.0
 40
0.0
 40
0.0
 40
0.0
 40
0.2499999999998636
 40
0.4999999999998825
 40
0.7500000000000676
 40
1.0
 40
1.0
 40
1.0
 40
1.0
 10
1558.093286031811
 20
1358.255702613208
 30
0.0
 10
1558.094972612669
 20
1358.259464261447
 30
0.0
 10
1558.098345774385
 20
1358.266987557923
 30
0.0
 10
1558.101193467946
 20
1358.26939537681
 30
0.0
 10
1558.100530527518
 20
1358.26572259928
 30
0.0
 10
1558.095700863714
 20
1358.25903818523
 30
0.0
 10
1558.093286031811
 20
1358.255695978205
 30
0.0
  0
SPLINE
  5
104
330
1F
100
AcDbEntity
  8
1
  6
SLD-Сплошная
100
AcDbSpline
210
0.0
220
0.0
230
1.0
 70
     8
 71
     3
 72
    13
 73
     9
 74
     0
 42
0.00000001
 43
0.00000001
 40
0.0
 40
0.0
 40
0.0
 40
0.0
 40
0.3220863390861125
 40
0.4996033953888815
 40
0.6100900277557058
 40
0.7293891021634802
 40
0.8589773926218538
 40
1.0
 40
1.0
 40
1.0
 40
1.0
 10
1558.800392812997
 20
1358.663900034116
 30
0.0
 10
1558.681785544737
 20
1358.590528769198
 30
0.0
 10
1558.49780818603
 20
1358.476719120578
 30
0.0
 10
1558.186234353874
 20
1358.313663092588
 30
0.0
 10
1557.970394780866
 20
1358.172479401699
 30
0.0
 10
1557.771556871491
 20
1358.041088566548
 30
0.0
 10
1557.548696034923
 20
1357.905663724757
 30
0.0
 10
1557.395370583507
 20
1357.840493918247
 30
0.0
 10
1557.315468572506
 20
1357.806532181636
 30
0.0
  0
SPLINE
  5
105
330
1F
100
AcDbEntity
  8
1
  6
SLD-Сплошная
100
AcDbSpline
210
0.0
220
0.0
230
1.0
 70
     8
 71
     3
 72
     9
 73
     5
 74
     0
 42
0.00000001
 43
0.00000001
 40
0.0
 40
0.0
 40
0.0
 40
0.0
 40
0.4999489266172195
 40
1.0
 40
1.0
 40
1.0
 40
1.0
 10
1210.432269567384
 20
1560.127692224465
 30
0.0
 10
1210.352653163991
 20
1560.15711648297
 30
0.0
 10
1210.193404090427
 20
1560.215971011778
 30
0.0
 10
1209.990903529709
 20
1560.129278558682
 30
0.0
 10
1209.889642906962
 20
1560.085927904456
 30
0.0
  0
ELLIPSE
  5
106
330
1F
100
AcDbEntity
  8
1
  6
SLD-Сплошная
100
AcDbEllipse
 10
1200.1083460218
 20
1551.077666507
 30
0.0
 11
2.346496907418896
 21
-1.886933551486663
 31
0.0
210
0.0
220
0.0
230
1.0
 40
0.7078398481
 41
2.873665660640208
 42
4.444461987435091
  0
ELLIPSE
  5
107
330
1F
100
AcDbEntity
  8
1
  6
SLD-Сплошная
100
AcDbEllipse
 10
1200.1083460218
 20
1149.6662033842
 30
0.0
 11
2.691140751009016
 21
0.8754882017487944
 31
0.0
210
0.0
220
0.0
230
1.0
 40
0.2496252376
 41
3.060561804100376
 42
3.845959967500152
  0
ELLIPSE
  5
108
330
1F
100
AcDbEntity
  8
1
  6
SLD-Сплошная
100
AcDbEllipse
 10
1200.1083460219
 20
1149.6662033841
 30
0.0
 11
2.103726216603491
 21
1.8929101695187
 31
0.0
210
0.0
220
0.0
230
1.0
 40
0.2497537726
 41
2.437191768009328
 42
3.222671195489154
  0
ELLIPSE
  5
109
330
1F
100
AcDbEntity
  8
1
  6
SLD-Сплошная
100
AcDbEllipse
 10
1546.3078260908
 20
949.8094976099
 30
0.0
 11
-0.4612130826792509
 21
2.975579473084849
 31
0.0
210
0.0
220
0.0
230
1.0
 40
0.7078581484
 41
1.838576555305758
 42
3.409372882120027
  0
LINE
  5
10A
330
1F
100
AcDbEntity
  8
1
  6
SLD-Сплошная
100
AcDbLine
 10
1199.0871018068
 20
1553.8495834347
 30
0.0
 11
1198.1991577126
 21
1553.3369842201
 31
0.0
  0
LINE
  5
10B
330
1F
100
AcDbEntity
  8
1
  6
SLD-Сплошная
100
AcDbLine
 10
1547.3099076188
 20
947.0263480652
 30
0.0
 11
1548.2170881092
 21
947.550052215
 31
0.0
  0
ELLIPSE
  5
10C
330
1F
100
AcDbEntity
  8
1
  6
SLD-Сплошная
100
AcDbEllipse
 10
1566.7432120671
 20
956.9527766482
 30
0.0
 11
1.999729017871687
 21
-0.05915489564517884
 31
0.0
210
0.0
220
0.0
230
1.0
 40
0.5565381198
 41
3.943452537666795
 42
5.514248864456504
  0
ELLIPSE
  5
10D
330
1F
100
AcDbEntity
  8
1
  6
SLD-Сплошная
100
AcDbEllipse
 10
1566.7432120671
 20
1361.9570193435
 30
0.0
 11
1.99964047996832
 21
0.06348472511626822
 31
0.0
210
0.0
220
0.0
230
1.0
 40
0.5973141192
 41
3.90802951947849
 42
5.47882584627883
  0
ELLIPSE
  5
10E
330
1F
100
AcDbEntity
  8
1
  6
SLD-Сплошная
100
AcDbEllipse
 10
1566.7432120671
 20
1361.9570193435
 30
0.0
 11
0.9991743340474383
 21
0.06590621743612243
 31
0.0
210
0.0
220
0.0
230
0.9999999999999998
 40
0.6164546531
 41
3.886351437116826
 42
5.457147763916946
  0
LINE
  5
10F
330
1F
100
AcDbEntity
  8
1
  6
SLD-Сплошная
100
AcDbLine
 10
1568.1574256294
 20
1361.1406112317
 30
0.0
 11
1567.4503188483
 21
1361.5488152876
 31
0.0
  0
LINE
  5
110
330
1F
100
AcDbEntity
  8
1
  6
SLD-Сплошная
100
AcDbLine
 10
1566.0361052859
 20
1361.4910771331
 30
0.0
 11
1565.3289985047
 21
1361.0828730772
 31
0.0
  0
ELLIPSE
  5
111
330
1F
100
AcDbEntity
  8
1
  6
SLD-Сплошная
100
AcDbEllipse
 10
1566.7432120671
 20
1361.9570193435
 30
0.0
 11
1.05472045094939
 21
1.700046099177371
 31
0.0
210
0.0
220
0.0
230
1.0
 40
0.5974079498
 41
0.8042814001835871
 42
2.37507772697186
  0
ELLIPSE
  5
112
330
1F
100
AcDbEntity
  8
1
  6
SLD-Сплошная
100
AcDbEllipse
 10
1216.0182485985
 20
1564.4262310756
 30
0.0
 11
0.9485527510505561
 21
1.761437681469488
 31
0.0
210
0.0
220
0.0
230
1.0
 40
0.5566319546
 41
0.7688525864767471
 42
2.339648913277311
  0
ARC
  5
113
330
1F
100
AcDbEntity
  8
1
  6
SLD-Сплошная
100
AcDbCircle
 10
1684.9415928378
 20
1430.1914770042
 30
0.0
 40
3.073609615129666
100
AcDbArc
 50
2.6054784854
 51
57.3945216601
  0
ARC
  5
114
330
1F
100
AcDbEntity
  8
1
  6
SLD-Сплошная
100
AcDbCircle
 10
1565.0869934267
 20
1361.0008895272
 30
0.0
 40
3.073609615145452
100
AcDbArc
 50
2.6054784857
 51
57.39452166
  0
ARC
  5
115
330
1F
100
AcDbEntity
  8
1
  6
SLD-Сплошная
100
AcDbCircle
 10
1565.9151027469
 20
1361.4789544353
 30
0.0
 40
1.536804807572186
100
AcDbArc
 50
2.6054784856
 51
57.39452166
  0
LINE
  5
116
330
1F
100
AcDbEntity
  8
1
  6
SLD-Сплошная
100
AcDbLine
 10
1566.7432120671
 20
1362.7735601554
 30
0.0
 11
1566.7432120671
 21
1363.5901009673
 31
0.0
  0
ELLIPSE
  5
117
330
1F
100
AcDbEntity
  8
1
  6
SLD-Сплошная
100
AcDbEllipse
 10
1566.7432120671
 20
1361.9570193435
 30
0.0
 11
0.5566258153921809
 21
0.8323823097882725
 31
0.0
210
0.0
220
0.0
230
1.0
 40
0.6165484625
 41
0.8259634570901473
 42
2.396759783872496
  0
LINE
  5
118
330
1F
100
AcDbEntity
  8
1
  6
SLD-Сплошная
100
AcDbLine
 10
1565.9861052859
 20
1361.5776796732
 30
0.0
 11
1565.2789985047
 21
1361.1694756173
 31
0.0
  0
LWPOLYLINE
  5
119
330
1F
100
AcDbEntity
  8
1
  6
SLD-Сплошная
100
AcDbPolyline
 90
       17
 70
   128
 43
0.0
 10
1630.3828223739
 20
1022.6786059023
 10
1630.2475233488
 20
1022.6315771718
 10
1630.1328223739
 20
1022.6538636076
 10
1630.0561816326
 20
1022.7420723018
 10
1630.0292689833
 20
1022.8827742803
 10
1630.0561816326
 20
1023.0545489423
 10
1630.1328223739
 20
1023.2312451528
 10
1630.2475233488
 20
1023.3859625154
 10
1630.3828223739
 20
1023.4951467142
 10
1630.5181213989
 20
1023.5421754446
 10
1630.6328223739
 20
1023.5198890088
 10
1630.7094631151
 20
1023.4316803147
 10
1630.7363757645
 20
1023.2909783362
 10
1630.7094631151
 20
1023.1192036741
 10
1630.6328223739
 20
1022.9425074636
 10
1630.5181213989
 20
1022.787790101
 10
1630.3828223739
 20
1022.6786059023
  0
LWPOLYLINE
  5
11A
330
1F
100
AcDbEntity
  8
1
  6
SLD-Сплошная
100
AcDbPolyline
 90
       17
 70
   128
 43
0.0
 10
1595.0274833145
 20
1010.4338112256
 10
1594.8921842895
 20
1010.3867824951
 10
1594.7774833145
 20
1010.4090689309
 10
1594.7008425733
 20
1010.4972776251
 10
1594.6739299239
 20
1010.6379796036
 10
1594.7008425733
 20
1010.8097542656
 10
1594.7774833145
 20
1010.9864504761
 10
1594.8921842895
 20
1011.1411678387
 10
1595.0274833145
 20
1011.2503520375
 10
1595.1627823396
 20
1011.2973807679
 10
1595.2774833145
 20
1011.2750943321
 10
1595.3541240558
 20
1011.186885638
 10
1595.3810367051
 20
1011.0461836595
 10
1595.3541240558
 20
1010.8744089974
 10
1595.2774833145
 20
1010.6977127869
 10
1595.1627823396
 20
1010.5429954243
 10
1595.0274833145
 20
1010.4338112256
  0
LWPOLYLINE
  5
11B
330
1F
100
AcDbEntity
  8
1
  6
SLD-Сплошная
100
AcDbPolyline
 90
       17
 70
   128
 43
0.0
 10
1595.0274833145
 20
1337.8666767918
 10
1595.1627823396
 20
1337.9137055222
 10
1595.2774833145
 20
1337.8914190864
 10
1595.3541240558
 20
1337.8032103923
 10
1595.3810367051
 20
1337.6625084138
 10
1595.3541240558
 20
1337.4907337517
 10
1595.2774833145
 20
1337.3140375412
 10
1595.1627823396
 20
1337.1593201786
 10
1595.0274833145
 20
1337.0501359799
 10
1594.8921842895
 20
1337.0031072494
 10
1594.7774833145
 20
1337.0253936852
 10
1594.7008425733
 20
1337.1136023794
 10
1594.6739299239
 20
1337.2543043579
 10
1594.7008425733
 20
1337.4260790199
 10
1594.7774833145
 20
1337.6027752304
 10
1594.8921842895
 20
1337.757492593
 10
1595.0274833145
 20
1337.8666767918
  0
LINE
  5
11C
330
1F
100
AcDbEntity
  8
1
  6
SLD-Сплошная
100
AcDbLine
 10
1560.732804427
 20
1029.7098213261
 30
0.0
 11
1560.8117185248
 21
1029.8963485698
 31
0.0
  0
LINE
  5
11D
330
1F
100
AcDbEntity
  8
1
  6
SLD-Сплошная
100
AcDbLine
 10
1565.3289985047
 20
956.1941066909
 30
0.0
 11
1559.3079306929
 21
966.6229020262
 31
0.0
  0
LINE
  5
11E
330
1F
100
AcDbEntity
  8
1
  6
SLD-Сплошная
100
AcDbLine
 10
1565.3289985047
 20
1361.0828730772
 30
0.0
 11
1559.3079306928
 21
1357.6058546647
 31
0.0
  0
LINE
  5
11F
330
1F
100
AcDbEntity
  8
1
  6
SLD-Сплошная
100
AcDbLine
 10
1559.3079306928
 20
1357.7213309737
 30
0.0
 11
1565.2789985047
 21
1361.1694756173
 31
0.0
  0
LINE
  5
120
330
1F
100
AcDbEntity
  8
1
  6
SLD-Сплошная
100
AcDbLine
 10
1214.6540350362
 20
1563.5809585781
 30
0.0
 11
1219.7550127888
 21
1554.7458059681
 31
0.0
  0
LINE
  5
121
330
1F
100
AcDbEntity
  8
1
  6
SLD-Сплошная
100
AcDbLine
 10
1559.3079306928
 20
1357.7211982737
 30
0.0
 11
1565.9861052859
 21
1361.5776796732
 31
0.0
  0
LINE
  5
122
330
1F
100
AcDbEntity
  8
1
  6
SLD-Сплошная
100
AcDbLine
 10
1559.6316176898
 20
1357.9079735746
 30
0.0
 11
1559.6314912828
 21
1357.9080465478
 31
0.0
  0
LINE
  5
123
330
1F
100
AcDbEntity
  8
1
  6
SLD-Сплошная
100
AcDbLine
 10
1558.9245109086
 20
1357.4997695187
 30
0.0
 11
1559.6316176898
 21
1357.9079735746
 31
0.0
  0
LINE
  5
124
330
1F
100
AcDbEntity
  8
1
  6
SLD-Сплошная
100
AcDbLine
 10
1559.3079306928
 20
1357.7210523036
 30
0.0
 11
1559.6316176898
 21
1357.9079735746
 31
0.0
  0
LINE
  5
125
330
1F
100
AcDbEntity
  8
1
  6
SLD-Сплошная
100
AcDbLine
 10
1551.136862881
 20
1353.8194140098
 30
0.0
 11
1546.606699257
 21
1351.2042062159
 31
0.0
  0
ELLIPSE
  5
126
330
1F
100
AcDbEntity
  8
1
  6
SLD-Сплошная
100
AcDbEllipse
 10
1552.5510764433
 20
1353.8195467098
 30
0.0
 11
1.580529840018926
 21
0.1927335649925226
 31
0.0
210
0.0
220
0.0
230
0.9999999999999999
 40
0.2276700627
 41
2.329626122800115
 42
2.650189545573586
  0
LWPOLYLINE
  5
127
330
1F
100
AcDbEntity
  8
1
  6
SLD-Сплошная
100
AcDbPolyline
 90
        3
 70
   128
 43
0.0
 10
1687.729099329
 20
1431.4745049982
 10
1687.6985394195
 20
1431.5638695894
 10
1687.6287012074
 20
1431.6849980225
  0
LINE
  5
128
330
1F
100
AcDbEntity
  8
1
  6
SLD-Сплошная
100
AcDbLine
 10
1688.5516632873
 20
1431.9071908052
 30
0.0
 11
1687.6287012074
 21
1431.6849980225
 31
0.0
  0
LWPOLYLINE
  5
129
330
1F
100
AcDbEntity
  8
1
  6
SLD-Сплошная
100
AcDbPolyline
 90
        9
 70
   128
 43
0.0
 10
1688.0120250406
 20
1430.3311987087
 10
1688.252721837
 20
1430.4923305536
 10
1688.4497651578
 20
1430.6721407787
 10
1688.5988723138
 20
1430.866721252
 10
1688.6968024969
 20
1431.0718428139
 10
1688.7414272183
 20
1431.2830471966
 10
1688.7317765703
 20
1431.4957439238
 10
1688.6680603074
 20
1431.7053100833
 10
1688.5516632873
 20
1431.9071908052
  0
ELLIPSE
  5
12A
330
1F
100
AcDbEntity
  8
1
  6
SLD-Сплошная
100
AcDbEllipse
 10
1686.2442580876
 20
1430.885700288
 30
0.0
 11
2.493080340725555
 21
0.9065865826366918
 31
0.0
210
0.0
220
0.0
230
1.0
 40
0.2050299685
 41
0.3206699638818582
 42
0.7109785221991199
  0
ARC
  5
12B
330
1F
100
AcDbEntity
  8
1
  6
SLD-Сплошная
100
AcDbCircle
 10
1687.5101557526
 20
1026.4600053807
 30
0.0
 40
1.23922300291511
100
AcDbArc
 50
293.8903166265
 51
354.7895424156
  0
LINE
  5
12C
330
1F
100
AcDbEntity
  8
1
  6
SLD-Сплошная
100
AcDbLine
 10
1688.2326276936
 20
1432.4597766613
 30
0.0
 11
1687.5787012074
 21
1431.7716005626
 31
0.0
  0
LWPOLYLINE
  5
12D
330
1F
100
AcDbEntity
  8
1
  6
SLD-Сплошная
100
AcDbPolyline
 90
        3
 70
   128
 43
0.0
 10
1687.5787012074
 20
1431.7716005626
 10
1687.5087086459
 20
1431.8926661332
 10
1687.446671095
 20
1431.9637487207
  0
LWPOLYLINE
  5
12E
330
1F
100
AcDbEntity
  8
1
  6
SLD-Сплошная
100
AcDbPolyline
 90
        9
 70
   128
 43
0.0
 10
1688.2326276936
 20
1432.4597766613
 10
1688.1159734243
 20
1432.6615526123
 10
1687.9663222709
 20
1432.8215496573
 10
1687.7869268652
 20
1432.9362902992
 10
1687.581686323
 20
1433.0032806778
 10
1687.3550614982
 20
1433.0210647733
 10
1687.1119780266
 20
1432.9892560527
 10
1686.857719269
 20
1432.9085458709
 10
1686.5978114782
 20
1432.7806884443
  0
ELLIPSE
  5
12F
330
1F
100
AcDbEntity
  8
1
  6
SLD-Сплошная
100
AcDbEllipse
 10
1686.1942580876
 20
1430.9723028281
 30
0.0
 11
2.031629674499754
 21
1.705837126210326
 31
0.0
210
0.0
220
0.0
230
0.9999999999999998
 40
0.2051618287
 41
5.572177975264855
 42
5.962486533598943
  0
ARC
  5
130
330
1F
100
AcDbEntity
  8
1
  6
SLD-Сплошная
100
AcDbCircle
 10
1336.6030824504
 20
1634.2485573856
 30
0.0
 40
1.239326318115999
100
AcDbArc
 50
65.2088626953
 51
126.1015957338
  0
ELLIPSE
  5
131
330
1F
100
AcDbEntity
  8
1
  6
SLD-Сплошная
100
AcDbEllipse
 10
1686.2442580876
 20
1430.885700288
 30
0.0
 11
1.499999995567578
 21
0.8660723209598019
 31
0.0
210
0.0
220
0.0
230
1.0
 40
0.0000703729
 41
5.497746512495794
 42
5.88805507184464
  0
LINE
  5
132
330
1F
100
AcDbEntity
  8
1
  6
SLD-Сплошная
100
AcDbLine
 10
1688.0120250406
 20
1431.9062104278
 30
0.0
 11
1687.6289262367
 21
1431.6850521958
 31
0.0
  0
LINE
  5
133
330
1F
100
AcDbEntity
  8
1
  6
SLD-Сплошная
100
AcDbLine
 10
1687.9620250406
 20
1431.9928129679
 30
0.0
 11
1687.5726137257
 21
1431.7680106009
 31
0.0
  0
LINE
  5
134
330
1F
100
AcDbEntity
  8
1
  6
SLD-Сплошная
100
AcDbLine
 10
1687.5726461555
 20
1431.7679562489
 30
0.0
 11
1687.9620250406
 21
1431.9928129679
 31
0.0
  0
LINE
  5
135
330
1F
100
AcDbEntity
  8
1
  6
SLD-Сплошная
100
AcDbLine
 10
1559.3079306929
 20
966.5074257171
 30
0.0
 11
1565.2789985047
 21
956.165232922
 31
0.0
  0
LINE
  5
136
330
1F
100
AcDbEntity
  8
1
  6
SLD-Сплошная
100
AcDbLine
 10
1565.3290066318
 20
956.1941019993
 30
0.0
 11
1565.2789985047
 21
956.165232922
 31
0.0
  0
LINE
  5
137
330
1F
100
AcDbEntity
  8
1
  6
SLD-Сплошная
100
AcDbLine
 10
1219.6550127889
 20
1554.8035347393
 30
0.0
 11
1214.6040350362
 21
1563.5520848092
 31
0.0
  0
LINE
  5
138
330
1F
100
AcDbEntity
  8
1
  6
SLD-Сплошная
100
AcDbLine
 10
1214.6540390994
 20
1563.5809515405
 30
0.0
 11
1214.6040350362
 21
1563.5520848092
 31
0.0
  0
ARC
  5
139
330
1F
100
AcDbEntity
  8
1
  6
SLD-Сплошная
100
AcDbCircle
 10
1567.2952768946
 20
955.9965141426
 30
0.0
 40
0.8734183948569728
100
AcDbArc
 50
230.7967147643
 51
9.2140369904
  0
LINE
  5
13A
330
1F
100
AcDbEntity
  8
1
  6
SLD-Сплошная
100
AcDbLine
 10
1566.7432120671
 20
955.8390282646
 30
0.0
 11
1566.7432120671
 21
955.3196950244
 31
0.0
  0
ARC
  5
13B
330
1F
100
AcDbEntity
  8
1
  6
SLD-Сплошная
100
AcDbCircle
 10
1687.0320212685
 20
1025.2187825239
 30
0.0
 40
0.9859558292181634
100
AcDbArc
 50
305.0133318151
 51
6.2988485782
  0
ELLIPSE
  5
13C
330
1F
100
AcDbEntity
  8
1
  6
SLD-Сплошная
100
AcDbEllipse
 10
1566.7432120671
 20
956.9527766482
 30
0.0
 11
1.05472045094939
 21
1.700046099177485
 31
0.0
210
0.0
220
0.0
230
1.0
 40
0.5974079498
 41
2.375077726971835
 42
3.94587405376697
  0
ELLIPSE
  5
13D
330
1F
100
AcDbEntity
  8
1
  6
SLD-Сплошная
100
AcDbEllipse
 10
1216.0182485985
 20
1564.4262310756
 30
0.0
 11
1.999640479969002
 21
0.06348472507011137
 31
0.0
210
0.0
220
0.0
230
0.9999999999999999
 40
0.5973141191
 41
2.337233192700304
 42
3.90802951949535
  0
LINE
  5
13E
330
1F
100
AcDbEntity
  8
1
  6
SLD-Сплошная
100
AcDbLine
 10
1215.0535255498
 20
1564.9831538371
 30
0.0
 11
1214.6040350362
 21
1565.2426391874
 31
0.0
  0
ARC
  5
13F
330
1F
100
AcDbEntity
  8
1
  6
SLD-Сплошная
100
AcDbCircle
 10
1215.466183771
 20
1565.3824935812
 30
0.0
 40
0.8734183948609838
100
AcDbArc
 50
50.7967147648
 51
189.2140369902
  0
ARC
  5
140
330
1F
100
AcDbEntity
  8
1
  6
SLD-Сплошная
100
AcDbCircle
 10
1335.2870079
 20
1634.4321375181
 30
0.0
 40
1.005954471803517
100
AcDbArc
 50
54.3824225248
 51
114.3071190461
  0
LWPOLYLINE
  5
141
330
1F
100
AcDbEntity
  8
1
  6
SLD-Сплошная
100
AcDbPolyline
 90
       21
 70
   128
 43
0.0
 10
1234.4737355875
 20
1338.944079181
 10
1236.0617262501
 20
1337.8793158377
 10
1237.6085887887
 20
1336.5460576121
 10
1239.0742602761
 20
1334.9788351918
 10
1240.4207805905
 20
1333.2182388143
 10
1241.6132755632
 20
1331.309867001
 10
1242.6208602008
 20
1329.3031455795
 10
1243.4174385904
 20
1327.2500475804
 10
1243.9823797701
 20
1325.2037471635
 10
1244.3010520602
 20
1323.2172424347
 10
1244.3652020156
 20
1321.3419828231
 10
1244.1731681863
 20
1319.6265365676
 10
1243.7299241476
 20
1318.115332825
 10
1243.0469496872
 20
1316.8475109785
 10
1242.141933485
 20
1315.855906948
 10
1241.0383149851
 20
1315.1662027571
 10
1239.764677327
 20
1314.7962613819
 10
1238.3540070571
 20
1314.7556641098
 10
1236.8428397944
 20
1315.0454623888
 10
1235.2703139771
 20
1315.6581505956
 10
1234.4721266412
 20
1316.0818654241
  0
LWPOLYLINE
  5
142
330
1F
100
AcDbEntity
  8
1
  6
SLD-Сплошная
100
AcDbPolyline
 90
       11
 70
   128
 43
0.0
 10
1224.5742406509
 20
1333.2273645973
 10
1224.6464191148
 20
1334.5636205196
 10
1224.9650914049
 20
1336.1821940539
 10
1225.5300325846
 20
1337.5762272686
 10
1226.3266109742
 20
1338.7096154357
 10
1227.3341956117
 20
1339.5530043969
 10
1228.5266905845
 20
1340.0845508212
 10
1229.8732108989
 20
1340.2904879355
 10
1231.3388823863
 20
1340.1654820766
 10
1232.8857449249
 20
1339.7127708306
 10
1234.4737355875
 20
1338.944079181
  0
LWPOLYLINE
  5
143
330
1F
100
AcDbEntity
  8
1
  6
SLD-Сплошная
100
AcDbPolyline
 90
       36
 70
   128
 43
0.0
 10
1232.3524152439
 20
1335.2698445776
 10
1233.7412619465
 20
1334.3237368277
 10
1235.0854699732
 20
1333.1193505304
 10
1236.3418353722
 20
1331.6953956522
 10
1237.4699775258
 20
1330.0976392745
 10
1238.4336370169
 20
1328.377434602
 10
1239.2018410366
 20
1326.5900704281
 10
1239.7498988755
 20
1324.7929941082
 10
1240.0601955039
 20
1323.0439651537
 10
1240.1227577327
 20
1321.3991987944
 10
1239.9355747605
 20
1319.9115591743
 10
1239.504662802
 20
1318.628860255
 10
1238.8438717221
 20
1317.592329035
 10
1237.9744398897
 20
1316.8352804806
 10
1236.9243115595
 20
1316.3820467554
 10
1235.7272387199
 20
1316.247195164
 10
1234.4216962769
 20
1316.4350599477
 10
1233.049645439
 20
1316.9396029777
 10
1231.6551850489
 20
1317.7446078259
 10
1230.2831342109
 20
1318.8242009741
 10
1228.977591768
 20
1320.1436834103
 10
1227.7805189284
 20
1321.6606458832
 10
1226.7303905981
 20
1323.3263319708
 10
1225.8609587658
 20
1325.0872051517
 10
1225.2001676859
 20
1326.8866695131
 10
1224.7692557273
 20
1328.6668887897
 10
1224.5820727551
 20
1330.3706452693
 10
1224.644634984
 20
1331.9431788168
 10
1224.9549316123
 20
1333.3339469099
 10
1225.5029894513
 20
1334.498249118
 10
1226.271193471
 20
1335.39866381
 10
1227.234852962
 20
1336.0062509168
 10
1228.3629951156
 20
1336.3014820891
 10
1229.6193605146
 20
1336.2748683538
 10
1230.9635685414
 20
1335.9272650984
 10
1232.3524152439
 20
1335.2698445776
  0
LWPOLYLINE
  5
144
330
1F
100
AcDbEntity
  8
1
  6
SLD-Сплошная
100
AcDbPolyline
 90
       16
 70
   128
 43
0.0
 10
1235.1808423687
 20
1339.3522832369
 10
1236.7688330313
 20
1338.2875198936
 10
1238.3156955699
 20
1336.954261668
 10
1239.7813670573
 20
1335.3870392477
 10
1241.1278873717
 20
1333.6264428702
 10
1242.3203823444
 20
1331.7180710569
 10
1243.327966982
 20
1329.7113496354
 10
1244.1245453716
 20
1327.6582516363
 10
1244.6894865513
 20
1325.6119512194
 10
1245.0081588413
 20
1323.6254464906
 10
1245.0723087968
 20
1321.750186879
 10
1244.8802749675
 20
1320.0347406235
 10
1244.4370309288
 20
1318.5235368809
 10
1243.7540564684
 20
1317.2557150344
 10
1242.8490402662
 20
1316.264111004
 10
1242.1802734971
 20
1315.7960277972
  0
ARC
  5
145
330
1F
100
AcDbEntity
  8
1
  6
SLD-Сплошная
100
AcDbCircle
 10
1231.0709484535
 20
1333.5369249395
 30
0.0
 40
7.121068748506324
100
AcDbArc
 50
54.7499671021
 51
113.9395744688
  0
LWPOLYLINE
  5
146
330
1F
100
AcDbEntity
  8
1
  6
SLD-Сплошная
100
AcDbPolyline
 90
       30
 70
   128
 43
0.0
 10
1232.3524152439
 20
1332.8202221419
 10
1233.5684716922
 20
1331.9654855338
 10
1234.7276666924
 20
1330.8452711327
 10
1235.7757975748
 20
1329.5119589191
 10
1236.6638549043
 20
1328.0278930902
 10
1237.350314107
 20
1326.4624669146
 10
1237.8030771137
 20
1324.8888779806
 10
1238.0009732293
 20
1323.3807055578
 10
1237.9347490515
 20
1322.0084701125
 10
1237.6075011491
 20
1320.8363358489
 10
1237.0345312704
 20
1319.9191104624
 10
1236.2426308501
 20
1319.2996823928
 10
1235.2688282717
 20
1319.0070154081
 10
1234.1586574616
 20
1319.0547942913
 10
1232.9640287728
 20
1319.4407849548
 10
1231.7408017151
 20
1320.1469389043
 10
1230.5461730263
 20
1321.1402371658
 10
1229.4360022161
 20
1322.3742342168
 10
1228.4621996377
 20
1323.7912297265
 10
1227.6702992175
 20
1325.3249665597
 10
1227.0973293388
 20
1326.9037288869
 10
1226.7700814364
 20
1328.4536955362
 10
1226.7038572585
 20
1329.9023917898
 10
1226.9017533742
 20
1331.182078221
 10
1227.3545163808
 20
1332.2329181145
 10
1228.0409755836
 20
1333.0057753648
 10
1228.929032913
 20
1333.4645120259
 10
1229.9771637955
 20
1333.5876780814
 10
1231.1363587957
 20
1333.3695144233
 10
1232.3524152439
 20
1332.8202221419
  0
LWPOLYLINE
  5
147
330
1F
100
AcDbEntity
  8
1
  6
SLD-Сплошная
100
AcDbPolyline
 90
       12
 70
   128
 43
0.0
 10
1237.7763701439
 20
1321.3016325935
 10
1236.7824053912
 20
1321.6450868567
 10
1235.5591783335
 20
1322.3512408062
 10
1234.3645496447
 20
1323.3445390678
 10
1233.2543788345
 20
1324.5785361187
 10
1232.2805762562
 20
1325.9955316284
 10
1231.4886758359
 20
1327.5292684616
 10
1230.9157059572
 20
1329.1080307888
 10
1230.5884580548
 20
1330.6579974381
 10
1230.5222338769
 20
1332.1066936917
 10
1230.7201299926
 20
1333.3863801229
 10
1230.7468369624
 20
1333.4784606021
  0
LINE
  5
148
330
1F
100
AcDbEntity
  8
1
  6
SLD-Сплошная
100
AcDbLine
 10
1233.1489691295
 20
1330.9438037669
 30
0.0
 11
1234.5234228942
 21
1331.0667006451
 31
0.0
  0
LINE
  5
149
330
1F
100
AcDbEntity
  8
1
  6
SLD-Сплошная
100
AcDbLine
 10
1233.1489691295
 20
1330.9438037669
 30
0.0
 11
1233.0025631538
 21
1330.898605515
 31
0.0
  0
LWPOLYLINE
  5
14A
330
1F
100
AcDbEntity
  8
1
  6
SLD-Сплошная
100
AcDbPolyline
 90
        9
 70
   128
 43
0.0
 10
1235.454316868
 20
1323.5708713175
 10
1235.6248575567
 20
1323.3908475014
 10
1235.8078702586
 20
1323.257373564
 10
1235.9908829605
 20
1323.1795455335
 10
1236.1614236492
 20
1323.1626672616
 10
1236.3078702586
 20
1323.2078889746
 10
1236.4202426943
 20
1323.3121288876
 10
1236.4908829605
 20
1323.4682832227
 10
1236.5149770398
 20
1323.66571032
  0
LINE
  5
14B
330
1F
100
AcDbEntity
  8
1
  6
SLD-Сплошная
100
AcDbLine
 10
1231.4519128546
 20
1328.54982386
 30
0.0
 11
1235.454316868
 21
1323.5708713175
 31
0.0
  0
LWPOLYLINE
  5
14C
330
1F
100
AcDbEntity
  8
1
  6
SLD-Сплошная
100
AcDbPolyline
 90
        9
 70
   128
 43
0.0
 10
1231.4519128546
 20
1329.9641140327
 10
1231.3054662452
 20
1329.9188923196
 10
1231.1930938095
 20
1329.8146524067
 10
1231.1224535433
 20
1329.6584980716
 10
1231.098359464
 20
1329.4610709743
 10
1231.1224535433
 20
1329.2358254452
 10
1231.1930938095
 20
1328.9981115948
 10
1231.3054662452
 20
1328.7641292292
 10
1231.4519128546
 20
1328.54982386
  0
LINE
  5
14D
330
1F
100
AcDbEntity
  8
1
  6
SLD-Сплошная
100
AcDbLine
 10
1235.191855153
 20
1330.2985212314
 30
0.0
 11
1231.4519128546
 21
1329.9641140327
 31
0.0
  0
LINE
  5
14E
330
1F
100
AcDbEntity
  8
1
  6
SLD-Сплошная
100
AcDbLine
 10
1236.5149770398
 20
1323.66571032
 30
0.0
 11
1236.5149770398
 21
1328.3082725013
 31
0.0
  0
ARC
  5
14F
330
1F
100
AcDbEntity
  8
1
  6
SLD-Сплошная
100
AcDbCircle
 10
1559.7414287297
 20
1051.0755969548
 30
0.0
 40
2.603316187512874
100
AcDbArc
 50
37.9787348638
 51
58.8941006487
  0
ARC
  5
150
330
1F
100
AcDbEntity
  8
1
  6
SLD-Сплошная
100
AcDbCircle
 10
1560.8443527396
 20
1051.5317891224
 30
0.0
 40
3.073609615143705
100
AcDbArc
 50
2.6054784857
 51
57.39452166
  0
SPLINE
  5
151
330
1F
100
AcDbEntity
  8
1
  6
SLD-Сплошная
100
AcDbSpline
210
0.0
220
0.0
230
1.0
 70
     8
 71
     3
 72
    12
 73
     8
 74
     0
 42
0.00000001
 43
0.00000001
 40
0.0
 40
0.0
 40
0.0
 40
0.0
 40
0.0038128522418986
 40
0.1589839410707332
 40
0.5234324970000745
 40
0.7821768889117957
 40
1.0
 40
1.0
 40
1.0
 40
1.0
 10
1563.207678161134
 20
1051.263306771006
 30
0.0
 10
1563.20645892302
 20
1051.264593051925
 30
0.0
 10
1563.155620530062
 20
1051.318226918849
 30
0.0
 10
1562.969961801994
 20
1051.505225844458
 30
0.0
 10
1562.616238167931
 20
1051.836869745579
 30
0.0
 10
1562.155234327651
 20
1052.266870510152
 30
0.0
 10
1561.906947998804
 20
1052.548756334723
 30
0.0
 10
1561.793464598761
 20
1052.677596943646
 30
0.0
  0
SPLINE
  5
152
330
1F
100
AcDbEntity
  8
1
  6
SLD-Сплошная
100
AcDbSpline
210
0.0
220
0.0
230
1.0
 70
     8
 71
     3
 72
    12
 73
     8
 74
     0
 42
0.00000001
 43
0.00000001
 40
0.0
 40
0.0
 40
0.0
 40
0.0
 40
0.2178231110882047
 40
0.4765675029999252
 40
0.8410160589292625
 40
0.9961871477580917
 40
1.0
 40
1.0
 40
1.0
 40
1.0
 10
1561.793464598758
 20
1004.122731132767
 30
0.0
 10
1561.906947998801
 20
1004.15214680513
 30
0.0
 10
1562.155234327648
 20
1004.216504317321
 30
0.0
 10
1562.616238167928
 20
1004.594530603759
 30
0.0
 10
1562.969961801991
 20
1005.063118988167
 30
0.0
 10
1563.155620530059
 20
1005.422203094692
 30
0.0
 10
1563.206458923016
 20
1005.534332156172
 30
0.0
 10
1563.207678161131
 20
1005.537021305406
 30
0.0
  0
LWPOLYLINE
  5
153
330
1F
100
AcDbEntity
  8
1
  6
SLD-Сплошная
100
AcDbPolyline
 90
        9
 70
   128
 43
0.0
 10
1559.3079306928
 20
1033.1405253309
 10
1559.6704950952
 20
1032.6343778995
 10
1560.2948274307
 20
1031.5020031977
 10
1560.7156495781
 20
1030.32122704
 10
1560.901751084
 20
1029.1796221922
 10
1560.839329651
 20
1028.1618562634
 10
1560.5330147912
 20
1027.3434122965
 10
1560.0055244765
 20
1026.7849905366
 10
1559.3079306929
 20
1026.5295391092
  0
ARC
  5
154
330
1F
100
AcDbEntity
  8
1
  6
SLD-Сплошная
100
AcDbCircle
 10
1561.7429807178
 20
1005.3488431602
 30
0.0
 40
1.22715089787132
100
AcDbArc
 50
237.6507184098
 51
272.3577620583
  0
LINE
  5
155
330
1F
100
AcDbEntity
  8
1
  6
SLD-Сплошная
100
AcDbLine
 10
1559.3079306929
 20
1005.3388078635
 30
0.0
 11
1561.0863578176
 21
1004.3121437375
 31
0.0
  0
LINE
  5
156
330
1F
100
AcDbEntity
  8
1
  6
SLD-Сплошная
100
AcDbLine
 10
1559.3079306928
 20
1054.3312565766
 30
0.0
 11
1561.0863578176
 21
1053.3045924507
 31
0.0
  0
LINE
  5
157
330
1F
100
AcDbEntity
  8
1
  6
SLD-Сплошная
100
AcDbLine
 10
1559.3079306928
 20
1055.9640728003
 30
0.0
 11
1562.5005713799
 21
1054.1210005625
 31
0.0
  0
LINE
  5
158
330
1F
100
AcDbEntity
  8
1
  6
SLD-Сплошная
100
AcDbLine
 10
1563.9147849423
 20
1005.9452253613
 30
0.0
 11
1563.9147849423
 21
1051.6715108269
 31
0.0
  0
ARC
  5
159
330
1F
100
AcDbEntity
  8
1
  6
SLD-Сплошная
100
AcDbCircle
 10
1562.9634138303
 20
1005.8240973042
 30
0.0
 40
0.9590510929964572
100
AcDbArc
 50
304.0563508377
 51
7.2558295557
  0
LWPOLYLINE
  5
15A
330
1F
100
AcDbEntity
  8
1
  6
SLD-Сплошная
100
AcDbPolyline
 90
        9
 70
   128
 43
0.0
 10
1559.2673356769
 20
1287.9610381558
 10
1559.8508239116
 20
1288.1587313314
 10
1560.4056426317
 20
1288.694295169
 10
1560.7291809173
 20
1289.5092078563
 10
1560.7952276207
 20
1290.5374500139
 10
1560.5984320309
 20
1291.6957195774
 10
1560.154737356
 20
1292.8901804352
 10
1559.5000890999
 20
1294.0240644725
 10
1559.3079306928
 20
1294.2889753498
  0
LWPOLYLINE
  5
15B
330
1F
100
AcDbEntity
  8
1
  6
SLD-Сплошная
100
AcDbPolyline
 90
        8
 70
   128
 43
0.0
 10
1560.1336666241
 20
1288.3220129538
 10
1560.6884853442
 20
1288.8575767913
 10
1561.0120236298
 20
1289.6724894786
 10
1561.0780703332
 20
1290.7007316362
 10
1560.8812747433
 20
1291.8590011997
 10
1560.4375800685
 20
1293.0534620576
 10
1559.7829318124
 20
1294.1873460949
 10
1559.3079306928
 20
1294.8027803701
  0
LWPOLYLINE
  5
15C
330
1F
100
AcDbEntity
  8
1
  6
SLD-Сплошная
100
AcDbPolyline
 90
        8
 70
   128
 43
0.0
 10
1559.3079306929
 20
1026.568908811
 10
1559.497270521
 20
1026.6615695
 10
1560.0520892411
 20
1027.1971333375
 10
1560.3756275267
 20
1028.0120460248
 10
1560.4416742301
 20
1029.0402881824
 10
1560.2448786403
 20
1030.1985577459
 10
1559.8011839654
 20
1031.3930186038
 10
1559.3486204834
 20
1032.220509176
  0
LWPOLYLINE
  5
15D
330
1F
100
AcDbEntity
  8
1
  6
SLD-Сплошная
100
AcDbPolyline
 90
        8
 70
   128
 43
0.0
 10
1559.7801132335
 20
1026.8248511224
 10
1560.3349319536
 20
1027.3604149599
 10
1560.6584702392
 20
1028.1753276472
 10
1560.7245169426
 20
1029.2035698048
 10
1560.5277213527
 20
1030.3618393683
 10
1560.0840266779
 20
1031.5563002262
 10
1559.4293784218
 20
1032.6901842634
 10
1559.3079306928
 20
1032.8603443991
  0
ARC
  5
15E
330
1F
100
AcDbEntity
  8
1
  6
SLD-Сплошная
100
AcDbCircle
 10
1560.0949821203
 20
1312.5727587862
 30
0.0
 40
2.603316187508927
100
AcDbArc
 50
37.9787348638
 51
58.8941006488
  0
ARC
  5
15F
330
1F
100
AcDbEntity
  8
1
  6
SLD-Сплошная
100
AcDbCircle
 10
1560.8443527396
 20
1312.8248489259
 30
0.0
 40
3.073609615143879
100
AcDbArc
 50
2.6054784857
 51
57.39452166
  0
SPLINE
  5
160
330
1F
100
AcDbEntity
  8
1
  6
SLD-Сплошная
100
AcDbSpline
210
0.0
220
0.0
230
1.0
 70
     8
 71
     3
 72
    12
 73
     8
 74
     0
 42
0.00000001
 43
0.00000001
 40
0.0
 40
0.0
 40
0.0
 40
0.0
 40
0.0038128522419083
 40
0.1589839410707364
 40
0.523432497000071
 40
0.7821768889117897
 40
1.0
 40
1.0
 40
1.0
 40
1.0
 10
1563.561231551725
 20
1312.760468602449
 30
0.0
 10
1563.56001231361
 20
1312.761754883367
 30
0.0
 10
1563.509173920652
 20
1312.815388750291
 30
0.0
 10
1563.323515192584
 20
1313.002387675901
 30
0.0
 10
1562.969791558521
 20
1313.334031577021
 30
0.0
 10
1562.508787718241
 20
1313.764032341594
 30
0.0
 10
1562.260501389394
 20
1314.045918166165
 30
0.0
 10
1562.147017989351
 20
1314.174758775088
 30
0.0
  0
SPLINE
  5
161
330
1F
100
AcDbEntity
  8
1
  6
SLD-Сплошная
100
AcDbSpline
210
0.0
220
0.0
230
1.0
 70
     8
 71
     3
 72
    12
 73
     8
 74
     0
 42
0.00000001
 43
0.00000001
 40
0.0
 40
0.0
 40
0.0
 40
0.0
 40
0.2178231110881935
 40
0.4765675029999272
 40
0.8410160589292646
 40
0.9961871477581015
 40
1.0
 40
1.0
 40
1.0
 40
1.0
 10
1562.147017989355
 20
1265.619892964205
 30
0.0
 10
1562.260501389397
 20
1265.649308636568
 30
0.0
 10
1562.508787718245
 20
1265.713666148759
 30
0.0
 10
1562.969791558524
 20
1266.091692435197
 30
0.0
 10
1563.323515192587
 20
1266.560280819606
 30
0.0
 10
1563.509173920656
 20
1266.919364926129
 30
0.0
 10
1563.560012313613
 20
1267.03149398761
 30
0.0
 10
1563.561231551728
 20
1267.034183136845
 30
0.0
  0
ARC
  5
162
330
1F
100
AcDbEntity
  8
1
  6
SLD-Сплошная
100
AcDbCircle
 10
1562.0965341084
 20
1266.8460049917
 30
0.0
 40
1.227150897868599
100
AcDbArc
 50
237.6507184097
 51
272.3577620584
  0
LINE
  5
163
330
1F
100
AcDbEntity
  8
1
  6
SLD-Сплошная
100
AcDbLine
 10
1559.3079306928
 20
1267.0400717229
 30
0.0
 11
1561.4399112082
 21
1265.809305569
 31
0.0
  0
LINE
  5
164
330
1F
100
AcDbEntity
  8
1
  6
SLD-Сплошная
100
AcDbLine
 10
1559.3079306928
 20
1316.032520436
 30
0.0
 11
1561.4399112082
 21
1314.8017542821
 31
0.0
  0
LINE
  5
165
330
1F
100
AcDbEntity
  8
1
  6
SLD-Сплошная
100
AcDbLine
 10
1559.3079306928
 20
1317.2571326038
 30
0.0
 11
1562.5005713799
 21
1315.414060366
 31
0.0
  0
LINE
  5
166
330
1F
100
AcDbEntity
  8
1
  6
SLD-Сплошная
100
AcDbLine
 10
1563.9147849423
 20
1267.2382851648
 30
0.0
 11
1563.9147849423
 21
1312.9645706304
 31
0.0
  0
ARC
  5
167
330
1F
100
AcDbEntity
  8
1
  6
SLD-Сплошная
100
AcDbCircle
 10
1562.9634138294
 20
1267.1171571081
 30
0.0
 40
0.959051093810374
100
AcDbArc
 50
304.0563508676
 51
7.2558295258
  0
ARC
  5
168
330
1F
100
AcDbEntity
  8
1
  6
SLD-Сплошная
100
AcDbCircle
 10
1504.6325997506
 20
1002.9880586364
 30
0.0
 40
0.7516089994846983
100
AcDbArc
 50
181.934747039
 51
238.0598770446
  0
ARC
  5
169
330
1F
100
AcDbEntity
  8
1
  6
SLD-Сплошная
100
AcDbCircle
 10
1629.639627132
 20
1023.5159139023
 30
0.0
 40
0.7434854237539014
100
AcDbArc
 50
301.6059689344
 51
358.3991383317
  0
LINE
  5
16A
330
1F
100
AcDbEntity
  8
0
  6
SLD-Сплошная
 62
     8
370
    18
100
AcDbLine
 10
1548.2170144
 20
1351.275976544
 30
0.0
 11
1547.5099076188
 21
1351.6841805999
 31
0.0
  0
LINE
  5
16B
330
1F
100
AcDbEntity
  8
0
  6
SLD-Сплошная
 62
     8
370
    18
100
AcDbLine
 10
1548.2170144
 20
1351.275976544
 30
0.0
 11
1548.2170144
 21
947.5501798969
 31
0.0
  0
LINE
  5
16C
330
1F
100
AcDbEntity
  8
0
  6
SLD-Сплошная
 62
     8
370
    18
100
AcDbLine
 10
1544.3986377816
 20
1350.1188097819
 30
0.0
 11
1544.3986377816
 21
948.707346659
 31
0.0
  0
LINE
  5
16D
330
1F
100
AcDbEntity
  8
0
  6
SLD-Сплошная
 62
     8
370
    18
100
AcDbLine
 10
1547.3099076187
 20
1352.8471315724
 30
0.0
 11
1547.3099076187
 21
1352.0305907606
 31
0.0
  0
LINE
  5
16E
330
1F
100
AcDbEntity
  8
0
  6
SLD-Сплошная
 62
     8
370
    18
100
AcDbLine
 10
1198.1991577126
 20
1549.9755155561
 30
0.0
 11
1544.3986377816
 21
1350.1188097819
 31
0.0
  0
LINE
  5
16F
330
1F
100
AcDbEntity
  8
0
  6
SLD-Сплошная
 62
     8
370
    18
100
AcDbLine
 10
1199.1062644939
 20
1553.8608160518
 30
0.0
 11
1547.3099076187
 21
1352.8471315724
 31
0.0
  0
LINE
  5
170
330
1F
100
AcDbEntity
  8
0
  6
SLD-Сплошная
 62
     8
370
    18
100
AcDbLine
 10
1559.0003928131
 20
1357.5010883967
 30
0.0
 11
1559.0003928131
 21
953.7752917495
 31
0.0
  0
LINE
  5
171
330
1F
100
AcDbEntity
  8
0
  6
SLD-Сплошная
 62
     8
370
    18
100
AcDbLine
 10
1209.889642907
 20
1560.0859279045
 30
0.0
 11
1558.0932860318
 21
1359.0722434251
 31
0.0
  0
LINE
  5
172
330
1F
100
AcDbEntity
  8
0
  6
SLD-Сплошная
 62
     8
370
    18
100
AcDbLine
 10
1198.1991577126
 20
1148.5640524332
 30
0.0
 11
1544.3986377816
 21
948.707346659
 31
0.0
  0
LINE
  5
173
330
1F
100
AcDbEntity
  8
0
  6
SLD-Сплошная
 62
     8
370
    18
100
AcDbLine
 10
1198.1991577126
 20
1549.9755155561
 30
0.0
 11
1198.1991577126
 21
1148.5640524332
 31
0.0
  0
LINE
  5
174
330
1F
100
AcDbEntity
  8
0
  6
SLD-Сплошная
 62
     8
370
    18
100
AcDbLine
 10
1198.1991577126
 20
1553.3369842201
 30
0.0
 11
1198.4347901087
 21
1553.2009565333
 31
0.0
  0
LINE
  5
175
330
1F
100
AcDbEntity
  8
0
  6
SLD-Сплошная
 62
     8
370
    18
100
AcDbLine
 10
1547.3099076188
 20
947.0263480652
 30
0.0
 11
1547.3099076188
 21
947.2986654775
 31
0.0
  0
LINE
  5
176
330
1F
100
AcDbEntity
  8
0
  6
SLD-Сплошная
 62
     8
370
    18
100
AcDbLine
 10
1568.1574256294
 20
1361.1406112317
 30
0.0
 11
1568.1574256294
 21
956.1363685364
 31
0.0
  0
LINE
  5
177
330
1F
100
AcDbEntity
  8
0
  6
SLD-Сплошная
 62
     8
370
    18
100
AcDbLine
 10
1565.3289985047
 20
956.1941066909
 30
0.0
 11
1565.3289985047
 21
1361.0828730772
 31
0.0
  0
LINE
  5
178
330
1F
100
AcDbEntity
  8
0
  6
SLD-Сплошная
 62
     8
370
    18
100
AcDbLine
 10
1216.0182485985
 20
1566.0593126993
 30
0.0
 11
1566.7432120671
 21
1363.5901009673
 31
0.0
  0
LINE
  5
179
330
1F
100
AcDbEntity
  8
0
  6
SLD-Сплошная
 62
     8
370
    18
100
AcDbLine
 10
1565.2789985047
 20
1361.1694756173
 30
0.0
 11
1214.6540350362
 21
1563.5809585781
 31
0.0
  0
LINE
  5
17A
330
1F
100
AcDbEntity
  8
0
  6
SLD-Сплошная
 62
     8
370
    18
100
AcDbLine
 10
1686.5978114782
 20
1432.7806884443
 30
0.0
 11
1566.7432120671
 21
1363.5901009673
 31
0.0
  0
LINE
  5
17B
330
1F
100
AcDbEntity
  8
0
  6
SLD-Сплошная
 62
     8
370
    18
100
AcDbLine
 10
1688.0120250406
 20
1430.3311987087
 30
0.0
 11
1568.1574256294
 21
1361.1406112317
 31
0.0
  0
LINE
  5
17C
330
1F
100
AcDbEntity
  8
0
  6
SLD-Сплошная
 62
     8
370
    18
100
AcDbLine
 10
1688.0120250406
 20
1430.3311987087
 30
0.0
 11
1688.0120250406
 21
1025.3269560133
 31
0.0
  0
LINE
  5
17D
330
1F
100
AcDbEntity
  8
0
  6
SLD-Сплошная
 62
     8
370
    18
100
AcDbLine
 10
1688.0120250406
 20
1025.3269560133
 30
0.0
 11
1568.1574256294
 21
956.1363685364
 31
0.0
  0
LINE
  5
17E
330
1F
100
AcDbEntity
  8
0
  6
SLD-Сплошная
 62
     8
370
    18
100
AcDbLine
 10
1335.8728480097
 20
1635.2499001763
 30
0.0
 11
1216.0182485985
 21
1566.0593126993
 31
0.0
  0
LINE
  5
17F
330
1F
100
AcDbEntity
  8
0
  6
SLD-Сплошная
 62
     8
370
    18
100
AcDbLine
 10
1335.8728480097
 20
1635.2499001763
 30
0.0
 11
1686.5978114782
 21
1432.7806884443
 31
0.0
  0
LINE
  5
180
330
1F
100
AcDbEntity
  8
0
  6
SLD-Сплошная
 62
     8
370
    18
100
AcDbLine
 10
1552.587080505
 20
1354.6151701193
 30
0.0
 11
1552.187174424
 21
1354.8460309858
 31
0.0
  0
LINE
  5
181
330
1F
100
AcDbEntity
  8
0
  6
SLD-Сплошная
 62
     8
370
    18
100
AcDbLine
 10
1551.136862881
 20
1353.8194140098
 30
0.0
 11
1550.7728459276
 21
1354.0295565239
 31
0.0
  0
LINE
  5
182
330
1F
100
AcDbEntity
  8
0
  6
SLD-Сплошная
 62
     8
370
    18
100
AcDbLine
 10
1551.136862881
 20
1353.7779773051
 30
0.0
 11
1551.136862881
 21
1353.8194140098
 31
0.0
  0
LINE
  5
183
330
1F
100
AcDbEntity
  8
0
  6
SLD-Сплошная
 62
     8
370
    18
100
AcDbLine
 10
1565.2789985047
 20
956.165232922
 30
0.0
 11
1559.3079306929
 21
959.6122569978
 31
0.0
  0
LINE
  5
184
330
1F
100
AcDbEntity
  8
0
  6
SLD-Сплошная
 62
     8
370
    18
100
AcDbLine
 10
1214.6040350362
 20
1563.5520848092
 30
0.0
 11
1214.6040350362
 21
1557.71940213
 31
0.0
  0
LINE
  5
185
330
1F
100
AcDbEntity
  8
0
  6
SLD-Сплошная
 62
     8
370
    18
100
AcDbLine
 10
1236.5149770398
 20
1323.66571032
 30
0.0
 11
1237.8848612158
 21
1324.4565276218
 31
0.0
  0
LINE
  5
186
330
1F
100
AcDbEntity
  8
0
  6
SLD-Сплошная
 62
     8
370
    18
100
AcDbLine
 10
1233.1489691295
 20
1330.9438037669
 30
0.0
 11
1231.4519128546
 21
1329.9641140327
 31
0.0
  0
LINE
  5
187
330
1F
100
AcDbEntity
  8
0
  6
SLD-Сплошная
 62
     8
370
    18
100
AcDbLine
 10
1561.0863578176
 20
1053.3045924507
 30
0.0
 11
1562.5005713799
 21
1054.1210005625
 31
0.0
  0
LINE
  5
188
330
1F
100
AcDbEntity
  8
0
  6
SLD-Сплошная
 62
     8
370
    18
100
AcDbLine
 10
1563.9147849423
 20
1051.6715108269
 30
0.0
 11
1563.2076781611
 21
1051.263306771
 31
0.0
  0
LINE
  5
189
330
1F
100
AcDbEntity
  8
0
  6
SLD-Сплошная
 62
     8
370
    18
100
AcDbLine
 10
1561.7934645988
 20
1052.6775969436
 30
0.0
 11
1561.7934645988
 21
1004.1227311328
 31
0.0
  0
LINE
  5
18A
330
1F
100
AcDbEntity
  8
0
  6
SLD-Сплошная
 62
     8
370
    18
100
AcDbLine
 10
1563.2076781611
 20
1051.263306771
 30
0.0
 11
1563.2076781611
 21
1005.5370213054
 31
0.0
  0
LINE
  5
18B
330
1F
100
AcDbEntity
  8
0
  6
SLD-Сплошная
 62
     8
370
    18
100
AcDbLine
 10
1563.2076781611
 20
1005.5370213054
 30
0.0
 11
1563.9147849423
 21
1005.9452253613
 31
0.0
  0
LINE
  5
18C
330
1F
100
AcDbEntity
  8
0
  6
SLD-Сплошная
 62
     8
370
    18
100
AcDbLine
 10
1561.4399112082
 20
1314.8017542821
 30
0.0
 11
1562.5005713799
 21
1315.414060366
 31
0.0
  0
LINE
  5
18D
330
1F
100
AcDbEntity
  8
0
  6
SLD-Сплошная
 62
     8
370
    18
100
AcDbLine
 10
1563.9147849423
 20
1312.9645706304
 30
0.0
 11
1563.5612315517
 21
1312.7604686024
 31
0.0
  0
LINE
  5
18E
330
1F
100
AcDbEntity
  8
0
  6
SLD-Сплошная
 62
     8
370
    18
100
AcDbLine
 10
1562.1470179894
 20
1314.1747587751
 30
0.0
 11
1562.1470179894
 21
1265.6198929642
 31
0.0
  0
LINE
  5
18F
330
1F
100
AcDbEntity
  8
0
  6
SLD-Сплошная
 62
     8
370
    18
100
AcDbLine
 10
1563.5612315517
 20
1312.7604686024
 30
0.0
 11
1563.5612315517
 21
1267.0341831368
 31
0.0
  0
LINE
  5
190
330
1F
100
AcDbEntity
  8
0
  6
SLD-Сплошная
 62
     8
370
    18
100
AcDbLine
 10
1563.5612315517
 20
1267.0341831368
 30
0.0
 11
1563.9147849423
 21
1267.2382851648
 31
0.0
  0
LINE
  5
191
330
1F
100
AcDbEntity
  8
1
  6
SLD-Сплошная
100
AcDbLine
 10
545.3857448785
 20
1399.8600778225
 30
0.0
 11
1037.8251094534
 21
1399.8600778225
 31
0.0
  0
ARC
  5
192
330
1F
100
AcDbEntity
  8
1
  6
SLD-Сплошная
100
AcDbCircle
 10
557.7554271659
 20
1393.9254538612
 30
0.0
 40
0.2000000000000455
100
AcDbArc
 50
0.0
 51
68.1849373759
  0
ARC
  5
193
330
1F
100
AcDbEntity
  8
1
  6
SLD-Сплошная
100
AcDbCircle
 10
548.0554271659
 20
1393.9254538612
 30
0.0
 40
0.1999999999999318
100
AcDbArc
 50
111.8150626241
 51
180.0
  0
LINE
  5
194
330
1F
100
AcDbEntity
  8
1
  6
SLD-Сплошная
100
AcDbLine
 10
557.9554271659
 20
1392.7600778225
 30
0.0
 11
557.9554271659
 21
1393.9254538612
 31
0.0
  0
LINE
  5
195
330
1F
100
AcDbEntity
  8
1
  6
SLD-Сплошная
100
AcDbLine
 10
547.8554271659
 20
1393.9254538612
 30
0.0
 11
547.8554271659
 21
1392.7600778225
 31
0.0
  0
ARC
  5
196
330
1F
100
AcDbEntity
  8
1
  6
SLD-Сплошная
100
AcDbCircle
 10
552.9054271659
 20
1381.8088278225
 30
0.0
 40
13.25125000000003
100
AcDbArc
 50
68.1849373759
 51
90.0
  0
ARC
  5
197
330
1F
100
AcDbEntity
  8
1
  6
SLD-Сплошная
100
AcDbCircle
 10
552.9054271659
 20
1381.8088278225
 30
0.0
 40
13.25125000000003
100
AcDbArc
 50
90.0
 51
111.8150626241
  0
LWPOLYLINE
  5
198
330
1F
100
AcDbEntity
  8
1
  6
SLD-Сплошная
100
AcDbPolyline
 90
        3
 70
   128
 43
0.0
 10
1038.005427166
 20
1409.7200457717
 10
1038.0250132294
 20
1409.7704959381
 10
1038.105427166
 20
1410.0178963532
  0
LWPOLYLINE
  5
199
330
1F
100
AcDbEntity
  8
1
  6
SLD-Сплошная
100
AcDbPolyline
 90
        3
 70
   128
 43
0.0
 10
1038.105427166
 20
1411.5022592917
 10
1038.0250132294
 20
1411.7496597068
 10
1038.005427166
 20
1411.8001098732
  0
LINE
  5
19A
330
1F
100
AcDbEntity
  8
1
  6
SLD-Сплошная
100
AcDbLine
 10
613.1054271659
 20
1418.8600778225
 30
0.0
 11
613.1054271659
 21
1419.8600778225
 31
0.0
  0
LINE
  5
19B
330
1F
100
AcDbEntity
  8
1
  6
SLD-Сплошная
100
AcDbLine
 10
585.1054271659
 20
1419.8600778225
 30
0.0
 11
585.1054271659
 21
1418.8600778225
 31
0.0
  0
LINE
  5
19C
330
1F
100
AcDbEntity
  8
1
  6
SLD-Сплошная
100
AcDbLine
 10
613.1054271659
 20
1419.8600778225
 30
0.0
 11
610.1054271659
 21
1422.8600778225
 31
0.0
  0
LINE
  5
19D
330
1F
100
AcDbEntity
  8
1
  6
SLD-Сплошная
100
AcDbLine
 10
588.1054271659
 20
1422.8600778225
 30
0.0
 11
585.1054271659
 21
1419.8600778225
 31
0.0
  0
LINE
  5
19E
330
1F
100
AcDbEntity
  8
1
  6
SLD-Сплошная
100
AcDbLine
 10
1026.3054271659
 20
1394.8600778225
 30
0.0
 11
1026.4054271659
 21
1394.7600778225
 31
0.0
  0
LINE
  5
19F
330
1F
100
AcDbEntity
  8
1
  6
SLD-Сплошная
100
AcDbLine
 10
1035.4054271659
 20
1394.7600778225
 30
0.0
 11
1035.5054271659
 21
1394.8600778225
 31
0.0
  0
LINE
  5
1A0
330
1F
100
AcDbEntity
  8
1
  6
SLD-Сплошная
100
AcDbLine
 10
1026.3054271659
 20
1395.2600778225
 30
0.0
 11
1026.3054271659
 21
1394.8600778225
 31
0.0
  0
LINE
  5
1A1
330
1F
100
AcDbEntity
  8
1
  6
SLD-Сплошная
100
AcDbLine
 10
1035.5054271659
 20
1394.8600778225
 30
0.0
 11
1035.5054271659
 21
1395.2600778225
 31
0.0
  0
LINE
  5
1A2
330
1F
100
AcDbEntity
  8
1
  6
SLD-Сплошная
100
AcDbLine
 10
543.0054271659
 20
1356.7600778225
 30
0.0
 11
542.9054271659
 21
1356.7600778225
 31
0.0
  0
LINE
  5
1A3
330
1F
100
AcDbEntity
  8
1
  6
SLD-Сплошная
100
AcDbLine
 10
542.9054271659
 20
1348.7600778225
 30
0.0
 11
543.0054271659
 21
1348.7600778225
 31
0.0
  0
LINE
  5
1A4
330
1F
100
AcDbEntity
  8
1
  6
SLD-Сплошная
100
AcDbLine
 10
542.9054271659
 20
1299.2100778225
 30
0.0
 11
543.0054271659
 21
1299.2100778225
 31
0.0
  0
LINE
  5
1A5
330
1F
100
AcDbEntity
  8
1
  6
SLD-Сплошная
100
AcDbLine
 10
543.0054271659
 20
1306.3100778225
 30
0.0
 11
542.9054271659
 21
1306.3100778225
 31
0.0
  0
SPLINE
  5
1A6
330
1F
100
AcDbEntity
  8
1
  6
SLD-Сплошная
100
AcDbSpline
210
0.0
220
0.0
230
1.0
 70
     8
 71
     3
 72
    11
 73
     7
 74
     0
 42
0.00000001
 43
0.00000001
 40
0.0
 40
0.0
 40
0.0
 40
0.0
 40
0.2500000000000032
 40
0.5000000000000026
 40
0.7500000000000037
 40
1.0
 40
1.0
 40
1.0
 40
1.0
 10
1037.772584453392
 20
1399.860077822462
 30
0.0
 10
1037.776751120059
 20
1399.875860973889
 30
0.0
 10
1037.785084453392
 20
1399.907427276743
 30
0.0
 10
1037.797584453392
 20
1400.150238950521
 30
0.0
 10
1037.810084453392
 20
1400.497311134473
 30
0.0
 10
1037.818417786726
 20
1400.772488926466
 30
0.0
 10
1037.822584453392
 20
1400.910077822463
 30
0.0
  0
SPLINE
  5
1A7
330
1F
100
AcDbEntity
  8
1
  6
SLD-Сплошная
100
AcDbSpline
210
0.0
220
0.0
230
1.0
 70
     8
 71
     3
 72
    11
 73
     7
 74
     0
 42
0.00000001
 43
0.00000001
 40
0.0
 40
0.0
 40
0.0
 40
0.0
 40
0.2500000000000028
 40
0.4999999999999969
 40
0.7499999999999947
 40
1.0
 40
1.0
 40
1.0
 40
1.0
 10
545.3882698785087
 20
1400.910077822463
 30
0.0
 10
545.3924365451754
 20
1400.772488926466
 30
0.0
 10
545.4007698785089
 20
1400.497311134473
 30
0.0
 10
545.4132698785087
 20
1400.150238950521
 30
0.0
 10
545.4257698785085
 20
1399.907427276743
 30
0.0
 10
545.4341032118421
 20
1399.87586097389
 30
0.0
 10
545.4382698785087
 20
1399.860077822463
 30
0.0
  0
LINE
  5
1A8
330
1F
100
AcDbEntity
  8
1
  6
SLD-Сплошная
100
AcDbLine
 10
545.3882698785
 20
1416.1600778225
 30
0.0
 11
545.3882698785
 21
1400.9100778225
 31
0.0
  0
LINE
  5
1A9
330
1F
100
AcDbEntity
  8
1
  6
SLD-Сплошная
100
AcDbLine
 10
1037.8225844534
 20
1416.1600778225
 30
0.0
 11
1037.8225844534
 21
1400.9100778225
 31
0.0
  0
ELLIPSE
  5
1AA
330
1F
100
AcDbEntity
  8
1
  6
SLD-Сплошная
100
AcDbEllipse
 10
546.805427166
 20
1416.1600778225
 30
0.0
 11
0.0
 21
2.700000000000045
 31
0.0
210
0.0
220
0.0
230
1.0
 40
0.5248730694
 41
0.0
 42
1.570796326794897
  0
LINE
  5
1AB
330
1F
100
AcDbEntity
  8
1
  6
SLD-Сплошная
100
AcDbLine
 10
546.8054271659
 20
1418.8600778225
 30
0.0
 11
1036.405427166
 21
1418.8600778225
 31
0.0
  0
ELLIPSE
  5
1AC
330
1F
100
AcDbEntity
  8
1
  6
SLD-Сплошная
100
AcDbEllipse
 10
1036.4054271659
 20
1416.1600778225
 30
0.0
 11
0.0
 21
2.700000000000045
 31
0.0
210
0.0
220
0.0
230
1.0
 40
0.5248730694
 41
4.712388980384697
 42
6.283185307179586
  0
LINE
  5
1AD
330
1F
100
AcDbEntity
  8
1
  6
SLD-Сплошная
100
AcDbLine
 10
545.1054271659
 20
1400.9100778225
 30
0.0
 11
545.1054271659
 21
1416.1600778225
 31
0.0
  0
LINE
  5
1AE
330
1F
100
AcDbEntity
  8
1
  6
SLD-Сплошная
100
AcDbLine
 10
544.1054271659
 20
1400.9100778225
 30
0.0
 11
545.1054271659
 21
1400.9100778225
 31
0.0
  0
LINE
  5
1AF
330
1F
100
AcDbEntity
  8
1
  6
SLD-Сплошная
100
AcDbLine
 10
544.1054271659
 20
1400.9100778225
 30
0.0
 11
544.1054271659
 21
1416.1600778225
 31
0.0
  0
SPLINE
  5
1B0
330
1F
100
AcDbEntity
  8
1
  6
SLD-Сплошная
100
AcDbSpline
210
0.0
220
0.0
230
1.0
 70
     8
 71
     3
 72
    11
 73
     7
 74
     0
 42
0.00000001
 43
0.00000001
 40
0.0
 40
0.0
 40
0.0
 40
0.0
 40
0.2500000000000034
 40
0.5000000000000048
 40
0.7500000000000023
 40
0.9999999999999999
 40
0.9999999999999999
 40
0.9999999999999999
 40
0.9999999999999999
 10
545.155427165933
 20
1399.860077822463
 30
0.0
 10
545.0178382699359
 20
1399.875860973889
 30
0.0
 10
544.7426604779415
 20
1399.907427276741
 30
0.0
 10
544.3955882939873
 20
1400.150238950519
 30
0.0
 10
544.1527766202069
 20
1400.497311134472
 30
0.0
 10
544.1212103173533
 20
1400.772488926466
 30
0.0
 10
544.1054271659265
 20
1400.910077822463
 30
0.0
  0
SPLINE
  5
1B1
330
1F
100
AcDbEntity
  8
1
  6
SLD-Сплошная
100
AcDbSpline
210
0.0
220
0.0
230
1.0
 70
     8
 71
     3
 72
    11
 73
     7
 74
     0
 42
0.00000001
 43
0.00000001
 40
0.0
 40
0.0
 40
0.0
 40
0.0
 40
0.2500000000000313
 40
0.5000000000000098
 40
0.7500000000000069
 40
1.0
 40
1.0
 40
1.0
 40
1.0
 10
545.1554271659267
 20
1400.860077822463
 30
0.0
 10
545.1488753137363
 20
1400.860829401102
 30
0.0
 10
545.1357716093556
 20
1400.862332558381
 30
0.0
 10
545.1192443625008
 20
1400.873895019037
 30
0.0
 10
545.1076819018446
 20
1400.890422265892
 30
0.0
 10
545.1061787445658
 20
1400.903525970273
 30
0.0
 10
545.1054271659264
 20
1400.910077822463
 30
0.0
  0
LINE
  5
1B2
330
1F
100
AcDbEntity
  8
1
  6
SLD-Сплошная
100
AcDbLine
 10
545.1554271659
 20
1400.8600778225
 30
0.0
 11
545.1554271659
 21
1399.8600778225
 31
0.0
  0
LINE
  5
1B3
330
1F
100
AcDbEntity
  8
1
  6
SLD-Сплошная
100
AcDbLine
 10
1039.105427166
 20
1400.9100778225
 30
0.0
 11
1039.105427166
 21
1416.1600778225
 31
0.0
  0
LINE
  5
1B4
330
1F
100
AcDbEntity
  8
1
  6
SLD-Сплошная
100
AcDbLine
 10
1039.105427166
 20
1400.9100778225
 30
0.0
 11
1038.105427166
 21
1400.9100778225
 31
0.0
  0
LINE
  5
1B5
330
1F
100
AcDbEntity
  8
1
  6
SLD-Сплошная
100
AcDbLine
 10
1038.105427166
 20
1400.9100778225
 30
0.0
 11
1038.105427166
 21
1416.1600778225
 31
0.0
  0
LINE
  5
1B6
330
1F
100
AcDbEntity
  8
1
  6
SLD-Сплошная
100
AcDbLine
 10
1038.055427166
 20
1400.8600778225
 30
0.0
 11
1038.055427166
 21
1399.8600778225
 31
0.0
  0
SPLINE
  5
1B7
330
1F
100
AcDbEntity
  8
1
  6
SLD-Сплошная
100
AcDbSpline
210
0.0
220
0.0
230
1.0
 70
     8
 71
     3
 72
    11
 73
     7
 74
     0
 42
0.00000001
 43
0.00000001
 40
0.0
 40
0.0
 40
0.0
 40
0.0
 40
0.2499999999999527
 40
0.5000000000000709
 40
0.7499999999998476
 40
1.0
 40
1.0
 40
1.0
 40
1.0
 10
1038.105427165974
 20
1400.910077822463
 30
0.0
 10
1038.104675587335
 20
1400.903525970272
 30
0.0
 10
1038.103172430056
 20
1400.890422265892
 30
0.0
 10
1038.0916099694
 20
1400.873895019037
 30
0.0
 10
1038.075082722545
 20
1400.862332558381
 30
0.0
 10
1038.061979018165
 20
1400.860829401102
 30
0.0
 10
1038.055427165974
 20
1400.860077822463
 30
0.0
  0
SPLINE
  5
1B8
330
1F
100
AcDbEntity
  8
1
  6
SLD-Сплошная
100
AcDbSpline
210
0.0
220
0.0
230
1.0
 70
     8
 71
     3
 72
    11
 73
     7
 74
     0
 42
0.00000001
 43
0.00000001
 40
0.0
 40
0.0
 40
0.0
 40
0.0
 40
0.249999999999997
 40
0.4999999999999975
 40
0.7499999999999966
 40
1.0
 40
1.0
 40
1.0
 40
1.0
 10
1039.105427165975
 20
1400.910077822463
 30
0.0
 10
1039.089644014548
 20
1400.772488926465
 30
0.0
 10
1039.058077711694
 20
1400.497311134471
 30
0.0
 10
1038.815266037914
 20
1400.150238950519
 30
0.0
 10
1038.46819385396
 20
1399.90742727674
 30
0.0
 10
1038.193016061965
 20
1399.875860973889
 30
0.0
 10
1038.055427165968
 20
1399.860077822462
 30
0.0
  0
ARC
  5
1B9
330
1F
100
AcDbEntity
  8
1
  6
SLD-Сплошная
100
AcDbCircle
 10
546.8054271659
 20
1416.1600778225
 30
0.0
 40
1.699999999999873
100
AcDbArc
 50
139.5408896247
 51
180.0
  0
ARC
  5
1BA
330
1F
100
AcDbEntity
  8
1
  6
SLD-Сплошная
100
AcDbCircle
 10
546.8054271659
 20
1416.1600778225
 30
0.0
 40
2.700000000000045
100
AcDbArc
 50
90.0
 51
180.0
  0
ARC
  5
1BB
330
1F
100
AcDbEntity
  8
1
  6
SLD-Сплошная
100
AcDbCircle
 10
1036.405427166
 20
1416.1600778225
 30
0.0
 40
2.700000000000273
100
AcDbArc
 50
0.0
 51
90.0
  0
ARC
  5
1BC
330
1F
100
AcDbEntity
  8
1
  6
SLD-Сплошная
100
AcDbCircle
 10
1036.405427166
 20
1416.1600778225
 30
0.0
 40
1.700000000000273
100
AcDbArc
 50
0.0
 51
40.4591103813
  0
LINE
  5
1BD
330
1F
100
AcDbEntity
  8
1
  6
SLD-Сплошная
100
AcDbLine
 10
545.3882698785
 20
1400.9100778225
 30
0.0
 11
545.2054271659
 21
1400.9100778225
 31
0.0
  0
SPLINE
  5
1BE
330
1F
100
AcDbEntity
  8
1
  6
SLD-Сплошная
100
AcDbSpline
210
0.0
220
0.0
230
1.0
 70
     8
 71
     3
 72
    11
 73
     7
 74
     0
 42
0.00000001
 43
0.00000001
 40
0.0
 40
0.0
 40
0.0
 40
0.0
 40
0.0090245670106519
 40
0.0782108948212784
 40
0.2706367536260665
 40
1.0
 40
1.0
 40
1.0
 40
1.0
 10
545.2054271659264
 20
1400.910077822463
 30
0.0
 10
545.2053900166306
 20
1400.908884238728
 30
0.0
 10
545.2050680643789
 20
1400.898540113422
 30
0.0
 10
545.2016874535602
 20
1400.892971154553
 30
0.0
 10
545.1871731359043
 20
1400.860316865159
 30
0.0
 10
545.1694503078255
 20
1400.860183414752
 30
0.0
 10
545.1554271659267
 20
1400.860077822463
 30
0.0
  0
LINE
  5
1BF
330
1F
100
AcDbEntity
  8
1
  6
SLD-Сплошная
100
AcDbLine
 10
545.4382698785
 20
1399.9300373918
 30
0.0
 11
545.1554271659
 21
1399.8600778225
 31
0.0
  0
LINE
  5
1C0
330
1F
100
AcDbEntity
  8
1
  6
SLD-Сплошная
100
AcDbLine
 10
1037.8225844534
 20
1400.9100778225
 30
0.0
 11
1038.005427166
 21
1400.9100778225
 31
0.0
  0
SPLINE
  5
1C1
330
1F
100
AcDbEntity
  8
1
  6
SLD-Сплошная
100
AcDbSpline
210
0.0
220
0.0
230
1.0
 70
     8
 71
     3
 72
    12
 73
     8
 74
     0
 42
0.00000001
 43
0.00000001
 40
0.0
 40
0.0
 40
0.0
 40
0.0
 40
0.7293340570159542
 40
0.9217522148762465
 40
0.9750066998639119
 40
0.9909757941545511
 40
1.0
 40
1.0
 40
1.0
 40
1.0
 10
1038.055427165974
 20
1400.860077822463
 30
0.0
 10
1038.041569365629
 20
1400.862799104202
 30
0.0
 10
1038.024055500702
 20
1400.866238334066
 30
0.0
 10
1038.009157479424
 20
1400.88860653898
 30
0.0
 10
1038.006263449779
 20
1400.900653195397
 30
0.0
 10
1038.005556787169
 20
1400.905412096036
 30
0.0
 10
1038.005461552044
 20
1400.908840092815
 30
0.0
 10
1038.005427165974
 20
1400.910077822463
 30
0.0
  0
LINE
  5
1C2
330
1F
100
AcDbEntity
  8
1
  6
SLD-Сплошная
100
AcDbLine
 10
1038.055427166
 20
1399.8600778225
 30
0.0
 11
1037.7725844534
 21
1399.9300373918
 31
0.0
  0
LINE
  5
1C3
330
1F
100
AcDbEntity
  8
1
  6
SLD-Сплошная
100
AcDbLine
 10
545.3882698785
 20
1415.7500778225
 30
0.0
 11
545.2054271659
 21
1415.7500778225
 31
0.0
  0
LINE
  5
1C4
330
1F
100
AcDbEntity
  8
1
  6
SLD-Сплошная
100
AcDbLine
 10
545.2054271659
 20
1400.9100778225
 30
0.0
 11
545.2054271659
 21
1415.7500778225
 31
0.0
  0
LINE
  5
1C5
330
1F
100
AcDbEntity
  8
1
  6
SLD-Сплошная
100
AcDbLine
 10
1037.8225844534
 20
1415.7500778225
 30
0.0
 11
1038.005427166
 21
1415.7500778225
 31
0.0
  0
LINE
  5
1C6
330
1F
100
AcDbEntity
  8
1
  6
SLD-Сплошная
100
AcDbLine
 10
1038.005427166
 20
1400.9100778225
 30
0.0
 11
1038.005427166
 21
1415.7500778225
 31
0.0
  0
ARC
  5
1C7
330
1F
100
AcDbEntity
  8
1
  6
SLD-Сплошная
100
AcDbCircle
 10
547.2154271659
 20
1415.7500778225
 30
0.0
 40
2.009999999999991
100
AcDbArc
 50
153.9069487052
 51
180.0
  0
ARC
  5
1C8
330
1F
100
AcDbEntity
  8
1
  6
SLD-Сплошная
100
AcDbCircle
 10
1035.995427166
 20
1415.7500778225
 30
0.0
 40
2.009999999999766
100
AcDbArc
 50
0.0
 51
26.0930513026
  0
LINE
  5
1C9
330
1F
100
AcDbEntity
  8
1
  6
SLD-Сплошная
100
AcDbLine
 10
543.9054271659
 20
1221.2600778225
 30
0.0
 11
543.0054271659
 21
1221.2600778225
 31
0.0
  0
LINE
  5
1CA
330
1F
100
AcDbEntity
  8
1
  6
SLD-Сплошная
100
AcDbLine
 10
543.0054271659
 20
1221.2600778225
 30
0.0
 11
543.0054271659
 21
1390.7600778225
 31
0.0
  0
LINE
  5
1CB
330
1F
100
AcDbEntity
  8
1
  6
SLD-Сплошная
100
AcDbLine
 10
543.0054271659
 20
1390.7600778225
 30
0.0
 11
543.9054271659
 21
1390.7600778225
 31
0.0
  0
ELLIPSE
  5
1CC
330
1F
100
AcDbEntity
  8
1
  6
SLD-Сплошная
100
AcDbEllipse
 10
544.476137844
 20
1221.2600778225
 30
0.0
 11
0.0
 21
2.499999999999773
 31
0.0
210
0.0
220
0.0
230
1.0
 40
0.6
 41
2.751284095301588
 42
3.141592653589892
  0
LINE
  5
1CD
330
1F
100
AcDbEntity
  8
1
  6
SLD-Сплошная
100
AcDbLine
 10
543.9054271659
 20
1221.2600778225
 30
0.0
 11
543.9054271659
 21
1218.9480985586
 31
0.0
  0
LINE
  5
1CE
330
1F
100
AcDbEntity
  8
1
  6
SLD-Сплошная
100
AcDbLine
 10
543.9054271659
 20
1221.2600778225
 30
0.0
 11
545.0054271659
 21
1221.2600778225
 31
0.0
  0
LINE
  5
1CF
330
1F
100
AcDbEntity
  8
1
  6
SLD-Сплошная
100
AcDbLine
 10
1039.9054271659
 20
1218.9480985586
 30
0.0
 11
1039.9054271659
 21
1221.2600778225
 31
0.0
  0
ELLIPSE
  5
1D0
330
1F
100
AcDbEntity
  8
1
  6
SLD-Сплошная
100
AcDbEllipse
 10
1039.3347164878
 20
1221.2600778225
 30
0.0
 11
0.0
 21
2.499999999999773
 31
0.0
210
0.0
220
0.0
230
1.0
 40
0.6
 41
3.141592653589641
 42
3.531901211924062
  0
LINE
  5
1D1
330
1F
100
AcDbEntity
  8
1
  6
SLD-Сплошная
100
AcDbLine
 10
544.476137844
 20
1218.7600778225
 30
0.0
 11
1039.3347164878
 21
1218.7600778225
 31
0.0
  0
LINE
  5
1D2
330
1F
100
AcDbEntity
  8
1
  6
SLD-Сплошная
100
AcDbLine
 10
1041.9054271659
 20
1221.2600778225
 30
0.0
 11
1041.9054271659
 21
1390.7600778225
 31
0.0
  0
LINE
  5
1D3
330
1F
100
AcDbEntity
  8
1
  6
SLD-Сплошная
100
AcDbLine
 10
1039.9054271659
 20
1390.7600778225
 30
0.0
 11
1041.9054271659
 21
1390.7600778225
 31
0.0
  0
LINE
  5
1D4
330
1F
100
AcDbEntity
  8
1
  6
SLD-Сплошная
100
AcDbLine
 10
1039.9054271659
 20
1221.2600778225
 30
0.0
 11
1041.9054271659
 21
1221.2600778225
 31
0.0
  0
LINE
  5
1D5
330
1F
100
AcDbEntity
  8
1
  6
SLD-Сплошная
100
AcDbLine
 10
1039.8347164878
 20
1392.7600778225
 30
0.0
 11
543.976137844
 21
1392.7600778225
 31
0.0
  0
LINE
  5
1D6
330
1F
100
AcDbEntity
  8
1
  6
SLD-Сплошная
100
AcDbLine
 10
1039.8347164878
 20
1392.7600778225
 30
0.0
 11
1039.905427166
 21
1390.7600778225
 31
0.0
  0
LINE
  5
1D7
330
1F
100
AcDbEntity
  8
1
  6
SLD-Сплошная
100
AcDbLine
 10
543.9054271659
 20
1390.7600778225
 30
0.0
 11
543.976137844
 21
1392.7600778225
 31
0.0
  0
LINE
  5
1D8
330
1F
100
AcDbEntity
  8
1
  6
SLD-Сплошная
100
AcDbLine
 10
543.9054271659
 20
1390.7600778225
 30
0.0
 11
545.0054271659
 21
1390.7600778225
 31
0.0
  0
LINE
  5
1D9
330
1F
100
AcDbEntity
  8
1
  6
SLD-Сплошная
100
AcDbLine
 10
543.4542427024
 20
1218.9480985586
 30
0.0
 11
543.8347164878
 21
1219.8728902642
 31
0.0
  0
ARC
  5
1DA
330
1F
100
AcDbEntity
  8
1
  6
SLD-Сплошная
100
AcDbCircle
 10
544.4054271659
 20
1221.2600778225
 30
0.0
 40
2.500000000000197
100
AcDbArc
 50
180.0
 51
247.6369669
  0
ARC
  5
1DB
330
1F
100
AcDbEntity
  8
1
  6
SLD-Сплошная
100
AcDbCircle
 10
544.4054271659
 20
1221.2600778225
 30
0.0
 40
1.500000000000341
100
AcDbArc
 50
180.0
 51
247.6369669
  0
LINE
  5
1DC
330
1F
100
AcDbEntity
  8
1
  6
SLD-Сплошная
100
AcDbLine
 10
541.9054271659
 20
1221.2600778225
 30
0.0
 11
541.9054271659
 21
1390.7600778225
 31
0.0
  0
LINE
  5
1DD
330
1F
100
AcDbEntity
  8
1
  6
SLD-Сплошная
100
AcDbLine
 10
542.9054271659
 20
1390.7600778225
 30
0.0
 11
541.9054271659
 21
1390.7600778225
 31
0.0
  0
LINE
  5
1DE
330
1F
100
AcDbEntity
  8
1
  6
SLD-Сплошная
100
AcDbLine
 10
542.9054271659
 20
1221.2600778225
 30
0.0
 11
542.9054271659
 21
1390.7600778225
 31
0.0
  0
ARC
  5
1DF
330
1F
100
AcDbEntity
  8
1
  6
SLD-Сплошная
100
AcDbCircle
 10
1039.4054271659
 20
1221.2600778225
 30
0.0
 40
2.500000000000161
100
AcDbArc
 50
292.3630330994
 51
0.0
  0
LINE
  5
1E0
330
1F
100
AcDbEntity
  8
1
  6
SLD-Сплошная
100
AcDbLine
 10
1040.3566116295
 20
1218.9480985586
 30
0.0
 11
1039.9761378441
 21
1219.8728902642
 31
0.0
  0
ARC
  5
1E1
330
1F
100
AcDbEntity
  8
1
  6
SLD-Сплошная
100
AcDbCircle
 10
1039.4054271659
 20
1221.2600778225
 30
0.0
 40
1.50000000000024
100
AcDbArc
 50
292.3630330994
 51
0.0
  0
ARC
  5
1E2
330
1F
100
AcDbEntity
  8
1
  6
SLD-Сплошная
100
AcDbCircle
 10
544.4054271659
 20
1221.2600778225
 30
0.0
 40
2.500000000000197
100
AcDbArc
 50
247.6369669
 51
270.0
  0
LINE
  5
1E3
330
1F
100
AcDbEntity
  8
1
  6
SLD-Сплошная
100
AcDbLine
 10
544.4054271659
 20
1218.7600778225
 30
0.0
 11
544.4054271659
 21
1218.7628571452
 31
0.0
  0
LINE
  5
1E4
330
1F
100
AcDbEntity
  8
1
  6
SLD-Сплошная
100
AcDbLine
 10
1039.4054271659
 20
1218.7600778225
 30
0.0
 11
1039.4054271659
 21
1218.7628571452
 31
0.0
  0
ARC
  5
1E5
330
1F
100
AcDbEntity
  8
1
  6
SLD-Сплошная
100
AcDbCircle
 10
1039.4054271659
 20
1221.2600778225
 30
0.0
 40
2.500000000000161
100
AcDbArc
 50
270.0
 51
292.3630330994
  0
LINE
  5
1E6
330
1F
100
AcDbEntity
  8
1
  6
SLD-Сплошная
100
AcDbLine
 10
543.9054271659
 20
1391.7600778225
 30
0.0
 11
543.9054271659
 21
1392.7600778225
 31
0.0
  0
ARC
  5
1E7
330
1F
100
AcDbEntity
  8
1
  6
SLD-Сплошная
100
AcDbCircle
 10
543.9054271659
 20
1390.7600778225
 30
0.0
 40
1.000000000000227
100
AcDbArc
 50
90.0
 51
180.0
  0
ARC
  5
1E8
330
1F
100
AcDbEntity
  8
1
  6
SLD-Сплошная
100
AcDbCircle
 10
543.9054271659
 20
1390.7600778225
 30
0.0
 40
2.000000000000227
100
AcDbArc
 50
90.0
 51
180.0
  0
ARC
  5
1E9
330
1F
100
AcDbEntity
  8
1
  6
SLD-Сплошная
100
AcDbCircle
 10
1039.9054271659
 20
1390.7600778225
 30
0.0
 40
2.000000000000227
100
AcDbArc
 50
0.0
 51
90.0
  0
ARC
  5
1EA
330
1F
100
AcDbEntity
  8
1
  6
SLD-Сплошная
100
AcDbCircle
 10
1039.9054271659
 20
1390.7600778225
 30
0.0
 40
1.000000000000227
100
AcDbArc
 50
0.0
 51
90.0
  0
LINE
  5
1EB
330
1F
100
AcDbEntity
  8
1
  6
SLD-Сплошная
100
AcDbLine
 10
1039.9054271659
 20
1391.7600778225
 30
0.0
 11
1039.9054271659
 21
1392.7600778225
 31
0.0
  0
LINE
  5
1EC
330
1F
100
AcDbEntity
  8
1
  6
SLD-Сплошная
100
AcDbLine
 10
543.976137844
 20
1392.7600778225
 30
0.0
 11
543.9054271659
 21
1392.7600778225
 31
0.0
  0
LINE
  5
1ED
330
1F
100
AcDbEntity
  8
1
  6
SLD-Сплошная
100
AcDbLine
 10
543.940782505
 20
1391.7600778225
 30
0.0
 11
543.9054271659
 21
1391.7600778225
 31
0.0
  0
LINE
  5
1EE
330
1F
100
AcDbEntity
  8
1
  6
SLD-Сплошная
100
AcDbLine
 10
1039.9054271659
 20
1392.7600778225
 30
0.0
 11
1039.8347164878
 21
1392.7600778225
 31
0.0
  0
LINE
  5
1EF
330
1F
100
AcDbEntity
  8
1
  6
SLD-Сплошная
100
AcDbLine
 10
1039.9054271659
 20
1391.7600778225
 30
0.0
 11
1039.8700718269
 21
1391.7600778225
 31
0.0
  0
LINE
  5
1F0
330
1F
100
AcDbEntity
  8
1
  6
SLD-Сплошная
100
AcDbLine
 10
1039.4054271659
 20
1218.7600778225
 30
0.0
 11
1039.3347164878
 21
1218.7600778225
 31
0.0
  0
LINE
  5
1F1
330
1F
100
AcDbEntity
  8
1
  6
SLD-Сплошная
100
AcDbLine
 10
544.476137844
 20
1218.7600778225
 30
0.0
 11
544.4054271659
 21
1218.7600778225
 31
0.0
  0
ELLIPSE
  5
1F2
330
1F
100
AcDbEntity
  8
1
  6
SLD-Сплошная
100
AcDbEllipse
 10
1022.8347164878
 20
1393.7600778225
 30
0.0
 11
1.999999999999886
 21
0.0
 31
0.0
210
0.0
220
0.0
230
1.0
 40
0.5
 41
3.141592653589793
 42
4.712388980384697
  0
ELLIPSE
  5
1F3
330
1F
100
AcDbEntity
  8
1
  6
SLD-Сплошная
100
AcDbEllipse
 10
560.976137844
 20
1393.7600778225
 30
0.0
 11
2.000000000000114
 21
0.0
 31
0.0
210
0.0
220
0.0
230
1.0
 40
0.5
 41
4.712388980384924
 42
6.283185307179586
  0
ARC
  5
1F4
330
1F
100
AcDbEntity
  8
1
  6
SLD-Сплошная
100
AcDbCircle
 10
560.9054271659
 20
1393.7600778225
 30
0.0
 40
1.0
100
AcDbArc
 50
270.0
 51
0.0
  0
ARC
  5
1F5
330
1F
100
AcDbEntity
  8
1
  6
SLD-Сплошная
100
AcDbCircle
 10
560.9054271659
 20
1393.7600778225
 30
0.0
 40
1.999999999999921
100
AcDbArc
 50
351.2995225065
 51
0.0
  0
ARC
  5
1F6
330
1F
100
AcDbEntity
  8
1
  6
SLD-Сплошная
100
AcDbCircle
 10
1022.9054271659
 20
1393.7600778225
 30
0.0
 40
1.000000000000114
100
AcDbArc
 50
180.0
 51
270.0
  0
ARC
  5
1F7
330
1F
100
AcDbEntity
  8
1
  6
SLD-Сплошная
100
AcDbCircle
 10
1022.9054271659
 20
1393.7600778225
 30
0.0
 40
2.000000000000147
100
AcDbArc
 50
180.0
 51
188.7004774978
  0
LINE
  5
1F8
330
1F
100
AcDbEntity
  8
1
  6
SLD-Сплошная
100
AcDbLine
 10
1020.8347164878
 20
1393.7600778225
 30
0.0
 11
1020.8347164878
 21
1399.8600778225
 31
0.0
  0
LINE
  5
1F9
330
1F
100
AcDbEntity
  8
1
  6
SLD-Сплошная
100
AcDbLine
 10
562.976137844
 20
1399.8600778225
 30
0.0
 11
562.9761378441
 21
1393.7600778225
 31
0.0
  0
LINE
  5
1FA
330
1F
100
AcDbEntity
  8
1
  6
SLD-Сплошная
100
AcDbLine
 10
561.9054271659
 20
1393.7600778225
 30
0.0
 11
561.9054271659
 21
1399.8600778225
 31
0.0
  0
LINE
  5
1FB
330
1F
100
AcDbEntity
  8
1
  6
SLD-Сплошная
100
AcDbLine
 10
562.9054271659
 20
1393.7600778225
 30
0.0
 11
562.9054271659
 21
1399.8600778225
 31
0.0
  0
LINE
  5
1FC
330
1F
100
AcDbEntity
  8
1
  6
SLD-Сплошная
100
AcDbLine
 10
1021.9054271659
 20
1399.8600778225
 30
0.0
 11
1021.9054271659
 21
1393.7600778225
 31
0.0
  0
LINE
  5
1FD
330
1F
100
AcDbEntity
  8
1
  6
SLD-Сплошная
100
AcDbLine
 10
1020.9054271659
 20
1399.8600778225
 30
0.0
 11
1020.9054271659
 21
1393.7600778225
 31
0.0
  0
LINE
  5
1FE
330
1F
100
AcDbEntity
  8
1
  6
SLD-Сплошная
100
AcDbLine
 10
542.9054271659
 20
1390.7600778225
 30
0.0
 11
543.0054271659
 21
1390.7600778225
 31
0.0
  0
LINE
  5
1FF
330
1F
100
AcDbEntity
  8
1
  6
SLD-Сплошная
100
AcDbLine
 10
996.9054271659
 20
1365.5100778225
 30
0.0
 11
586.9054271659
 21
1365.5100778225
 31
0.0
  0
ARC
  5
200
330
1F
100
AcDbEntity
  8
1
  6
SLD-Сплошная
100
AcDbCircle
 10
996.9054271659
 20
1348.0100778225
 30
0.0
 40
17.5
100
AcDbArc
 50
0.0
 51
90.0
  0
LINE
  5
201
330
1F
100
AcDbEntity
  8
1
  6
SLD-Сплошная
100
AcDbLine
 10
1014.4054271659
 20
1263.0100778225
 30
0.0
 11
1014.4054271659
 21
1348.0100778225
 31
0.0
  0
LINE
  5
202
330
1F
100
AcDbEntity
  8
1
  6
SLD-Сплошная
100
AcDbLine
 10
586.9054271659
 20
1245.5100778225
 30
0.0
 11
996.9054271659
 21
1245.5100778225
 31
0.0
  0
ARC
  5
203
330
1F
100
AcDbEntity
  8
1
  6
SLD-Сплошная
100
AcDbCircle
 10
586.9054271659
 20
1263.0100778225
 30
0.0
 40
17.50000000000011
100
AcDbArc
 50
180.0
 51
270.0
  0
LINE
  5
204
330
1F
100
AcDbEntity
  8
1
  6
SLD-Сплошная
100
AcDbLine
 10
569.4054271659
 20
1348.0100778225
 30
0.0
 11
569.4054271659
 21
1263.0100778225
 31
0.0
  0
ARC
  5
205
330
1F
100
AcDbEntity
  8
1
  6
SLD-Сплошная
100
AcDbCircle
 10
586.9054271659
 20
1348.0100778225
 30
0.0
 40
17.50000000000011
100
AcDbArc
 50
90.0
 51
180.0
  0
ARC
  5
206
330
1F
100
AcDbEntity
  8
1
  6
SLD-Сплошная
100
AcDbCircle
 10
996.9054271659
 20
1263.0100778225
 30
0.0
 40
17.5
100
AcDbArc
 50
270.0
 51
0.0
  0
ARC
  5
207
330
1F
100
AcDbEntity
  8
1
  6
SLD-Сплошная
100
AcDbCircle
 10
992.1601591844
 20
1285.255345804
 30
0.0
 40
26.56195549651935
100
AcDbArc
 50
313.8816987744
 51
316.1183012256
  0
ARC
  5
208
330
1F
100
AcDbEntity
  8
1
  6
SLD-Сплошная
100
AcDbCircle
 10
993.3924041922
 20
1251.7686635864
 30
0.0
 40
23.41191191624245
100
AcDbArc
 50
40.0824770913
 51
42.9865596106
  0
SPLINE
  5
209
330
1F
100
AcDbEntity
  8
1
  6
SLD-Сплошная
100
AcDbSpline
210
0.0
220
0.0
230
1.0
 70
     8
 71
     3
 72
    12
 73
     8
 74
     0
 42
0.00000001
 43
0.00000001
 40
0.0
 40
0.0
 40
0.0
 40
0.0
 40
0.2187857887072036
 40
0.4375776469534673
 40
0.6562353658863823
 40
0.8748419359490875
 40
1.0
 40
1.0
 40
1.0
 40
1.0
 10
1010.518537659759
 20
1268.288623518592
 30
0.0
 10
1010.491574233687
 20
1268.253298121723
 30
0.0
 10
1010.437646633526
 20
1268.18264634799
 30
0.0
 10
1010.405050744553
 20
1268.048683119349
 30
0.0
 10
1010.414399875795
 20
1267.913140493069
 30
0.0
 10
1010.458278633876
 20
1267.804242688775
 30
0.0
 10
1010.502454192163
 20
1267.750938977969
 30
0.0
 10
1010.518537659759
 20
1267.731532126335
 30
0.0
  0
ARC
  5
20A
330
1F
100
AcDbEntity
  8
1
  6
SLD-Сплошная
100
AcDbCircle
 10
993.3924041922
 20
1284.2514920585
 30
0.0
 40
23.4119119162423
100
AcDbArc
 50
317.0134403894
 51
319.9175229087
  0
ARC
  5
20B
330
1F
100
AcDbEntity
  8
1
  6
SLD-Сплошная
100
AcDbCircle
 10
992.1601591849
 20
1250.7648098414
 30
0.0
 40
26.56195549586896
100
AcDbArc
 50
43.8816987744
 51
46.1183012256
  0
ARC
  5
20C
330
1F
100
AcDbEntity
  8
1
  6
SLD-Сплошная
100
AcDbCircle
 10
1025.6468414021
 20
1251.9970548486
 30
0.0
 40
23.41191191636703
100
AcDbArc
 50
130.0824770913
 51
132.9865596106
  0
SPLINE
  5
20D
330
1F
100
AcDbEntity
  8
1
  6
SLD-Сплошная
100
AcDbSpline
210
0.0
220
0.0
230
1.0
 70
     8
 71
     3
 72
    12
 73
     8
 74
     0
 42
0.00000001
 43
0.00000001
 40
0.0
 40
0.0
 40
0.0
 40
0.0
 40
0.2187857887071698
 40
0.4375776469534907
 40
0.656235365886365
 40
0.8748419359491162
 40
1.0
 40
1.0
 40
1.0
 40
1.0
 10
1009.126881469819
 20
1269.123188316276
 30
0.0
 10
1009.162206866688
 20
1269.096224890204
 30
0.0
 10
1009.23285864042
 20
1269.042297290042
 30
0.0
 10
1009.366821869061
 20
1269.009701401069
 30
0.0
 10
1009.502364495341
 20
1269.019050532311
 30
0.0
 10
1009.611262299635
 20
1269.062929290393
 30
0.0
 10
1009.664566010441
 20
1269.107104848679
 30
0.0
 10
1009.683972862075
 20
1269.123188316276
 30
0.0
  0
ARC
  5
20E
330
1F
100
AcDbEntity
  8
1
  6
SLD-Сплошная
100
AcDbCircle
 10
993.16401293
 20
1251.9970548489
 30
0.0
 40
23.41191191599298
100
AcDbArc
 50
47.0134403894
 51
49.9175229087
  0
ARC
  5
20F
330
1F
100
AcDbEntity
  8
1
  6
SLD-Сплошная
100
AcDbCircle
 10
1026.650695147
 20
1250.7648098415
 30
0.0
 40
26.56195549575239
100
AcDbArc
 50
133.8816987744
 51
136.1183012256
  0
ARC
  5
210
330
1F
100
AcDbEntity
  8
1
  6
SLD-Сплошная
100
AcDbCircle
 10
1025.4184501399
 20
1284.2514920587
 30
0.0
 40
23.41191191648572
100
AcDbArc
 50
220.0824770913
 51
222.9865596106
  0
SPLINE
  5
211
330
1F
100
AcDbEntity
  8
1
  6
SLD-Сплошная
100
AcDbSpline
210
0.0
220
0.0
230
1.0
 70
     8
 71
     3
 72
    12
 73
     8
 74
     0
 42
0.00000001
 43
0.00000001
 40
0.0
 40
0.0
 40
0.0
 40
0.0
 40
0.2187857887071817
 40
0.4375776469534589
 40
0.6562353658863839
 40
0.8748419359490818
 40
1.0
 40
1.0
 40
1.0
 40
1.0
 10
1008.292316672135
 20
1267.731532126336
 30
0.0
 10
1008.319280098207
 20
1267.766857523204
 30
0.0
 10
1008.373207698368
 20
1267.837509296937
 30
0.0
 10
1008.405803587341
 20
1267.971472525578
 30
0.0
 10
1008.396454456099
 20
1268.107015151858
 30
0.0
 10
1008.352575698018
 20
1268.215912956152
 30
0.0
 10
1008.308400139731
 20
1268.269216666958
 30
0.0
 10
1008.292316672135
 20
1268.288623518592
 30
0.0
  0
ARC
  5
212
330
1F
100
AcDbEntity
  8
1
  6
SLD-Сплошная
100
AcDbCircle
 10
1025.41845014
 20
1251.7686635862
 30
0.0
 40
23.41191191654719
100
AcDbArc
 50
137.0134403895
 51
139.9175229087
  0
ARC
  5
213
330
1F
100
AcDbEntity
  8
1
  6
SLD-Сплошная
100
AcDbCircle
 10
1026.6506951474
 20
1285.2553458039
 30
0.0
 40
26.56195549640293
100
AcDbArc
 50
223.8816987744
 51
226.1183012256
  0
ARC
  5
214
330
1F
100
AcDbEntity
  8
1
  6
SLD-Сплошная
100
AcDbCircle
 10
993.1640129301
 20
1284.023100796
 30
0.0
 40
23.4119119159297
100
AcDbArc
 50
310.0824770913
 51
312.9865596106
  0
SPLINE
  5
215
330
1F
100
AcDbEntity
  8
1
  6
SLD-Сплошная
100
AcDbSpline
210
0.0
220
0.0
230
1.0
 70
     8
 71
     3
 72
    12
 73
     8
 74
     0
 42
0.00000001
 43
0.00000001
 40
0.0
 40
0.0
 40
0.0
 40
0.0
 40
0.2187857887072127
 40
0.4375776469534849
 40
0.6562353658864042
 40
0.8748419359491036
 40
1.0
 40
1.0
 40
1.0
 40
1.0
 10
1009.683972862075
 20
1266.896967328651
 30
0.0
 10
1009.648647465206
 20
1266.923930754723
 30
0.0
 10
1009.577995691474
 20
1266.977858354885
 30
0.0
 10
1009.444032462833
 20
1267.010454243858
 30
0.0
 10
1009.308489836553
 20
1267.001105112616
 30
0.0
 10
1009.199592032259
 20
1266.957226354534
 30
0.0
 10
1009.146288321453
 20
1266.913050796248
 30
0.0
 10
1009.126881469819
 20
1266.896967328651
 30
0.0
  0
ARC
  5
216
330
1F
100
AcDbEntity
  8
1
  6
SLD-Сплошная
100
AcDbCircle
 10
1025.646841402
 20
1284.0231007962
 30
0.0
 40
23.41191191614837
100
AcDbArc
 50
227.0134403894
 51
229.9175229087
  0
CIRCLE
  5
217
330
1F
100
AcDbEntity
  8
1
  6
SLD-Сплошная
100
AcDbCircle
 10
1009.4054271659
 20
1268.0100778225
 30
0.0
 40
3.500000000000028
  0
ELLIPSE
  5
218
330
1F
100
AcDbEntity
  8
1
  6
SLD-Сплошная
100
AcDbEllipse
 10
1009.4054271659
 20
1266.9406910412
 30
0.0
 11
0.0
 21
0.4122489361056978
 31
0.0
210
0.0
220
0.0
230
1.0
 40
0.9702875252
 41
5.512866274278562
 42
7.053504340080828
  0
ELLIPSE
  5
219
330
1F
100
AcDbEntity
  8
1
  6
SLD-Сплошная
100
AcDbEllipse
 10
1010.4748139472
 20
1268.0100778225
 30
0.0
 11
-0.4122489361055841
 21
0.0
 31
0.0
210
0.0
220
0.0
230
1.0
 40
0.9702875252
 41
5.512866274278738
 42
7.053504340080448
  0
ELLIPSE
  5
21A
330
1F
100
AcDbEntity
  8
1
  6
SLD-Сплошная
100
AcDbEllipse
 10
1008.3360403847
 20
1268.0100778225
 30
0.0
 11
0.4122489361058115
 21
0.0
 31
0.0
210
0.0
220
0.0
230
1.0
 40
0.9702875252
 41
5.512866274278746
 42
7.05350434008044
  0
ELLIPSE
  5
21B
330
1F
100
AcDbEntity
  8
1
  6
SLD-Сплошная
100
AcDbEllipse
 10
1009.4054271659
 20
1269.0794646037
 30
0.0
 11
0.0
 21
-0.4122489361059252
 31
0.0
210
0.0
220
0.0
230
1.0
 40
0.9702875252
 41
5.512866274278609
 42
7.053504340080373
  0
LINE
  5
21C
330
1F
100
AcDbEntity
  8
1
  6
SLD-Сплошная
100
AcDbLine
 10
1007.5055665121
 20
1266.8433516335
 30
0.0
 11
1007.7437262302
 21
1266.8433516335
 31
0.0
  0
LINE
  5
21D
330
1F
100
AcDbEntity
  8
1
  6
SLD-Сплошная
100
AcDbLine
 10
1008.631906723
 20
1267.7315321263
 30
0.0
 11
1007.7437262302
 21
1266.8433516335
 31
0.0
  0
LINE
  5
21E
330
1F
100
AcDbEntity
  8
1
  6
SLD-Сплошная
100
AcDbLine
 10
1011.3052878198
 20
1266.8433516335
 30
0.0
 11
1011.0671281017
 21
1266.8433516335
 31
0.0
  0
LINE
  5
21F
330
1F
100
AcDbEntity
  8
1
  6
SLD-Сплошная
100
AcDbLine
 10
1011.0671281017
 20
1266.8433516335
 30
0.0
 11
1010.1789476089
 21
1267.7315321263
 31
0.0
  0
LINE
  5
220
330
1F
100
AcDbEntity
  8
1
  6
SLD-Сплошная
100
AcDbLine
 10
1008.238700977
 20
1266.1102171687
 30
0.0
 11
1008.238700977
 21
1266.3483768867
 31
0.0
  0
LINE
  5
221
330
1F
100
AcDbEntity
  8
1
  6
SLD-Сплошная
100
AcDbLine
 10
1008.238700977
 20
1266.3483768867
 30
0.0
 11
1009.1268814698
 21
1267.2365573795
 31
0.0
  0
LINE
  5
222
330
1F
100
AcDbEntity
  8
1
  6
SLD-Сплошная
100
AcDbLine
 10
1010.5721533549
 20
1266.1102171687
 30
0.0
 11
1010.5721533549
 21
1266.3483768867
 31
0.0
  0
LINE
  5
223
330
1F
100
AcDbEntity
  8
1
  6
SLD-Сплошная
100
AcDbLine
 10
1009.6839728621
 20
1267.2365573795
 30
0.0
 11
1010.5721533549
 21
1266.3483768867
 31
0.0
  0
LINE
  5
224
330
1F
100
AcDbEntity
  8
1
  6
SLD-Сплошная
100
AcDbLine
 10
1008.238700977
 20
1269.9099384763
 30
0.0
 11
1008.238700977
 21
1269.6717787583
 31
0.0
  0
LINE
  5
225
330
1F
100
AcDbEntity
  8
1
  6
SLD-Сплошная
100
AcDbLine
 10
1009.1268814698
 20
1268.7835982654
 30
0.0
 11
1008.238700977
 21
1269.6717787583
 31
0.0
  0
LINE
  5
226
330
1F
100
AcDbEntity
  8
1
  6
SLD-Сплошная
100
AcDbLine
 10
1010.5721533549
 20
1269.9099384763
 30
0.0
 11
1010.5721533549
 21
1269.6717787583
 31
0.0
  0
LINE
  5
227
330
1F
100
AcDbEntity
  8
1
  6
SLD-Сплошная
100
AcDbLine
 10
1010.5721533549
 20
1269.6717787583
 30
0.0
 11
1009.6839728621
 21
1268.7835982654
 31
0.0
  0
LINE
  5
228
330
1F
100
AcDbEntity
  8
1
  6
SLD-Сплошная
100
AcDbLine
 10
1007.5055665121
 20
1269.1768040114
 30
0.0
 11
1007.7437262302
 21
1269.1768040114
 31
0.0
  0
LINE
  5
229
330
1F
100
AcDbEntity
  8
1
  6
SLD-Сплошная
100
AcDbLine
 10
1007.7437262302
 20
1269.1768040114
 30
0.0
 11
1008.631906723
 21
1268.2886235186
 31
0.0
  0
LINE
  5
22A
330
1F
100
AcDbEntity
  8
1
  6
SLD-Сплошная
100
AcDbLine
 10
1011.3052878198
 20
1269.1768040114
 30
0.0
 11
1011.0671281017
 21
1269.1768040114
 31
0.0
  0
LINE
  5
22B
330
1F
100
AcDbEntity
  8
1
  6
SLD-Сплошная
100
AcDbLine
 10
1010.1789476089
 20
1268.2886235186
 30
0.0
 11
1011.0671281017
 21
1269.1768040114
 31
0.0
  0
LINE
  5
22C
330
1F
100
AcDbEntity
  8
1
  6
SLD-Сплошная
100
AcDbLine
 10
1007.7437262302
 20
1266.8433516335
 30
0.0
 11
1008.238700977
 21
1266.3483768867
 31
0.0
  0
LINE
  5
22D
330
1F
100
AcDbEntity
  8
1
  6
SLD-Сплошная
100
AcDbLine
 10
1010.5721533549
 20
1266.3483768867
 30
0.0
 11
1011.0671281017
 21
1266.8433516335
 31
0.0
  0
LINE
  5
22E
330
1F
100
AcDbEntity
  8
1
  6
SLD-Сплошная
100
AcDbLine
 10
1011.0671281017
 20
1269.1768040114
 30
0.0
 11
1010.5721533549
 21
1269.6717787583
 31
0.0
  0
LINE
  5
22F
330
1F
100
AcDbEntity
  8
1
  6
SLD-Сплошная
100
AcDbLine
 10
1008.238700977
 20
1269.6717787583
 30
0.0
 11
1007.7437262302
 21
1269.1768040114
 31
0.0
  0
CIRCLE
  5
230
330
1F
100
AcDbEntity
  8
1
  6
SLD-Сплошная
100
AcDbCircle
 10
1009.4054271659
 20
1268.0100778225
 30
0.0
 40
4.999999999999879
  0
ARC
  5
231
330
1F
100
AcDbEntity
  8
1
  6
SLD-Сплошная
100
AcDbCircle
 10
909.1506951472
 20
1377.7553458037
 30
0.0
 40
26.56195549608184
100
AcDbArc
 50
223.8816987744
 51
226.1183012256
  0
ARC
  5
232
330
1F
100
AcDbEntity
  8
1
  6
SLD-Сплошная
100
AcDbCircle
 10
875.66401293
 20
1376.5231007961
 30
0.0
 40
23.41191191602798
100
AcDbArc
 50
310.0824770913
 51
312.9865596106
  0
SPLINE
  5
233
330
1F
100
AcDbEntity
  8
1
  6
SLD-Сплошная
100
AcDbSpline
210
0.0
220
0.0
230
1.0
 70
     8
 71
     3
 72
    12
 73
     8
 74
     0
 42
0.00000001
 43
0.00000001
 40
0.0
 40
0.0
 40
0.0
 40
0.0
 40
0.2187857887072087
 40
0.4375776469534819
 40
0.6562353658863805
 40
0.8748419359491083
 40
1.0
 40
1.0
 40
1.0
 40
1.0
 10
892.183972862075
 20
1359.396967328651
 30
0.0
 10
892.1486474652062
 20
1359.423930754723
 30
0.0
 10
892.0779956914737
 20
1359.477858354885
 30
0.0
 10
891.9440324628328
 20
1359.510454243858
 30
0.0
 10
891.8084898365528
 20
1359.501105112616
 30
0.0
 10
891.6995920322588
 20
1359.457226354534
 30
0.0
 10
891.6462883214529
 20
1359.413050796248
 30
0.0
 10
891.6268814698191
 20
1359.396967328651
 30
0.0
  0
ARC
  5
234
330
1F
100
AcDbEntity
  8
1
  6
SLD-Сплошная
100
AcDbCircle
 10
908.146841402
 20
1376.5231007962
 30
0.0
 40
23.41191191621436
100
AcDbArc
 50
227.0134403894
 51
229.9175229087
  0
ARC
  5
235
330
1F
100
AcDbEntity
  8
1
  6
SLD-Сплошная
100
AcDbCircle
 10
874.6601591844
 20
1377.755345804
 30
0.0
 40
26.56195549653245
100
AcDbArc
 50
313.8816987744
 51
316.1183012256
  0
ARC
  5
236
330
1F
100
AcDbEntity
  8
1
  6
SLD-Сплошная
100
AcDbCircle
 10
875.8924041921
 20
1344.2686635863
 30
0.0
 40
23.4119119163319
100
AcDbArc
 50
40.0824770913
 51
42.9865596106
  0
SPLINE
  5
237
330
1F
100
AcDbEntity
  8
1
  6
SLD-Сплошная
100
AcDbSpline
210
0.0
220
0.0
230
1.0
 70
     8
 71
     3
 72
    12
 73
     8
 74
     0
 42
0.00000001
 43
0.00000001
 40
0.0
 40
0.0
 40
0.0
 40
0.0
 40
0.2187857887071986
 40
0.4375776469534816
 40
0.6562353658863895
 40
0.8748419359490992
 40
1.0
 40
1.0
 40
1.0
 40
1.0
 10
893.0185376597593
 20
1360.788623518592
 30
0.0
 10
892.9915742336873
 20
1360.753298121723
 30
0.0
 10
892.9376466335257
 20
1360.68264634799
 30
0.0
 10
892.9050507445526
 20
1360.548683119349
 30
0.0
 10
892.9143998757947
 20
1360.413140493069
 30
0.0
 10
892.9582786338766
 20
1360.304242688775
 30
0.0
 10
893.0024541921631
 20
1360.250938977969
 30
0.0
 10
893.0185376597593
 20
1360.231532126336
 30
0.0
  0
ARC
  5
238
330
1F
100
AcDbEntity
  8
1
  6
SLD-Сплошная
100
AcDbCircle
 10
875.8924041921
 20
1376.7514920586
 30
0.0
 40
23.41191191632997
100
AcDbArc
 50
317.0134403894
 51
319.9175229087
  0
ARC
  5
239
330
1F
100
AcDbEntity
  8
1
  6
SLD-Сплошная
100
AcDbCircle
 10
874.6601591845
 20
1343.264809841
 30
0.0
 40
26.56195549638376
100
AcDbArc
 50
43.8816987744
 51
46.1183012256
  0
ARC
  5
23A
330
1F
100
AcDbEntity
  8
1
  6
SLD-Сплошная
100
AcDbCircle
 10
908.1468414021
 20
1344.4970548486
 30
0.0
 40
23.41191191635182
100
AcDbArc
 50
130.0824770913
 51
132.9865596106
  0
SPLINE
  5
23B
330
1F
100
AcDbEntity
  8
1
  6
SLD-Сплошная
100
AcDbSpline
210
0.0
220
0.0
230
1.0
 70
     8
 71
     3
 72
    12
 73
     8
 74
     0
 42
0.00000001
 43
0.00000001
 40
0.0
 40
0.0
 40
0.0
 40
0.0
 40
0.218785788707212
 40
0.4375776469534823
 40
0.6562353658864029
 40
0.874841935949109
 40
1.0
 40
1.0
 40
1.0
 40
1.0
 10
891.6268814698191
 20
1361.623188316276
 30
0.0
 10
891.6622068666879
 20
1361.596224890204
 30
0.0
 10
891.7328586404204
 20
1361.542297290042
 30
0.0
 10
891.8668218690614
 20
1361.509701401069
 30
0.0
 10
892.0023644953415
 20
1361.519050532311
 30
0.0
 10
892.1112622996353
 20
1361.562929290393
 30
0.0
 10
892.1645660104413
 20
1361.607104848679
 30
0.0
 10
892.183972862075
 20
1361.623188316276
 30
0.0
  0
ARC
  5
23C
330
1F
100
AcDbEntity
  8
1
  6
SLD-Сплошная
100
AcDbCircle
 10
875.6640129301
 20
1344.497054849
 30
0.0
 40
23.41191191585272
100
AcDbArc
 50
47.0134403894
 51
49.9175229087
  0
ARC
  5
23D
330
1F
100
AcDbEntity
  8
1
  6
SLD-Сплошная
100
AcDbCircle
 10
909.1506951471
 20
1343.2648098413
 30
0.0
 40
26.56195549593314
100
AcDbArc
 50
133.8816987744
 51
136.1183012256
  0
ARC
  5
23E
330
1F
100
AcDbEntity
  8
1
  6
SLD-Сплошная
100
AcDbCircle
 10
907.9184501396
 20
1376.7514920584
 30
0.0
 40
23.41191191604582
100
AcDbArc
 50
220.0824770913
 51
222.9865596106
  0
SPLINE
  5
23F
330
1F
100
AcDbEntity
  8
1
  6
SLD-Сплошная
100
AcDbSpline
210
0.0
220
0.0
230
1.0
 70
     8
 71
     3
 72
    12
 73
     8
 74
     0
 42
0.00000001
 43
0.00000001
 40
0.0
 40
0.0
 40
0.0
 40
0.0
 40
0.2187857887071924
 40
0.4375776469534745
 40
0.6562353658863835
 40
0.8748419359490942
 40
1.0
 40
1.0
 40
1.0
 40
1.0
 10
890.7923166721348
 20
1360.231532126336
 30
0.0
 10
890.8192800982068
 20
1360.266857523204
 30
0.0
 10
890.8732076983683
 20
1360.337509296937
 30
0.0
 10
890.9058035873414
 20
1360.471472525578
 30
0.0
 10
890.8964544560994
 20
1360.607015151858
 30
0.0
 10
890.8525756980175
 20
1360.715912956152
 30
0.0
 10
890.808400139731
 20
1360.769216666958
 30
0.0
 10
890.7923166721348
 20
1360.788623518592
 30
0.0
  0
ARC
  5
240
330
1F
100
AcDbEntity
  8
1
  6
SLD-Сплошная
100
AcDbCircle
 10
907.9184501396
 20
1344.2686635865
 30
0.0
 40
23.41191191604768
100
AcDbArc
 50
137.0134403894
 51
139.9175229087
  0
CIRCLE
  5
241
330
1F
100
AcDbEntity
  8
1
  6
SLD-Сплошная
100
AcDbCircle
 10
891.9054271659
 20
1360.5100778225
 30
0.0
 40
3.499999999999948
  0
ELLIPSE
  5
242
330
1F
100
AcDbEntity
  8
1
  6
SLD-Сплошная
100
AcDbEllipse
 10
890.8360403847
 20
1360.5100778225
 30
0.0
 11
0.4122489361055841
 21
0.0
 31
0.0
210
0.0
220
0.0
230
1.0
 40
0.9702875252
 41
5.512866274278762
 42
7.053504340080831
  0
ELLIPSE
  5
243
330
1F
100
AcDbEntity
  8
1
  6
SLD-Сплошная
100
AcDbEllipse
 10
891.9054271659
 20
1359.4406910412
 30
0.0
 11
0.0
 21
0.4122489361056978
 31
0.0
210
0.0
220
0.0
230
1.0
 40
0.9702875252
 41
5.512866274278884
 42
7.053504340080098
  0
ELLIPSE
  5
244
330
1F
100
AcDbEntity
  8
1
  6
SLD-Сплошная
100
AcDbEllipse
 10
892.9748139472
 20
1360.5100778225
 30
0.0
 11
-0.4122489361056978
 21
0.0
 31
0.0
210
0.0
220
0.0
230
1.0
 40
0.9702875252
 41
5.512866274278501
 42
7.053504340080278
  0
ELLIPSE
  5
245
330
1F
100
AcDbEntity
  8
1
  6
SLD-Сплошная
100
AcDbEllipse
 10
891.9054271659
 20
1361.5794646037
 30
0.0
 11
0.0
 21
-0.4122489361059252
 31
0.0
210
0.0
220
0.0
230
1.0
 40
0.9702875252
 41
5.512866274278671
 42
7.053504340080719
  0
LINE
  5
246
330
1F
100
AcDbEntity
  8
1
  6
SLD-Сплошная
100
AcDbLine
 10
890.0055665121
 20
1361.6768040114
 30
0.0
 11
890.2437262302
 21
1361.6768040114
 31
0.0
  0
LINE
  5
247
330
1F
100
AcDbEntity
  8
1
  6
SLD-Сплошная
100
AcDbLine
 10
890.2437262302
 20
1361.6768040114
 30
0.0
 11
891.131906723
 21
1360.7886235186
 31
0.0
  0
LINE
  5
248
330
1F
100
AcDbEntity
  8
1
  6
SLD-Сплошная
100
AcDbLine
 10
893.0721533549
 20
1362.4099384763
 30
0.0
 11
893.0721533549
 21
1362.1717787583
 31
0.0
  0
LINE
  5
249
330
1F
100
AcDbEntity
  8
1
  6
SLD-Сплошная
100
AcDbLine
 10
893.0721533549
 20
1362.1717787583
 30
0.0
 11
892.1839728621
 21
1361.2835982654
 31
0.0
  0
LINE
  5
24A
330
1F
100
AcDbEntity
  8
1
  6
SLD-Сплошная
100
AcDbLine
 10
893.8052878198
 20
1359.3433516335
 30
0.0
 11
893.5671281017
 21
1359.3433516335
 31
0.0
  0
LINE
  5
24B
330
1F
100
AcDbEntity
  8
1
  6
SLD-Сплошная
100
AcDbLine
 10
893.5671281017
 20
1359.3433516335
 30
0.0
 11
892.6789476089
 21
1360.2315321263
 31
0.0
  0
LINE
  5
24C
330
1F
100
AcDbEntity
  8
1
  6
SLD-Сплошная
100
AcDbLine
 10
893.0721533549
 20
1358.6102171687
 30
0.0
 11
893.0721533549
 21
1358.8483768867
 31
0.0
  0
LINE
  5
24D
330
1F
100
AcDbEntity
  8
1
  6
SLD-Сплошная
100
AcDbLine
 10
892.1839728621
 20
1359.7365573795
 30
0.0
 11
893.0721533549
 21
1358.8483768867
 31
0.0
  0
LINE
  5
24E
330
1F
100
AcDbEntity
  8
1
  6
SLD-Сплошная
100
AcDbLine
 10
890.738700977
 20
1362.4099384763
 30
0.0
 11
890.738700977
 21
1362.1717787583
 31
0.0
  0
LINE
  5
24F
330
1F
100
AcDbEntity
  8
1
  6
SLD-Сплошная
100
AcDbLine
 10
891.6268814698
 20
1361.2835982654
 30
0.0
 11
890.738700977
 21
1362.1717787583
 31
0.0
  0
LINE
  5
250
330
1F
100
AcDbEntity
  8
1
  6
SLD-Сплошная
100
AcDbLine
 10
890.0055665121
 20
1359.3433516335
 30
0.0
 11
890.2437262302
 21
1359.3433516335
 31
0.0
  0
LINE
  5
251
330
1F
100
AcDbEntity
  8
1
  6
SLD-Сплошная
100
AcDbLine
 10
891.131906723
 20
1360.2315321263
 30
0.0
 11
890.2437262302
 21
1359.3433516335
 31
0.0
  0
LINE
  5
252
330
1F
100
AcDbEntity
  8
1
  6
SLD-Сплошная
100
AcDbLine
 10
890.738700977
 20
1358.6102171687
 30
0.0
 11
890.738700977
 21
1358.8483768867
 31
0.0
  0
LINE
  5
253
330
1F
100
AcDbEntity
  8
1
  6
SLD-Сплошная
100
AcDbLine
 10
890.738700977
 20
1358.8483768867
 30
0.0
 11
891.6268814698
 21
1359.7365573795
 31
0.0
  0
LINE
  5
254
330
1F
100
AcDbEntity
  8
1
  6
SLD-Сплошная
100
AcDbLine
 10
893.8052878198
 20
1361.6768040114
 30
0.0
 11
893.5671281017
 21
1361.6768040114
 31
0.0
  0
LINE
  5
255
330
1F
100
AcDbEntity
  8
1
  6
SLD-Сплошная
100
AcDbLine
 10
892.6789476089
 20
1360.7886235186
 30
0.0
 11
893.5671281017
 21
1361.6768040114
 31
0.0
  0
LINE
  5
256
330
1F
100
AcDbEntity
  8
1
  6
SLD-Сплошная
100
AcDbLine
 10
890.738700977
 20
1362.1717787583
 30
0.0
 11
890.2437262302
 21
1361.6768040114
 31
0.0
  0
LINE
  5
257
330
1F
100
AcDbEntity
  8
1
  6
SLD-Сплошная
100
AcDbLine
 10
893.0721533549
 20
1358.8483768867
 30
0.0
 11
893.5671281017
 21
1359.3433516335
 31
0.0
  0
LINE
  5
258
330
1F
100
AcDbEntity
  8
1
  6
SLD-Сплошная
100
AcDbLine
 10
893.5671281017
 20
1361.6768040114
 30
0.0
 11
893.0721533549
 21
1362.1717787583
 31
0.0
  0
LINE
  5
259
330
1F
100
AcDbEntity
  8
1
  6
SLD-Сплошная
100
AcDbLine
 10
890.2437262302
 20
1359.3433516335
 30
0.0
 11
890.738700977
 21
1358.8483768867
 31
0.0
  0
CIRCLE
  5
25A
330
1F
100
AcDbEntity
  8
1
  6
SLD-Сплошная
100
AcDbCircle
 10
891.9054271659
 20
1360.5100778225
 30
0.0
 40
4.999999999999879
  0
ARC
  5
25B
330
1F
100
AcDbEntity
  8
1
  6
SLD-Сплошная
100
AcDbCircle
 10
815.6055766446
 20
1366.2634637956
 30
0.0
 40
26.56195549562086
100
AcDbArc
 50
192.5267196435
 51
194.7633220947
  0
ARC
  5
25C
330
1F
100
AcDbEntity
  8
1
  6
SLD-Сплошная
100
AcDbCircle
 10
786.3681071926
 20
1382.6355954136
 30
0.0
 40
23.41191191657679
100
AcDbArc
 50
278.7274979605
 51
281.6315804797
  0
SPLINE
  5
25D
330
1F
100
AcDbEntity
  8
1
  6
SLD-Сплошная
100
AcDbSpline
210
0.0
220
0.0
230
1.0
 70
     8
 71
     3
 72
    12
 73
     8
 74
     0
 42
0.00000001
 43
0.00000001
 40
0.0
 40
0.0
 40
0.0
 40
0.0
 40
0.2187857887071894
 40
0.4375776469534765
 40
0.6562353658863845
 40
0.8748419359491019
 40
0.9999999999999999
 40
0.9999999999999999
 40
0.9999999999999999
 40
0.9999999999999999
 10
791.5640994676714
 20
1359.414587941791
 30
0.0
 10
791.5479631107698
 20
1359.455994801071
 30
0.0
 10
791.5156899493127
 20
1359.538809668337
 30
0.0
 10
791.4182516260264
 20
1359.636351514542
 30
0.0
 10
791.2976389396839
 20
1359.698895816337
 30
0.0
 10
791.1818127594811
 20
1359.718088866394
 30
0.0
 10
791.1133072704437
 20
1359.708100698026
 30
0.0
 10
791.0883657449523
 20
1359.704464198827
 30
0.0
  0
ARC
  5
25E
330
1F
100
AcDbEntity
  8
1
  6
SLD-Сплошная
100
AcDbCircle
 10
814.1071409103
 20
1365.7335199794
 30
0.0
 40
23.41191191633539
100
AcDbArc
 50
195.6584612586
 51
198.5625437778
  0
ARC
  5
25F
330
1F
100
AcDbEntity
  8
1
  6
SLD-Сплошная
100
AcDbCircle
 10
786.1520411925
 20
1384.2102273023
 30
0.0
 40
26.56195549678306
100
AcDbArc
 50
282.5267196436
 51
284.7633220947
  0
ARC
  5
260
330
1F
100
AcDbEntity
  8
1
  6
SLD-Сплошная
100
AcDbCircle
 10
769.779909575
 20
1354.9727578492
 30
0.0
 40
23.41191191635296
100
AcDbArc
 50
8.7274979605
 51
11.6315804797
  0
SPLINE
  5
261
330
1F
100
AcDbEntity
  8
1
  6
SLD-Сплошная
100
AcDbSpline
210
0.0
220
0.0
230
1.0
 70
     8
 71
     3
 72
    12
 73
     8
 74
     0
 42
0.00000001
 43
0.00000001
 40
0.0
 40
0.0
 40
0.0
 40
0.0
 40
0.2187857887071981
 40
0.4375776469534807
 40
0.6562353658863856
 40
0.8748419359491004
 40
1.0
 40
1.0
 40
1.0
 40
1.0
 10
793.0009170466197
 20
1360.168750124188
 30
0.0
 10
792.9595101873399
 20
1360.152613767286
 30
0.0
 10
792.8766953200738
 20
1360.120340605829
 30
0.0
 10
792.7791534738691
 20
1360.022902282543
 30
0.0
 10
792.7166091720735
 20
1359.9022895962
 30
0.0
 10
792.697416122017
 20
1359.786463415998
 30
0.0
 10
792.7074042903849
 20
1359.71795792696
 30
0.0
 10
792.7110407895834
 20
1359.693016401469
 30
0.0
  0
ARC
  5
262
330
1F
100
AcDbEntity
  8
1
  6
SLD-Сплошная
100
AcDbCircle
 10
786.6819850089
 20
1382.711791567
 30
0.0
 40
23.41191191652922
100
AcDbArc
 50
285.6584612586
 51
288.5625437778
  0
ARC
  5
263
330
1F
100
AcDbEntity
  8
1
  6
SLD-Сплошная
100
AcDbCircle
 10
768.2052776867
 20
1354.7566918492
 30
0.0
 40
26.56195549623738
100
AcDbArc
 50
12.5267196435
 51
14.7633220947
  0
ARC
  5
264
330
1F
100
AcDbEntity
  8
1
  6
SLD-Сплошная
100
AcDbCircle
 10
797.4427471393
 20
1338.3845602313
 30
0.0
 40
23.41191191665602
100
AcDbArc
 50
98.7274979605
 51
101.6315804797
  0
SPLINE
  5
265
330
1F
100
AcDbEntity
  8
1
  6
SLD-Сплошная
100
AcDbSpline
210
0.0
220
0.0
230
1.0
 70
     8
 71
     3
 72
    12
 73
     8
 74
     0
 42
0.00000001
 43
0.00000001
 40
0.0
 40
0.0
 40
0.0
 40
0.0
 40
0.2187857887072005
 40
0.4375776469534791
 40
0.6562353658863865
 40
0.8748419359491028
 40
0.9999999999999999
 40
0.9999999999999999
 40
0.9999999999999999
 40
0.9999999999999999
 10
792.2467548642227
 20
1361.605567703136
 30
0.0
 10
792.2628912211244
 20
1361.564160843856
 30
0.0
 10
792.2951643825816
 20
1361.48134597659
 30
0.0
 10
792.3926027058677
 20
1361.383804130386
 30
0.0
 10
792.5132153922103
 20
1361.32125982859
 30
0.0
 10
792.6290415724131
 20
1361.302066778533
 30
0.0
 10
792.6975470614505
 20
1361.312054946902
 30
0.0
 10
792.7224885869418
 20
1361.3156914461
 30
0.0
  0
ARC
  5
266
330
1F
100
AcDbEntity
  8
1
  6
SLD-Сплошная
100
AcDbCircle
 10
769.7037134216
 20
1355.2866356655
 30
0.0
 40
23.41191191643013
100
AcDbArc
 50
15.6584612586
 51
18.5625437778
  0
ARC
  5
267
330
1F
100
AcDbEntity
  8
1
  6
SLD-Сплошная
100
AcDbCircle
 10
797.6588131391
 20
1336.8099283435
 30
0.0
 40
26.5619554959185
100
AcDbArc
 50
102.5267196435
 51
104.7633220947
  0
ARC
  5
268
330
1F
100
AcDbEntity
  8
1
  6
SLD-Сплошная
100
AcDbCircle
 10
814.0309447568
 20
1366.0473977957
 30
0.0
 40
23.41191191631799
100
AcDbArc
 50
188.7274979605
 51
191.6315804797
  0
SPLINE
  5
269
330
1F
100
AcDbEntity
  8
1
  6
SLD-Сплошная
100
AcDbSpline
210
0.0
220
0.0
230
1.0
 70
     8
 71
     3
 72
    12
 73
     8
 74
     0
 42
0.00000001
 43
0.00000001
 40
0.0
 40
0.0
 40
0.0
 40
0.0
 40
0.2187857887071911
 40
0.4375776469534741
 40
0.6562353658863846
 40
0.8748419359491
 40
1.0
 40
1.0
 40
1.0
 40
1.0
 10
790.8099372852744
 20
1360.851405520739
 30
0.0
 10
790.8513441445542
 20
1360.867541877641
 30
0.0
 10
790.9341590118202
 20
1360.899815039098
 30
0.0
 10
791.0317008580251
 20
1360.997253362384
 30
0.0
 10
791.0942451598206
 20
1361.117866048727
 30
0.0
 10
791.1134382098772
 20
1361.23369222893
 30
0.0
 10
791.1034500415091
 20
1361.302197717967
 30
0.0
 10
791.0998135423107
 20
1361.327139243458
 30
0.0
  0
ARC
  5
26A
330
1F
100
AcDbEntity
  8
1
  6
SLD-Сплошная
100
AcDbCircle
 10
797.128869323
 20
1338.3083640778
 30
0.0
 40
23.41191191672115
100
AcDbArc
 50
105.6584612586
 51
108.5625437778
  0
CIRCLE
  5
26B
330
1F
100
AcDbEntity
  8
1
  6
SLD-Сплошная
100
AcDbCircle
 10
791.9054271659
 20
1360.5100778225
 30
0.0
 40
3.500000000000102
  0
ELLIPSE
  5
26C
330
1F
100
AcDbEntity
  8
1
  6
SLD-Сплошная
100
AcDbEllipse
 10
790.992213712
 20
1361.0665212387
 30
0.0
 11
0.352044069943986
 21
-0.2145091096842862
 31
0.0
210
0.0
220
0.0
230
1.0
 40
0.9702875252
 41
5.512866274279046
 42
7.053504340080697
  0
ELLIPSE
  5
26D
330
1F
100
AcDbEntity
  8
1
  6
SLD-Сплошная
100
AcDbEllipse
 10
791.3489837497
 20
1359.5968643685
 30
0.0
 11
0.2145091096841725
 21
0.3520440699442133
 31
0.0
210
0.0
220
0.0
230
1.0
 40
0.9702875252
 41
5.512866274278657
 42
7.053504340080522
  0
ELLIPSE
  5
26E
330
1F
100
AcDbEntity
  8
1
  6
SLD-Сплошная
100
AcDbEllipse
 10
792.8186406199
 20
1359.9536344062
 30
0.0
 11
-0.352044069943986
 21
0.2145091096842862
 31
0.0
210
0.0
220
0.0
230
1.0
 40
0.9702875252
 41
5.512866274278803
 42
7.053504340080998
  0
ELLIPSE
  5
26F
330
1F
100
AcDbEntity
  8
1
  6
SLD-Сплошная
100
AcDbEllipse
 10
792.4618705822
 20
1361.4232912764
 30
0.0
 11
-0.2145091096841725
 21
-0.3520440699442133
 31
0.0
210
0.0
220
0.0
230
1.0
 40
0.9702875252
 41
5.512866274278583
 42
7.053504340080248
  0
LINE
  5
270
330
1F
100
AcDbEntity
  8
1
  6
SLD-Сплошная
100
AcDbLine
 10
789.9205185785
 20
1359.4947658491
 30
0.0
 11
790.0444423163
 21
1359.6981447036
 31
0.0
  0
LINE
  5
271
330
1F
100
AcDbEntity
  8
1
  6
SLD-Сплошная
100
AcDbLine
 10
790.0444423163
 20
1359.6981447036
 30
0.0
 11
791.2650676187
 21
1359.9944604927
 31
0.0
  0
LINE
  5
272
330
1F
100
AcDbEntity
  8
1
  6
SLD-Сплошная
100
AcDbLine
 10
789.6759294221
 20
1360.5023115958
 30
0.0
 11
789.8793082767
 21
1360.3783878579
 31
0.0
  0
LINE
  5
273
330
1F
100
AcDbEntity
  8
1
  6
SLD-Сплошная
100
AcDbLine
 10
791.0999335791
 20
1360.674703647
 30
0.0
 11
789.8793082767
 21
1360.3783878579
 31
0.0
  0
LINE
  5
274
330
1F
100
AcDbEntity
  8
1
  6
SLD-Сплошная
100
AcDbLine
 10
793.8903357534
 20
1361.5253897959
 30
0.0
 11
793.7664120156
 21
1361.3220109413
 31
0.0
  0
LINE
  5
275
330
1F
100
AcDbEntity
  8
1
  6
SLD-Сплошная
100
AcDbLine
 10
793.7664120156
 20
1361.3220109413
 30
0.0
 11
792.5457867132
 21
1361.0256951522
 31
0.0
  0
LINE
  5
276
330
1F
100
AcDbEntity
  8
1
  6
SLD-Сплошная
100
AcDbLine
 10
792.9207391394
 20
1358.525169235
 30
0.0
 11
792.7173602848
 21
1358.6490929728
 31
0.0
  0
LINE
  5
277
330
1F
100
AcDbEntity
  8
1
  6
SLD-Сплошная
100
AcDbLine
 10
792.7173602848
 20
1358.6490929728
 30
0.0
 11
792.4210444957
 21
1359.8697182752
 31
0.0
  0
LINE
  5
278
330
1F
100
AcDbEntity
  8
1
  6
SLD-Сплошная
100
AcDbLine
 10
791.8976609392
 20
1362.7395755663
 30
0.0
 11
791.7737372014
 21
1362.5361967117
 31
0.0
  0
LINE
  5
279
330
1F
100
AcDbEntity
  8
1
  6
SLD-Сплошная
100
AcDbLine
 10
792.0700529905
 20
1361.3155714093
 30
0.0
 11
791.7737372014
 21
1362.5361967117
 31
0.0
  0
LINE
  5
27A
330
1F
100
AcDbEntity
  8
1
  6
SLD-Сплошная
100
AcDbLine
 10
791.9131933927
 20
1358.2805800787
 30
0.0
 11
792.0371171305
 21
1358.4839589332
 31
0.0
  0
LINE
  5
27B
330
1F
100
AcDbEntity
  8
1
  6
SLD-Сплошная
100
AcDbLine
 10
791.7408013414
 20
1359.7045842356
 30
0.0
 11
792.0371171305
 21
1358.4839589332
 31
0.0
  0
LINE
  5
27C
330
1F
100
AcDbEntity
  8
1
  6
SLD-Сплошная
100
AcDbLine
 10
790.8901151925
 20
1362.4949864099
 30
0.0
 11
791.0934940471
 21
1362.3710626721
 31
0.0
  0
LINE
  5
27D
330
1F
100
AcDbEntity
  8
1
  6
SLD-Сплошная
100
AcDbLine
 10
791.0934940471
 20
1362.3710626721
 30
0.0
 11
791.3898098362
 21
1361.1504373697
 31
0.0
  0
LINE
  5
27E
330
1F
100
AcDbEntity
  8
1
  6
SLD-Сплошная
100
AcDbLine
 10
794.1349249097
 20
1360.5178440492
 30
0.0
 11
793.9315460552
 21
1360.641767787
 31
0.0
  0
LINE
  5
27F
330
1F
100
AcDbEntity
  8
1
  6
SLD-Сплошная
100
AcDbLine
 10
792.7109207528
 20
1360.3454519979
 30
0.0
 11
793.9315460552
 21
1360.641767787
 31
0.0
  0
LINE
  5
280
330
1F
100
AcDbEntity
  8
1
  6
SLD-Сплошная
100
AcDbLine
 10
793.9315460552
 20
1360.641767787
 30
0.0
 11
793.7664120156
 21
1361.3220109413
 31
0.0
  0
LINE
  5
281
330
1F
100
AcDbEntity
  8
1
  6
SLD-Сплошная
100
AcDbLine
 10
791.7737372014
 20
1362.5361967117
 30
0.0
 11
791.0934940471
 21
1362.3710626721
 31
0.0
  0
LINE
  5
282
330
1F
100
AcDbEntity
  8
1
  6
SLD-Сплошная
100
AcDbLine
 10
789.8793082767
 20
1360.3783878579
 30
0.0
 11
790.0444423163
 21
1359.6981447036
 31
0.0
  0
LINE
  5
283
330
1F
100
AcDbEntity
  8
1
  6
SLD-Сплошная
100
AcDbLine
 10
792.0371171305
 20
1358.4839589332
 30
0.0
 11
792.7173602848
 21
1358.6490929728
 31
0.0
  0
CIRCLE
  5
284
330
1F
100
AcDbEntity
  8
1
  6
SLD-Сплошная
100
AcDbCircle
 10
791.9054271659
 20
1360.5100778225
 30
0.0
 40
5.000000000000082
  0
ARC
  5
285
330
1F
100
AcDbEntity
  8
1
  6
SLD-Сплошная
100
AcDbCircle
 10
768.2052776866
 20
1256.2634637958
 30
0.0
 40
26.56195549636605
100
AcDbArc
 50
345.2366779053
 51
347.4732803564
  0
ARC
  5
286
330
1F
100
AcDbEntity
  8
1
  6
SLD-Сплошная
100
AcDbCircle
 10
786.6819850092
 20
1228.3083640788
 30
0.0
 40
23.41191191570088
100
AcDbArc
 50
71.4374562222
 51
74.3415387415
  0
SPLINE
  5
287
330
1F
100
AcDbEntity
  8
1
  6
SLD-Сплошная
100
AcDbSpline
210
0.0
220
0.0
230
1.0
 70
     8
 71
     3
 72
    12
 73
     8
 74
     0
 42
0.00000001
 43
0.00000001
 40
0.0
 40
0.0
 40
0.0
 40
0.0
 40
0.2187857887071948
 40
0.4375776469535042
 40
0.6562353658863971
 40
0.8748419359490957
 40
0.9999999999999999
 40
0.9999999999999999
 40
0.9999999999999999
 40
0.9999999999999999
 10
792.7110407895834
 20
1251.327139243458
 30
0.0
 10
792.7063962783312
 20
1251.282942653944
 30
0.0
 10
792.6971071269791
 20
1251.194548248816
 30
0.0
 10
792.7389778074755
 20
1251.063188115135
 30
0.0
 10
792.8174896760718
 20
1250.952304859937
 30
0.0
 10
792.9116241279189
 20
1250.882142318889
 30
0.0
 10
792.9770842723017
 20
1250.859609342321
 30
0.0
 10
793.0009170466197
 20
1250.851405520739
 30
0.0
  0
ARC
  5
288
330
1F
100
AcDbEntity
  8
1
  6
SLD-Сплошная
100
AcDbCircle
 10
769.7799095749
 20
1256.0473977958
 30
0.0
 40
23.41191191645524
100
AcDbArc
 50
348.3684195203
 51
351.2725020395
  0
ARC
  5
289
330
1F
100
AcDbEntity
  8
1
  6
SLD-Сплошная
100
AcDbCircle
 10
786.1520411928
 20
1226.8099283439
 30
0.0
 40
26.56195549555484
100
AcDbArc
 50
75.2366779053
 51
77.4732803565
  0
ARC
  5
28A
330
1F
100
AcDbEntity
  8
1
  6
SLD-Сплошная
100
AcDbCircle
 10
814.1071409104
 20
1245.2866356655
 30
0.0
 40
23.41191191645269
100
AcDbArc
 50
161.4374562222
 51
164.3415387414
  0
SPLINE
  5
28B
330
1F
100
AcDbEntity
  8
1
  6
SLD-Сплошная
100
AcDbSpline
210
0.0
220
0.0
230
1.0
 70
     8
 71
     3
 72
    12
 73
     8
 74
     0
 42
0.00000001
 43
0.00000001
 40
0.0
 40
0.0
 40
0.0
 40
0.0
 40
0.2187857887071905
 40
0.4375776469534756
 40
0.656235365886367
 40
0.8748419359490756
 40
1.0
 40
1.0
 40
1.0
 40
1.0
 10
791.0883657449523
 20
1251.3156914461
 30
0.0
 10
791.1325623344668
 20
1251.311046934848
 30
0.0
 10
791.2209567395945
 20
1251.301757783496
 30
0.0
 10
791.3523168732753
 20
1251.343628463992
 30
0.0
 10
791.4632001284735
 20
1251.422140332588
 30
0.0
 10
791.5333626695215
 20
1251.516274784435
 30
0.0
 10
791.5558956460893
 20
1251.581734928818
 30
0.0
 10
791.5640994676714
 20
1251.605567703136
 30
0.0
  0
ARC
  5
28C
330
1F
100
AcDbEntity
  8
1
  6
SLD-Сплошная
100
AcDbCircle
 10
786.3681071927
 20
1228.3845602318
 30
0.0
 40
23.41191191614335
100
AcDbArc
 50
78.3684195203
 51
81.2725020396
  0
ARC
  5
28D
330
1F
100
AcDbEntity
  8
1
  6
SLD-Сплошная
100
AcDbCircle
 10
815.6055766446
 20
1244.7566918494
 30
0.0
 40
26.56195549555708
100
AcDbArc
 50
165.2366779053
 51
167.4732803565
  0
ARC
  5
28E
330
1F
100
AcDbEntity
  8
1
  6
SLD-Сплошная
100
AcDbCircle
 10
797.1288693227
 20
1272.7117915662
 30
0.0
 40
23.41191191570864
100
AcDbArc
 50
251.4374562222
 51
254.3415387415
  0
SPLINE
  5
28F
330
1F
100
AcDbEntity
  8
1
  6
SLD-Сплошная
100
AcDbSpline
210
0.0
220
0.0
230
1.0
 70
     8
 71
     3
 72
    12
 73
     8
 74
     0
 42
0.00000001
 43
0.00000001
 40
0.0
 40
0.0
 40
0.0
 40
0.0
 40
0.2187857887071535
 40
0.437577646953477
 40
0.6562353658863812
 40
0.8748419359490899
 40
1.0
 40
1.0
 40
1.0
 40
1.0
 10
791.0998135423107
 20
1249.693016401469
 30
0.0
 10
791.104458053563
 20
1249.737212990983
 30
0.0
 10
791.1137472049151
 20
1249.825607396111
 30
0.0
 10
791.0718765244187
 20
1249.956967529792
 30
0.0
 10
790.9933646558223
 20
1250.06785078499
 30
0.0
 10
790.8992302039752
 20
1250.138013326038
 30
0.0
 10
790.8337700595926
 20
1250.160546302606
 30
0.0
 10
790.8099372852744
 20
1250.168750124188
 30
0.0
  0
ARC
  5
290
330
1F
100
AcDbEntity
  8
1
  6
SLD-Сплошная
100
AcDbCircle
 10
814.0309447569
 20
1244.9727578492
 30
0.0
 40
23.41191191635526
100
AcDbArc
 50
168.3684195203
 51
171.2725020395
  0
ARC
  5
291
330
1F
100
AcDbEntity
  8
1
  6
SLD-Сплошная
100
AcDbCircle
 10
797.658813139
 20
1274.2102273009
 30
0.0
 40
26.56195549539386
100
AcDbArc
 50
255.2366779053
 51
257.4732803565
  0
ARC
  5
292
330
1F
100
AcDbEntity
  8
1
  6
SLD-Сплошная
100
AcDbCircle
 10
769.7037134217
 20
1255.7335199794
 30
0.0
 40
23.41191191628933
100
AcDbArc
 50
341.4374562222
 51
344.3415387414
  0
SPLINE
  5
293
330
1F
100
AcDbEntity
  8
1
  6
SLD-Сплошная
100
AcDbSpline
210
0.0
220
0.0
230
1.0
 70
     8
 71
     3
 72
    12
 73
     8
 74
     0
 42
0.00000001
 43
0.00000001
 40
0.0
 40
0.0
 40
0.0
 40
0.0
 40
0.2187857887071933
 40
0.437577646953468
 40
0.6562353658863782
 40
0.8748419359490793
 40
1.0
 40
1.0
 40
1.0
 40
1.0
 10
792.7224885869418
 20
1249.704464198827
 30
0.0
 10
792.6782919974273
 20
1249.70910871008
 30
0.0
 10
792.5898975922997
 20
1249.718397861432
 30
0.0
 10
792.4585374586188
 20
1249.676527180935
 30
0.0
 10
792.3476542034205
 20
1249.598015312339
 30
0.0
 10
792.2774916623728
 20
1249.503880860492
 30
0.0
 10
792.2549586858049
 20
1249.438420716109
 30
0.0
 10
792.2467548642227
 20
1249.414587941791
 30
0.0
  0
ARC
  5
294
330
1F
100
AcDbEntity
  8
1
  6
SLD-Сплошная
100
AcDbCircle
 10
797.4427471392
 20
1272.6355954132
 30
0.0
 40
23.41191191622418
100
AcDbArc
 50
258.3684195203
 51
261.2725020396
  0
CIRCLE
  5
295
330
1F
100
AcDbEntity
  8
1
  6
SLD-Сплошная
100
AcDbCircle
 10
791.9054271659
 20
1250.5100778225
 30
0.0
 40
3.500000000000045
  0
ELLIPSE
  5
296
330
1F
100
AcDbEntity
  8
1
  6
SLD-Сплошная
100
AcDbEllipse
 10
790.992213712
 20
1249.9536344062
 30
0.0
 11
0.3520440699439859
 21
0.2145091096840588
 31
0.0
210
0.0
220
0.0
230
1.0
 40
0.9702875252
 41
5.512866274279104
 42
7.053504340080469
  0
ELLIPSE
  5
297
330
1F
100
AcDbEntity
  8
1
  6
SLD-Сплошная
100
AcDbEllipse
 10
791.3489837497
 20
1251.4232912764
 30
0.0
 11
0.2145091096841725
 21
-0.3520440699437586
 31
0.0
210
0.0
220
0.0
230
1.0
 40
0.9702875252
 41
5.512866274278302
 42
7.053504340080051
  0
ELLIPSE
  5
298
330
1F
100
AcDbEntity
  8
1
  6
SLD-Сплошная
100
AcDbEllipse
 10
792.8186406199
 20
1251.0665212387
 30
0.0
 11
-0.3520440699439859
 21
-0.2145091096840588
 31
0.0
210
0.0
220
0.0
230
1.0
 40
0.9702875252
 41
5.51286627427873
 42
7.053504340080785
  0
ELLIPSE
  5
299
330
1F
100
AcDbEntity
  8
1
  6
SLD-Сплошная
100
AcDbEllipse
 10
792.4618705822
 20
1249.5968643685
 30
0.0
 11
-0.2145091096841724
 21
0.352044069943986
 31
0.0
210
0.0
220
0.0
230
1.0
 40
0.9702875252
 41
5.512866274278649
 42
7.053504340080742
  0
LINE
  5
29A
330
1F
100
AcDbEntity
  8
1
  6
SLD-Сплошная
100
AcDbLine
 10
791.8976609392
 20
1248.2805800787
 30
0.0
 11
791.7737372014
 21
1248.4839589332
 31
0.0
  0
LINE
  5
29B
330
1F
100
AcDbEntity
  8
1
  6
SLD-Сплошная
100
AcDbLine
 10
791.7737372014
 20
1248.4839589332
 30
0.0
 11
792.0700529905
 21
1249.7045842356
 31
0.0
  0
LINE
  5
29C
330
1F
100
AcDbEntity
  8
1
  6
SLD-Сплошная
100
AcDbLine
 10
793.8903357534
 20
1249.4947658491
 30
0.0
 11
793.7664120156
 21
1249.6981447036
 31
0.0
  0
LINE
  5
29D
330
1F
100
AcDbEntity
  8
1
  6
SLD-Сплошная
100
AcDbLine
 10
792.5457867132
 20
1249.9944604927
 30
0.0
 11
793.7664120156
 21
1249.6981447036
 31
0.0
  0
LINE
  5
29E
330
1F
100
AcDbEntity
  8
1
  6
SLD-Сплошная
100
AcDbLine
 10
789.9205185785
 20
1251.5253897959
 30
0.0
 11
790.0444423163
 21
1251.3220109413
 31
0.0
  0
LINE
  5
29F
330
1F
100
AcDbEntity
  8
1
  6
SLD-Сплошная
100
AcDbLine
 10
791.2650676187
 20
1251.0256951522
 30
0.0
 11
790.0444423163
 21
1251.3220109413
 31
0.0
  0
LINE
  5
2A0
330
1F
100
AcDbEntity
  8
1
  6
SLD-Сплошная
100
AcDbLine
 10
790.8901151925
 20
1248.525169235
 30
0.0
 11
791.0934940471
 21
1248.6490929728
 31
0.0
  0
LINE
  5
2A1
330
1F
100
AcDbEntity
  8
1
  6
SLD-Сплошная
100
AcDbLine
 10
791.3898098362
 20
1249.8697182752
 30
0.0
 11
791.0934940471
 21
1248.6490929728
 31
0.0
  0
LINE
  5
2A2
330
1F
100
AcDbEntity
  8
1
  6
SLD-Сплошная
100
AcDbLine
 10
794.1349249097
 20
1250.5023115958
 30
0.0
 11
793.9315460552
 21
1250.3783878579
 31
0.0
  0
LINE
  5
2A3
330
1F
100
AcDbEntity
  8
1
  6
SLD-Сплошная
100
AcDbLine
 10
793.9315460552
 20
1250.3783878579
 30
0.0
 11
792.7109207528
 21
1250.674703647
 31
0.0
  0
LINE
  5
2A4
330
1F
100
AcDbEntity
  8
1
  6
SLD-Сплошная
100
AcDbLine
 10
792.9207391394
 20
1252.4949864099
 30
0.0
 11
792.7173602848
 21
1252.3710626721
 31
0.0
  0
LINE
  5
2A5
330
1F
100
AcDbEntity
  8
1
  6
SLD-Сплошная
100
AcDbLine
 10
792.4210444957
 20
1251.1504373697
 30
0.0
 11
792.7173602848
 21
1252.3710626721
 31
0.0
  0
LINE
  5
2A6
330
1F
100
AcDbEntity
  8
1
  6
SLD-Сплошная
100
AcDbLine
 10
791.9131933927
 20
1252.7395755663
 30
0.0
 11
792.0371171305
 21
1252.5361967117
 31
0.0
  0
LINE
  5
2A7
330
1F
100
AcDbEntity
  8
1
  6
SLD-Сплошная
100
AcDbLine
 10
792.0371171305
 20
1252.5361967117
 30
0.0
 11
791.7408013414
 21
1251.3155714093
 31
0.0
  0
LINE
  5
2A8
330
1F
100
AcDbEntity
  8
1
  6
SLD-Сплошная
100
AcDbLine
 10
789.6759294221
 20
1250.5178440492
 30
0.0
 11
789.8793082767
 21
1250.641767787
 31
0.0
  0
LINE
  5
2A9
330
1F
100
AcDbEntity
  8
1
  6
SLD-Сплошная
100
AcDbLine
 10
789.8793082767
 20
1250.641767787
 30
0.0
 11
791.0999335791
 21
1250.345451998
 31
0.0
  0
LINE
  5
2AA
330
1F
100
AcDbEntity
  8
1
  6
SLD-Сплошная
100
AcDbLine
 10
791.0934940471
 20
1248.6490929728
 30
0.0
 11
791.7737372014
 21
1248.4839589332
 31
0.0
  0
LINE
  5
2AB
330
1F
100
AcDbEntity
  8
1
  6
SLD-Сплошная
100
AcDbLine
 10
790.0444423163
 20
1251.3220109413
 30
0.0
 11
789.8793082767
 21
1250.641767787
 31
0.0
  0
LINE
  5
2AC
330
1F
100
AcDbEntity
  8
1
  6
SLD-Сплошная
100
AcDbLine
 10
793.7664120156
 20
1249.6981447036
 30
0.0
 11
793.9315460552
 21
1250.3783878579
 31
0.0
  0
LINE
  5
2AD
330
1F
100
AcDbEntity
  8
1
  6
SLD-Сплошная
100
AcDbLine
 10
792.7173602848
 20
1252.3710626721
 30
0.0
 11
792.0371171305
 21
1252.5361967117
 31
0.0
  0
CIRCLE
  5
2AE
330
1F
100
AcDbEntity
  8
1
  6
SLD-Сплошная
100
AcDbCircle
 10
791.9054271659
 20
1250.5100778225
 30
0.0
 40
4.999999999999972
  0
ARC
  5
2AF
330
1F
100
AcDbEntity
  8
1
  6
SLD-Сплошная
100
AcDbCircle
 10
1026.650695147
 20
1360.2553458035
 30
0.0
 40
26.56195549575528
100
AcDbArc
 50
223.8816987744
 51
226.1183012256
  0
ARC
  5
2B0
330
1F
100
AcDbEntity
  8
1
  6
SLD-Сплошная
100
AcDbCircle
 10
993.1640129299
 20
1359.0231007963
 30
0.0
 40
23.41191191624471
100
AcDbArc
 50
310.0824770913
 51
312.9865596106
  0
SPLINE
  5
2B1
330
1F
100
AcDbEntity
  8
1
  6
SLD-Сплошная
100
AcDbSpline
210
0.0
220
0.0
230
1.0
 70
     8
 71
     3
 72
    12
 73
     8
 74
     0
 42
0.00000001
 43
0.00000001
 40
0.0
 40
0.0
 40
0.0
 40
0.0
 40
0.2187857887072029
 40
0.4375776469534793
 40
0.6562353658864007
 40
0.8748419359491081
 40
1.0
 40
1.0
 40
1.0
 40
1.0
 10
1009.683972862075
 20
1341.896967328651
 30
0.0
 10
1009.648647465206
 20
1341.923930754723
 30
0.0
 10
1009.577995691474
 20
1341.977858354885
 30
0.0
 10
1009.444032462833
 20
1342.010454243858
 30
0.0
 10
1009.308489836553
 20
1342.001105112616
 30
0.0
 10
1009.199592032259
 20
1341.957226354534
 30
0.0
 10
1009.146288321453
 20
1341.913050796247
 30
0.0
 10
1009.126881469819
 20
1341.896967328651
 30
0.0
  0
ARC
  5
2B2
330
1F
100
AcDbEntity
  8
1
  6
SLD-Сплошная
100
AcDbCircle
 10
1025.6468414022
 20
1359.0231007964
 30
0.0
 40
23.41191191646327
100
AcDbArc
 50
227.0134403894
 51
229.9175229087
  0
ARC
  5
2B3
330
1F
100
AcDbEntity
  8
1
  6
SLD-Сплошная
100
AcDbCircle
 10
992.1601591849
 20
1360.2553458036
 30
0.0
 40
26.56195549587211
100
AcDbArc
 50
313.8816987744
 51
316.1183012256
  0
ARC
  5
2B4
330
1F
100
AcDbEntity
  8
1
  6
SLD-Сплошная
100
AcDbCircle
 10
993.3924041922
 20
1326.7686635864
 30
0.0
 40
23.41191191624462
100
AcDbArc
 50
40.0824770913
 51
42.9865596106
  0
SPLINE
  5
2B5
330
1F
100
AcDbEntity
  8
1
  6
SLD-Сплошная
100
AcDbSpline
210
0.0
220
0.0
230
1.0
 70
     8
 71
     3
 72
    12
 73
     8
 74
     0
 42
0.00000001
 43
0.00000001
 40
0.0
 40
0.0
 40
0.0
 40
0.0
 40
0.2187857887072033
 40
0.4375776469534777
 40
0.6562353658863811
 40
0.8748419359490965
 40
1.0
 40
1.0
 40
1.0
 40
1.0
 10
1010.518537659759
 20
1343.288623518592
 30
0.0
 10
1010.491574233687
 20
1343.253298121723
 30
0.0
 10
1010.437646633526
 20
1343.18264634799
 30
0.0
 10
1010.405050744553
 20
1343.048683119349
 30
0.0
 10
1010.414399875795
 20
1342.913140493069
 30
0.0
 10
1010.458278633876
 20
1342.804242688776
 30
0.0
 10
1010.502454192163
 20
1342.75093897797
 30
0.0
 10
1010.518537659759
 20
1342.731532126336
 30
0.0
  0
ARC
  5
2B6
330
1F
100
AcDbEntity
  8
1
  6
SLD-Сплошная
100
AcDbCircle
 10
993.3924041924
 20
1359.2514920584
 30
0.0
 40
23.41191191595122
100
AcDbArc
 50
317.0134403894
 51
319.9175229087
  0
ARC
  5
2B7
330
1F
100
AcDbEntity
  8
1
  6
SLD-Сплошная
100
AcDbCircle
 10
992.1601591852
 20
1325.7648098417
 30
0.0
 40
26.56195549536431
100
AcDbArc
 50
43.8816987744
 51
46.1183012256
  0
ARC
  5
2B8
330
1F
100
AcDbEntity
  8
1
  6
SLD-Сплошная
100
AcDbCircle
 10
1025.6468414023
 20
1326.9970548483
 30
0.0
 40
23.41191191672143
100
AcDbArc
 50
130.0824770914
 51
132.9865596105
  0
SPLINE
  5
2B9
330
1F
100
AcDbEntity
  8
1
  6
SLD-Сплошная
100
AcDbSpline
210
0.0
220
0.0
230
1.0
 70
     8
 71
     3
 72
    12
 73
     8
 74
     0
 42
0.00000001
 43
0.00000001
 40
0.0
 40
0.0
 40
0.0
 40
0.0
 40
0.2187857887071716
 40
0.4375776469534868
 40
0.6562353658863617
 40
0.874841935949109
 40
1.0
 40
1.0
 40
1.0
 40
1.0
 10
1009.126881469819
 20
1344.123188316276
 30
0.0
 10
1009.162206866688
 20
1344.096224890204
 30
0.0
 10
1009.23285864042
 20
1344.042297290042
 30
0.0
 10
1009.366821869061
 20
1344.009701401069
 30
0.0
 10
1009.502364495341
 20
1344.019050532311
 30
0.0
 10
1009.611262299635
 20
1344.062929290393
 30
0.0
 10
1009.664566010441
 20
1344.10710484868
 30
0.0
 10
1009.683972862075
 20
1344.123188316276
 30
0.0
  0
ARC
  5
2BA
330
1F
100
AcDbEntity
  8
1
  6
SLD-Сплошная
100
AcDbCircle
 10
993.1640129298
 20
1326.9970548486
 30
0.0
 40
23.41191191634706
100
AcDbArc
 50
47.0134403894
 51
49.9175229087
  0
ARC
  5
2BB
330
1F
100
AcDbEntity
  8
1
  6
SLD-Сплошная
100
AcDbCircle
 10
1026.6506951471
 20
1325.7648098414
 30
0.0
 40
26.56195549590116
100
AcDbArc
 50
133.8816987744
 51
136.1183012256
  0
ARC
  5
2BC
330
1F
100
AcDbEntity
  8
1
  6
SLD-Сплошная
100
AcDbCircle
 10
1025.4184501395
 20
1359.2514920584
 30
0.0
 40
23.41191191596038
100
AcDbArc
 50
220.0824770913
 51
222.9865596106
  0
SPLINE
  5
2BD
330
1F
100
AcDbEntity
  8
1
  6
SLD-Сплошная
100
AcDbSpline
210
0.0
220
0.0
230
1.0
 70
     8
 71
     3
 72
    12
 73
     8
 74
     0
 42
0.00000001
 43
0.00000001
 40
0.0
 40
0.0
 40
0.0
 40
0.0
 40
0.2187857887071835
 40
0.4375776469534734
 40
0.656235365886389
 40
0.8748419359491165
 40
1.0
 40
1.0
 40
1.0
 40
1.0
 10
1008.292316672135
 20
1342.731532126336
 30
0.0
 10
1008.319280098207
 20
1342.766857523205
 30
0.0
 10
1008.373207698368
 20
1342.837509296937
 30
0.0
 10
1008.405803587341
 20
1342.971472525578
 30
0.0
 10
1008.396454456099
 20
1343.107015151858
 30
0.0
 10
1008.352575698018
 20
1343.215912956152
 30
0.0
 10
1008.308400139731
 20
1343.269216666958
 30
0.0
 10
1008.292316672135
 20
1343.288623518592
 30
0.0
  0
ARC
  5
2BE
330
1F
100
AcDbEntity
  8
1
  6
SLD-Сплошная
100
AcDbCircle
 10
1025.4184501397
 20
1326.7686635864
 30
0.0
 40
23.41191191625369
100
AcDbArc
 50
137.0134403894
 51
139.9175229087
  0
CIRCLE
  5
2BF
330
1F
100
AcDbEntity
  8
1
  6
SLD-Сплошная
100
AcDbCircle
 10
1009.4054271659
 20
1343.0100778225
 30
0.0
 40
3.499999999999948
  0
ELLIPSE
  5
2C0
330
1F
100
AcDbEntity
  8
1
  6
SLD-Сплошная
100
AcDbEllipse
 10
1008.3360403847
 20
1343.0100778225
 30
0.0
 11
0.4122489361058115
 21
0.0
 31
0.0
210
0.0
220
0.0
230
1.0
 40
0.9702875252
 41
5.512866274278746
 42
7.05350434008044
  0
ELLIPSE
  5
2C1
330
1F
100
AcDbEntity
  8
1
  6
SLD-Сплошная
100
AcDbEllipse
 10
1009.4054271659
 20
1344.0794646037
 30
0.0
 11
0.0
 21
-0.4122489361054704
 31
0.0
210
0.0
220
0.0
230
1.0
 40
0.9702875252
 41
5.512866274278393
 42
7.053504340080591
  0
ELLIPSE
  5
2C2
330
1F
100
AcDbEntity
  8
1
  6
SLD-Сплошная
100
AcDbEllipse
 10
1010.4748139472
 20
1343.0100778225
 30
0.0
 11
-0.4122489361055841
 21
0.0
 31
0.0
210
0.0
220
0.0
230
1.0
 40
0.9702875252
 41
5.512866274278738
 42
7.053504340080448
  0
ELLIPSE
  5
2C3
330
1F
100
AcDbEntity
  8
1
  6
SLD-Сплошная
100
AcDbEllipse
 10
1009.4054271659
 20
1341.9406910412
 30
0.0
 11
0.0
 21
0.4122489361054704
 31
0.0
210
0.0
220
0.0
230
1.0
 40
0.9702875252
 41
5.512866274278838
 42
7.053504340080551
  0
LINE
  5
2C4
330
1F
100
AcDbEntity
  8
1
  6
SLD-Сплошная
100
AcDbLine
 10
1010.5721533549
 20
1341.1102171687
 30
0.0
 11
1010.5721533549
 21
1341.3483768867
 31
0.0
  0
LINE
  5
2C5
330
1F
100
AcDbEntity
  8
1
  6
SLD-Сплошная
100
AcDbLine
 10
1009.6839728621
 20
1342.2365573795
 30
0.0
 11
1010.5721533549
 21
1341.3483768867
 31
0.0
  0
LINE
  5
2C6
330
1F
100
AcDbEntity
  8
1
  6
SLD-Сплошная
100
AcDbLine
 10
1008.238700977
 20
1344.9099384763
 30
0.0
 11
1008.238700977
 21
1344.6717787583
 31
0.0
  0
LINE
  5
2C7
330
1F
100
AcDbEntity
  8
1
  6
SLD-Сплошная
100
AcDbLine
 10
1009.1268814698
 20
1343.7835982654
 30
0.0
 11
1008.238700977
 21
1344.6717787583
 31
0.0
  0
LINE
  5
2C8
330
1F
100
AcDbEntity
  8
1
  6
SLD-Сплошная
100
AcDbLine
 10
1011.3052878198
 20
1341.8433516335
 30
0.0
 11
1011.0671281017
 21
1341.8433516335
 31
0.0
  0
LINE
  5
2C9
330
1F
100
AcDbEntity
  8
1
  6
SLD-Сплошная
100
AcDbLine
 10
1011.0671281017
 20
1341.8433516335
 30
0.0
 11
1010.1789476089
 21
1342.7315321263
 31
0.0
  0
LINE
  5
2CA
330
1F
100
AcDbEntity
  8
1
  6
SLD-Сплошная
100
AcDbLine
 10
1008.238700977
 20
1341.1102171687
 30
0.0
 11
1008.238700977
 21
1341.3483768867
 31
0.0
  0
LINE
  5
2CB
330
1F
100
AcDbEntity
  8
1
  6
SLD-Сплошная
100
AcDbLine
 10
1008.238700977
 20
1341.3483768867
 30
0.0
 11
1009.1268814698
 21
1342.2365573795
 31
0.0
  0
LINE
  5
2CC
330
1F
100
AcDbEntity
  8
1
  6
SLD-Сплошная
100
AcDbLine
 10
1007.5055665121
 20
1344.1768040114
 30
0.0
 11
1007.7437262302
 21
1344.1768040114
 31
0.0
  0
LINE
  5
2CD
330
1F
100
AcDbEntity
  8
1
  6
SLD-Сплошная
100
AcDbLine
 10
1007.7437262302
 20
1344.1768040114
 30
0.0
 11
1008.631906723
 21
1343.2886235186
 31
0.0
  0
LINE
  5
2CE
330
1F
100
AcDbEntity
  8
1
  6
SLD-Сплошная
100
AcDbLine
 10
1011.3052878198
 20
1344.1768040114
 30
0.0
 11
1011.0671281017
 21
1344.1768040114
 31
0.0
  0
LINE
  5
2CF
330
1F
100
AcDbEntity
  8
1
  6
SLD-Сплошная
100
AcDbLine
 10
1010.1789476089
 20
1343.2886235186
 30
0.0
 11
1011.0671281017
 21
1344.1768040114
 31
0.0
  0
LINE
  5
2D0
330
1F
100
AcDbEntity
  8
1
  6
SLD-Сплошная
100
AcDbLine
 10
1010.5721533549
 20
1344.9099384763
 30
0.0
 11
1010.5721533549
 21
1344.6717787583
 31
0.0
  0
LINE
  5
2D1
330
1F
100
AcDbEntity
  8
1
  6
SLD-Сплошная
100
AcDbLine
 10
1010.5721533549
 20
1344.6717787583
 30
0.0
 11
1009.6839728621
 21
1343.7835982654
 31
0.0
  0
LINE
  5
2D2
330
1F
100
AcDbEntity
  8
1
  6
SLD-Сплошная
100
AcDbLine
 10
1007.5055665121
 20
1341.8433516335
 30
0.0
 11
1007.7437262302
 21
1341.8433516335
 31
0.0
  0
LINE
  5
2D3
330
1F
100
AcDbEntity
  8
1
  6
SLD-Сплошная
100
AcDbLine
 10
1008.631906723
 20
1342.7315321263
 30
0.0
 11
1007.7437262302
 21
1341.8433516335
 31
0.0
  0
LINE
  5
2D4
330
1F
100
AcDbEntity
  8
1
  6
SLD-Сплошная
100
AcDbLine
 10
1008.238700977
 20
1344.6717787583
 30
0.0
 11
1007.7437262302
 21
1344.1768040114
 31
0.0
  0
LINE
  5
2D5
330
1F
100
AcDbEntity
  8
1
  6
SLD-Сплошная
100
AcDbLine
 10
1007.7437262302
 20
1341.8433516335
 30
0.0
 11
1008.238700977
 21
1341.3483768867
 31
0.0
  0
LINE
  5
2D6
330
1F
100
AcDbEntity
  8
1
  6
SLD-Сплошная
100
AcDbLine
 10
1010.5721533549
 20
1341.3483768867
 30
0.0
 11
1011.0671281017
 21
1341.8433516335
 31
0.0
  0
LINE
  5
2D7
330
1F
100
AcDbEntity
  8
1
  6
SLD-Сплошная
100
AcDbLine
 10
1011.0671281017
 20
1344.1768040114
 30
0.0
 11
1010.5721533549
 21
1344.6717787583
 31
0.0
  0
CIRCLE
  5
2D8
330
1F
100
AcDbEntity
  8
1
  6
SLD-Сплошная
100
AcDbCircle
 10
1009.4054271659
 20
1343.0100778225
 30
0.0
 40
4.99999999999996
  0
ARC
  5
2D9
330
1F
100
AcDbEntity
  8
1
  6
SLD-Сплошная
100
AcDbCircle
 10
557.1601591844
 20
1285.2553458041
 30
0.0
 40
26.56195549658088
100
AcDbArc
 50
313.8816987744
 51
316.1183012256
  0
ARC
  5
2DA
330
1F
100
AcDbEntity
  8
1
  6
SLD-Сплошная
100
AcDbCircle
 10
558.3924041923
 20
1251.7686635865
 30
0.0
 40
23.41191191604292
100
AcDbArc
 50
40.0824770913
 51
42.9865596106
  0
SPLINE
  5
2DB
330
1F
100
AcDbEntity
  8
1
  6
SLD-Сплошная
100
AcDbSpline
210
0.0
220
0.0
230
1.0
 70
     8
 71
     3
 72
    12
 73
     8
 74
     0
 42
0.00000001
 43
0.00000001
 40
0.0
 40
0.0
 40
0.0
 40
0.0
 40
0.2187857887072036
 40
0.4375776469534673
 40
0.6562353658863823
 40
0.8748419359490875
 40
1.0
 40
1.0
 40
1.0
 40
1.0
 10
575.5185376597593
 20
1268.288623518592
 30
0.0
 10
575.4915742336873
 20
1268.253298121723
 30
0.0
 10
575.4376466335258
 20
1268.18264634799
 30
0.0
 10
575.4050507445525
 20
1268.048683119349
 30
0.0
 10
575.4143998757947
 20
1267.913140493069
 30
0.0
 10
575.4582786338767
 20
1267.804242688775
 30
0.0
 10
575.5024541921631
 20
1267.750938977969
 30
0.0
 10
575.5185376597593
 20
1267.731532126335
 30
0.0
  0
ARC
  5
2DC
330
1F
100
AcDbEntity
  8
1
  6
SLD-Сплошная
100
AcDbCircle
 10
558.3924041923
 20
1284.2514920584
 30
0.0
 40
23.41191191604292
100
AcDbArc
 50
317.0134403894
 51
319.9175229087
  0
ARC
  5
2DD
330
1F
100
AcDbEntity
  8
1
  6
SLD-Сплошная
100
AcDbCircle
 10
557.1601591848
 20
1250.7648098413
 30
0.0
 40
26.56195549593049
100
AcDbArc
 50
43.8816987744
 51
46.1183012256
  0
ARC
  5
2DE
330
1F
100
AcDbEntity
  8
1
  6
SLD-Сплошная
100
AcDbCircle
 10
590.6468414018
 20
1251.997054849
 30
0.0
 40
23.41191191585279
100
AcDbArc
 50
130.0824770913
 51
132.9865596106
  0
SPLINE
  5
2DF
330
1F
100
AcDbEntity
  8
1
  6
SLD-Сплошная
100
AcDbSpline
210
0.0
220
0.0
230
1.0
 70
     8
 71
     3
 72
    12
 73
     8
 74
     0
 42
0.00000001
 43
0.00000001
 40
0.0
 40
0.0
 40
0.0
 40
0.0
 40
0.2187857887071698
 40
0.4375776469534907
 40
0.656235365886365
 40
0.8748419359491162
 40
1.0
 40
1.0
 40
1.0
 40
1.0
 10
574.1268814698191
 20
1269.123188316276
 30
0.0
 10
574.1622068666879
 20
1269.096224890204
 30
0.0
 10
574.2328586404204
 20
1269.042297290042
 30
0.0
 10
574.3668218690614
 20
1269.009701401069
 30
0.0
 10
574.5023644953415
 20
1269.019050532311
 30
0.0
 10
574.6112622996353
 20
1269.062929290393
 30
0.0
 10
574.6645660104413
 20
1269.107104848679
 30
0.0
 10
574.683972862075
 20
1269.123188316276
 30
0.0
  0
ARC
  5
2E0
330
1F
100
AcDbEntity
  8
1
  6
SLD-Сплошная
100
AcDbCircle
 10
558.16401293
 20
1251.9970548488
 30
0.0
 40
23.41191191603917
100
AcDbArc
 50
47.0134403894
 51
49.9175229087
  0
ARC
  5
2E1
330
1F
100
AcDbEntity
  8
1
  6
SLD-Сплошная
100
AcDbCircle
 10
591.6506951474
 20
1250.764809841
 30
0.0
 40
26.56195549638504
100
AcDbArc
 50
133.8816987744
 51
136.1183012256
  0
ARC
  5
2E2
330
1F
100
AcDbEntity
  8
1
  6
SLD-Сплошная
100
AcDbCircle
 10
590.4184501398
 20
1284.2514920586
 30
0.0
 40
23.41191191633205
100
AcDbArc
 50
220.0824770913
 51
222.9865596106
  0
SPLINE
  5
2E3
330
1F
100
AcDbEntity
  8
1
  6
SLD-Сплошная
100
AcDbSpline
210
0.0
220
0.0
230
1.0
 70
     8
 71
     3
 72
    12
 73
     8
 74
     0
 42
0.00000001
 43
0.00000001
 40
0.0
 40
0.0
 40
0.0
 40
0.0
 40
0.2187857887071817
 40
0.4375776469534589
 40
0.6562353658863839
 40
0.8748419359490818
 40
1.0
 40
1.0
 40
1.0
 40
1.0
 10
573.2923166721348
 20
1267.731532126336
 30
0.0
 10
573.3192800982067
 20
1267.766857523204
 30
0.0
 10
573.3732076983683
 20
1267.837509296937
 30
0.0
 10
573.4058035873416
 20
1267.971472525578
 30
0.0
 10
573.3964544560994
 20
1268.107015151858
 30
0.0
 10
573.3525756980175
 20
1268.215912956152
 30
0.0
 10
573.308400139731
 20
1268.269216666958
 30
0.0
 10
573.2923166721348
 20
1268.288623518592
 30
0.0
  0
ARC
  5
2E4
330
1F
100
AcDbEntity
  8
1
  6
SLD-Сплошная
100
AcDbCircle
 10
590.41845014
 20
1251.7686635861
 30
0.0
 40
23.41191191662764
100
AcDbArc
 50
137.0134403895
 51
139.9175229087
  0
ARC
  5
2E5
330
1F
100
AcDbEntity
  8
1
  6
SLD-Сплошная
100
AcDbCircle
 10
591.6506951476
 20
1285.2553458041
 30
0.0
 40
26.56195549670542
100
AcDbArc
 50
223.8816987744
 51
226.1183012256
  0
ARC
  5
2E6
330
1F
100
AcDbEntity
  8
1
  6
SLD-Сплошная
100
AcDbCircle
 10
558.16401293
 20
1284.0231007961
 30
0.0
 40
23.4119119159758
100
AcDbArc
 50
310.0824770913
 51
312.9865596106
  0
SPLINE
  5
2E7
330
1F
100
AcDbEntity
  8
1
  6
SLD-Сплошная
100
AcDbSpline
210
0.0
220
0.0
230
1.0
 70
     8
 71
     3
 72
    12
 73
     8
 74
     0
 42
0.00000001
 43
0.00000001
 40
0.0
 40
0.0
 40
0.0
 40
0.0
 40
0.2187857887072127
 40
0.4375776469534849
 40
0.6562353658864042
 40
0.8748419359491036
 40
1.0
 40
1.0
 40
1.0
 40
1.0
 10
574.683972862075
 20
1266.896967328651
 30
0.0
 10
574.6486474652062
 20
1266.923930754723
 30
0.0
 10
574.5779956914738
 20
1266.977858354885
 30
0.0
 10
574.4440324628328
 20
1267.010454243858
 30
0.0
 10
574.3084898365527
 20
1267.001105112616
 30
0.0
 10
574.1995920322589
 20
1266.957226354534
 30
0.0
 10
574.146288321453
 20
1266.913050796248
 30
0.0
 10
574.1268814698191
 20
1266.896967328651
 30
0.0
  0
ARC
  5
2E8
330
1F
100
AcDbEntity
  8
1
  6
SLD-Сплошная
100
AcDbCircle
 10
590.6468414017
 20
1284.0231007959
 30
0.0
 40
23.41191191578935
100
AcDbArc
 50
227.0134403894
 51
229.9175229087
  0
CIRCLE
  5
2E9
330
1F
100
AcDbEntity
  8
1
  6
SLD-Сплошная
100
AcDbCircle
 10
574.4054271659
 20
1268.0100778225
 30
0.0
 40
3.499999999999948
  0
ELLIPSE
  5
2EA
330
1F
100
AcDbEntity
  8
1
  6
SLD-Сплошная
100
AcDbEllipse
 10
574.4054271659
 20
1266.9406910412
 30
0.0
 11
0.0
 21
0.4122489361056978
 31
0.0
210
0.0
220
0.0
230
1.0
 40
0.9702875252
 41
5.512866274278562
 42
7.053504340080828
  0
ELLIPSE
  5
2EB
330
1F
100
AcDbEntity
  8
1
  6
SLD-Сплошная
100
AcDbEllipse
 10
575.4748139472
 20
1268.0100778225
 30
0.0
 11
-0.4122489361055841
 21
0.0
 31
0.0
210
0.0
220
0.0
230
1.0
 40
0.9702875252
 41
5.512866274278355
 42
7.053504340080831
  0
ELLIPSE
  5
2EC
330
1F
100
AcDbEntity
  8
1
  6
SLD-Сплошная
100
AcDbEllipse
 10
573.3360403847
 20
1268.0100778225
 30
0.0
 11
0.4122489361056978
 21
0.0
 31
0.0
210
0.0
220
0.0
230
1.0
 40
0.9702875252
 41
5.512866274278501
 42
7.053504340080686
  0
ELLIPSE
  5
2ED
330
1F
100
AcDbEntity
  8
1
  6
SLD-Сплошная
100
AcDbEllipse
 10
574.4054271659
 20
1269.0794646037
 30
0.0
 11
0.0
 21
-0.4122489361059252
 31
0.0
210
0.0
220
0.0
230
1.0
 40
0.9702875252
 41
5.512866274278609
 42
7.053504340080373
  0
LINE
  5
2EE
330
1F
100
AcDbEntity
  8
1
  6
SLD-Сплошная
100
AcDbLine
 10
575.5721533549
 20
1266.1102171687
 30
0.0
 11
575.5721533549
 21
1266.3483768867
 31
0.0
  0
LINE
  5
2EF
330
1F
100
AcDbEntity
  8
1
  6
SLD-Сплошная
100
AcDbLine
 10
574.6839728621
 20
1267.2365573795
 30
0.0
 11
575.5721533549
 21
1266.3483768867
 31
0.0
  0
LINE
  5
2F0
330
1F
100
AcDbEntity
  8
1
  6
SLD-Сплошная
100
AcDbLine
 10
572.5055665121
 20
1266.8433516335
 30
0.0
 11
572.7437262302
 21
1266.8433516335
 31
0.0
  0
LINE
  5
2F1
330
1F
100
AcDbEntity
  8
1
  6
SLD-Сплошная
100
AcDbLine
 10
573.631906723
 20
1267.7315321263
 30
0.0
 11
572.7437262302
 21
1266.8433516335
 31
0.0
  0
LINE
  5
2F2
330
1F
100
AcDbEntity
  8
1
  6
SLD-Сплошная
100
AcDbLine
 10
576.3052878198
 20
1266.8433516335
 30
0.0
 11
576.0671281017
 21
1266.8433516335
 31
0.0
  0
LINE
  5
2F3
330
1F
100
AcDbEntity
  8
1
  6
SLD-Сплошная
100
AcDbLine
 10
576.0671281017
 20
1266.8433516335
 30
0.0
 11
575.1789476089
 21
1267.7315321263
 31
0.0
  0
LINE
  5
2F4
330
1F
100
AcDbEntity
  8
1
  6
SLD-Сплошная
100
AcDbLine
 10
573.238700977
 20
1266.1102171687
 30
0.0
 11
573.238700977
 21
1266.3483768867
 31
0.0
  0
LINE
  5
2F5
330
1F
100
AcDbEntity
  8
1
  6
SLD-Сплошная
100
AcDbLine
 10
573.238700977
 20
1266.3483768867
 30
0.0
 11
574.1268814698
 21
1267.2365573795
 31
0.0
  0
LINE
  5
2F6
330
1F
100
AcDbEntity
  8
1
  6
SLD-Сплошная
100
AcDbLine
 10
576.3052878198
 20
1269.1768040114
 30
0.0
 11
576.0671281017
 21
1269.1768040114
 31
0.0
  0
LINE
  5
2F7
330
1F
100
AcDbEntity
  8
1
  6
SLD-Сплошная
100
AcDbLine
 10
575.1789476089
 20
1268.2886235186
 30
0.0
 11
576.0671281017
 21
1269.1768040114
 31
0.0
  0
LINE
  5
2F8
330
1F
100
AcDbEntity
  8
1
  6
SLD-Сплошная
100
AcDbLine
 10
573.238700977
 20
1269.9099384763
 30
0.0
 11
573.238700977
 21
1269.6717787583
 31
0.0
  0
LINE
  5
2F9
330
1F
100
AcDbEntity
  8
1
  6
SLD-Сплошная
100
AcDbLine
 10
574.1268814698
 20
1268.7835982654
 30
0.0
 11
573.238700977
 21
1269.6717787583
 31
0.0
  0
LINE
  5
2FA
330
1F
100
AcDbEntity
  8
1
  6
SLD-Сплошная
100
AcDbLine
 10
572.5055665121
 20
1269.1768040114
 30
0.0
 11
572.7437262302
 21
1269.1768040114
 31
0.0
  0
LINE
  5
2FB
330
1F
100
AcDbEntity
  8
1
  6
SLD-Сплошная
100
AcDbLine
 10
572.7437262302
 20
1269.1768040114
 30
0.0
 11
573.631906723
 21
1268.2886235186
 31
0.0
  0
LINE
  5
2FC
330
1F
100
AcDbEntity
  8
1
  6
SLD-Сплошная
100
AcDbLine
 10
575.5721533549
 20
1269.9099384763
 30
0.0
 11
575.5721533549
 21
1269.6717787583
 31
0.0
  0
LINE
  5
2FD
330
1F
100
AcDbEntity
  8
1
  6
SLD-Сплошная
100
AcDbLine
 10
575.5721533549
 20
1269.6717787583
 30
0.0
 11
574.6839728621
 21
1268.7835982654
 31
0.0
  0
LINE
  5
2FE
330
1F
100
AcDbEntity
  8
1
  6
SLD-Сплошная
100
AcDbLine
 10
575.5721533549
 20
1266.3483768867
 30
0.0
 11
576.0671281017
 21
1266.8433516335
 31
0.0
  0
LINE
  5
2FF
330
1F
100
AcDbEntity
  8
1
  6
SLD-Сплошная
100
AcDbLine
 10
572.7437262302
 20
1266.8433516335
 30
0.0
 11
573.238700977
 21
1266.3483768867
 31
0.0
  0
LINE
  5
300
330
1F
100
AcDbEntity
  8
1
  6
SLD-Сплошная
100
AcDbLine
 10
573.238700977
 20
1269.6717787583
 30
0.0
 11
572.7437262302
 21
1269.1768040114
 31
0.0
  0
LINE
  5
301
330
1F
100
AcDbEntity
  8
1
  6
SLD-Сплошная
100
AcDbLine
 10
576.0671281017
 20
1269.1768040114
 30
0.0
 11
575.5721533549
 21
1269.6717787583
 31
0.0
  0
CIRCLE
  5
302
330
1F
100
AcDbEntity
  8
1
  6
SLD-Сплошная
100
AcDbCircle
 10
574.4054271659
 20
1268.0100778225
 30
0.0
 40
4.999999999999879
  0
ARC
  5
303
330
1F
100
AcDbEntity
  8
1
  6
SLD-Сплошная
100
AcDbCircle
 10
874.6601591848
 20
1267.7553458036
 30
0.0
 40
26.56195549600496
100
AcDbArc
 50
313.8816987744
 51
316.1183012256
  0
ARC
  5
304
330
1F
100
AcDbEntity
  8
1
  6
SLD-Сплошная
100
AcDbCircle
 10
875.8924041923
 20
1234.2686635865
 30
0.0
 40
23.41191191603836
100
AcDbArc
 50
40.0824770913
 51
42.9865596106
  0
SPLINE
  5
305
330
1F
100
AcDbEntity
  8
1
  6
SLD-Сплошная
100
AcDbSpline
210
0.0
220
0.0
230
1.0
 70
     8
 71
     3
 72
    12
 73
     8
 74
     0
 42
0.00000001
 43
0.00000001
 40
0.0
 40
0.0
 40
0.0
 40
0.0
 40
0.2187857887071764
 40
0.4375776469534876
 40
0.6562353658863611
 40
0.874841935949103
 40
0.9999999999999999
 40
0.9999999999999999
 40
0.9999999999999999
 40
0.9999999999999999
 10
893.0185376597593
 20
1250.788623518592
 30
0.0
 10
892.9915742336873
 20
1250.753298121723
 30
0.0
 10
892.9376466335257
 20
1250.68264634799
 30
0.0
 10
892.9050507445527
 20
1250.548683119349
 30
0.0
 10
892.9143998757949
 20
1250.413140493069
 30
0.0
 10
892.9582786338766
 20
1250.304242688775
 30
0.0
 10
893.0024541921631
 20
1250.25093897797
 30
0.0
 10
893.0185376597593
 20
1250.231532126335
 30
0.0
  0
ARC
  5
306
330
1F
100
AcDbEntity
  8
1
  6
SLD-Сплошная
100
AcDbCircle
 10
875.8924041922
 20
1266.7514920585
 30
0.0
 40
23.41191191623976
100
AcDbArc
 50
317.0134403894
 51
319.9175229087
  0
ARC
  5
307
330
1F
100
AcDbEntity
  8
1
  6
SLD-Сплошная
100
AcDbCircle
 10
874.6601591844
 20
1233.2648098409
 30
0.0
 40
26.56195549653212
100
AcDbArc
 50
43.8816987744
 51
46.1183012256
  0
ARC
  5
308
330
1F
100
AcDbEntity
  8
1
  6
SLD-Сплошная
100
AcDbCircle
 10
908.1468414023
 20
1234.4970548484
 30
0.0
 40
23.4119119166264
100
AcDbArc
 50
130.0824770913
 51
132.9865596105
  0
SPLINE
  5
309
330
1F
100
AcDbEntity
  8
1
  6
SLD-Сплошная
100
AcDbSpline
210
0.0
220
0.0
230
1.0
 70
     8
 71
     3
 72
    12
 73
     8
 74
     0
 42
0.00000001
 43
0.00000001
 40
0.0
 40
0.0
 40
0.0
 40
0.0
 40
0.2187857887071817
 40
0.4375776469534588
 40
0.6562353658863838
 40
0.8748419359490818
 40
1.0
 40
1.0
 40
1.0
 40
1.0
 10
891.6268814698191
 20
1251.623188316276
 30
0.0
 10
891.6622068666879
 20
1251.596224890204
 30
0.0
 10
891.7328586404204
 20
1251.542297290042
 30
0.0
 10
891.8668218690614
 20
1251.509701401069
 30
0.0
 10
892.0023644953415
 20
1251.519050532311
 30
0.0
 10
892.1112622996354
 20
1251.562929290393
 30
0.0
 10
892.1645660104413
 20
1251.60710484868
 30
0.0
 10
892.183972862075
 20
1251.623188316276
 30
0.0
  0
ARC
  5
30A
330
1F
100
AcDbEntity
  8
1
  6
SLD-Сплошная
100
AcDbCircle
 10
875.6640129297
 20
1234.4970548485
 30
0.0
 40
23.41191191644018
100
AcDbArc
 50
47.0134403894
 51
49.9175229087
  0
ARC
  5
30B
330
1F
100
AcDbEntity
  8
1
  6
SLD-Сплошная
100
AcDbCircle
 10
909.150695147
 20
1233.2648098414
 30
0.0
 40
26.56195549580037
100
AcDbArc
 50
133.8816987744
 51
136.1183012256
  0
ARC
  5
30C
330
1F
100
AcDbEntity
  8
1
  6
SLD-Сплошная
100
AcDbCircle
 10
907.9184501395
 20
1266.7514920584
 30
0.0
 40
23.41191191595549
100
AcDbArc
 50
220.0824770913
 51
222.9865596106
  0
SPLINE
  5
30D
330
1F
100
AcDbEntity
  8
1
  6
SLD-Сплошная
100
AcDbSpline
210
0.0
220
0.0
230
1.0
 70
     8
 71
     3
 72
    12
 73
     8
 74
     0
 42
0.00000001
 43
0.00000001
 40
0.0
 40
0.0
 40
0.0
 40
0.0
 40
0.2187857887072047
 40
0.4375776469534796
 40
0.6562353658863966
 40
0.874841935949104
 40
1.0
 40
1.0
 40
1.0
 40
1.0
 10
890.7923166721348
 20
1250.231532126335
 30
0.0
 10
890.8192800982068
 20
1250.266857523205
 30
0.0
 10
890.8732076983683
 20
1250.337509296937
 30
0.0
 10
890.9058035873416
 20
1250.471472525578
 30
0.0
 10
890.8964544560994
 20
1250.607015151858
 30
0.0
 10
890.8525756980175
 20
1250.715912956152
 30
0.0
 10
890.808400139731
 20
1250.769216666958
 30
0.0
 10
890.7923166721348
 20
1250.788623518592
 30
0.0
  0
ARC
  5
30E
330
1F
100
AcDbEntity
  8
1
  6
SLD-Сплошная
100
AcDbCircle
 10
907.9184501394
 20
1234.2686635867
 30
0.0
 40
23.41191191575429
100
AcDbArc
 50
137.0134403894
 51
139.9175229087
  0
ARC
  5
30F
330
1F
100
AcDbEntity
  8
1
  6
SLD-Сплошная
100
AcDbCircle
 10
909.1506951468
 20
1267.7553458033
 30
0.0
 40
26.56195549555427
100
AcDbArc
 50
223.8816987744
 51
226.1183012256
  0
ARC
  5
310
330
1F
100
AcDbEntity
  8
1
  6
SLD-Сплошная
100
AcDbCircle
 10
875.66401293
 20
1266.5231007962
 30
0.0
 40
23.41191191610435
100
AcDbArc
 50
310.0824770913
 51
312.9865596106
  0
SPLINE
  5
311
330
1F
100
AcDbEntity
  8
1
  6
SLD-Сплошная
100
AcDbSpline
210
0.0
220
0.0
230
1.0
 70
     8
 71
     3
 72
    12
 73
     8
 74
     0
 42
0.00000001
 43
0.00000001
 40
0.0
 40
0.0
 40
0.0
 40
0.0
 40
0.2187857887072036
 40
0.4375776469534673
 40
0.6562353658863823
 40
0.8748419359490875
 40
1.0
 40
1.0
 40
1.0
 40
1.0
 10
892.183972862075
 20
1249.396967328651
 30
0.0
 10
892.1486474652061
 20
1249.423930754723
 30
0.0
 10
892.0779956914737
 20
1249.477858354885
 30
0.0
 10
891.9440324628328
 20
1249.510454243858
 30
0.0
 10
891.8084898365526
 20
1249.501105112616
 30
0.0
 10
891.6995920322588
 20
1249.457226354534
 30
0.0
 10
891.6462883214529
 20
1249.413050796247
 30
0.0
 10
891.6268814698191
 20
1249.396967328651
 30
0.0
  0
ARC
  5
312
330
1F
100
AcDbEntity
  8
1
  6
SLD-Сплошная
100
AcDbCircle
 10
908.1468414021
 20
1266.5231007963
 30
0.0
 40
23.41191191629063
100
AcDbArc
 50
227.0134403894
 51
229.9175229087
  0
CIRCLE
  5
313
330
1F
100
AcDbEntity
  8
1
  6
SLD-Сплошная
100
AcDbCircle
 10
891.9054271659
 20
1250.5100778225
 30
0.0
 40
3.500000000000189
  0
ELLIPSE
  5
314
330
1F
100
AcDbEntity
  8
1
  6
SLD-Сплошная
100
AcDbEllipse
 10
891.9054271659
 20
1251.5794646037
 30
0.0
 11
0.0
 21
-0.4122489361054704
 31
0.0
210
0.0
220
0.0
230
1.0
 40
0.9702875252
 41
5.512866274278838
 42
7.053504340080551
  0
ELLIPSE
  5
315
330
1F
100
AcDbEntity
  8
1
  6
SLD-Сплошная
100
AcDbEllipse
 10
892.9748139472
 20
1250.5100778225
 30
0.0
 11
-0.4122489361056978
 21
0.0
 31
0.0
210
0.0
220
0.0
230
1.0
 40
0.9702875252
 41
5.512866274278217
 42
7.053504340081377
  0
ELLIPSE
  5
316
330
1F
100
AcDbEntity
  8
1
  6
SLD-Сплошная
100
AcDbEllipse
 10
890.8360403847
 20
1250.5100778225
 30
0.0
 11
0.4122489361055841
 21
0.0
 31
0.0
210
0.0
220
0.0
230
1.0
 40
0.9702875252
 41
5.51286627427823
 42
7.053504340080548
  0
ELLIPSE
  5
317
330
1F
100
AcDbEntity
  8
1
  6
SLD-Сплошная
100
AcDbEllipse
 10
891.9054271659
 20
1249.4406910412
 30
0.0
 11
0.0
 21
0.4122489361054704
 31
0.0
210
0.0
220
0.0
230
1.0
 40
0.9702875252
 41
5.512866274278776
 42
7.053504340080206
  0
LINE
  5
318
330
1F
100
AcDbEntity
  8
1
  6
SLD-Сплошная
100
AcDbLine
 10
893.0721533549
 20
1248.6102171687
 30
0.0
 11
893.0721533549
 21
1248.8483768867
 31
0.0
  0
LINE
  5
319
330
1F
100
AcDbEntity
  8
1
  6
SLD-Сплошная
100
AcDbLine
 10
892.1839728621
 20
1249.7365573795
 30
0.0
 11
893.0721533549
 21
1248.8483768867
 31
0.0
  0
LINE
  5
31A
330
1F
100
AcDbEntity
  8
1
  6
SLD-Сплошная
100
AcDbLine
 10
893.8052878198
 20
1249.3433516335
 30
0.0
 11
893.5671281017
 21
1249.3433516335
 31
0.0
  0
LINE
  5
31B
330
1F
100
AcDbEntity
  8
1
  6
SLD-Сплошная
100
AcDbLine
 10
893.5671281017
 20
1249.3433516335
 30
0.0
 11
892.6789476089
 21
1250.2315321263
 31
0.0
  0
LINE
  5
31C
330
1F
100
AcDbEntity
  8
1
  6
SLD-Сплошная
100
AcDbLine
 10
890.738700977
 20
1252.4099384763
 30
0.0
 11
890.738700977
 21
1252.1717787583
 31
0.0
  0
LINE
  5
31D
330
1F
100
AcDbEntity
  8
1
  6
SLD-Сплошная
100
AcDbLine
 10
891.6268814698
 20
1251.2835982654
 30
0.0
 11
890.738700977
 21
1252.1717787583
 31
0.0
  0
LINE
  5
31E
330
1F
100
AcDbEntity
  8
1
  6
SLD-Сплошная
100
AcDbLine
 10
890.738700977
 20
1248.6102171687
 30
0.0
 11
890.738700977
 21
1248.8483768867
 31
0.0
  0
LINE
  5
31F
330
1F
100
AcDbEntity
  8
1
  6
SLD-Сплошная
100
AcDbLine
 10
890.738700977
 20
1248.8483768867
 30
0.0
 11
891.6268814698
 21
1249.7365573795
 31
0.0
  0
LINE
  5
320
330
1F
100
AcDbEntity
  8
1
  6
SLD-Сплошная
100
AcDbLine
 10
890.0055665121
 20
1249.3433516335
 30
0.0
 11
890.2437262302
 21
1249.3433516335
 31
0.0
  0
LINE
  5
321
330
1F
100
AcDbEntity
  8
1
  6
SLD-Сплошная
100
AcDbLine
 10
891.131906723
 20
1250.2315321263
 30
0.0
 11
890.2437262302
 21
1249.3433516335
 31
0.0
  0
LINE
  5
322
330
1F
100
AcDbEntity
  8
1
  6
SLD-Сплошная
100
AcDbLine
 10
893.0721533549
 20
1252.4099384763
 30
0.0
 11
893.0721533549
 21
1252.1717787583
 31
0.0
  0
LINE
  5
323
330
1F
100
AcDbEntity
  8
1
  6
SLD-Сплошная
100
AcDbLine
 10
893.0721533549
 20
1252.1717787583
 30
0.0
 11
892.1839728621
 21
1251.2835982654
 31
0.0
  0
LINE
  5
324
330
1F
100
AcDbEntity
  8
1
  6
SLD-Сплошная
100
AcDbLine
 10
893.8052878198
 20
1251.6768040114
 30
0.0
 11
893.5671281017
 21
1251.6768040114
 31
0.0
  0
LINE
  5
325
330
1F
100
AcDbEntity
  8
1
  6
SLD-Сплошная
100
AcDbLine
 10
892.6789476089
 20
1250.7886235186
 30
0.0
 11
893.5671281017
 21
1251.6768040114
 31
0.0
  0
LINE
  5
326
330
1F
100
AcDbEntity
  8
1
  6
SLD-Сплошная
100
AcDbLine
 10
890.0055665121
 20
1251.6768040114
 30
0.0
 11
890.2437262302
 21
1251.6768040114
 31
0.0
  0
LINE
  5
327
330
1F
100
AcDbEntity
  8
1
  6
SLD-Сплошная
100
AcDbLine
 10
890.2437262302
 20
1251.6768040114
 30
0.0
 11
891.131906723
 21
1250.7886235186
 31
0.0
  0
LINE
  5
328
330
1F
100
AcDbEntity
  8
1
  6
SLD-Сплошная
100
AcDbLine
 10
893.5671281017
 20
1251.6768040114
 30
0.0
 11
893.0721533549
 21
1252.1717787583
 31
0.0
  0
LINE
  5
329
330
1F
100
AcDbEntity
  8
1
  6
SLD-Сплошная
100
AcDbLine
 10
890.2437262302
 20
1249.3433516335
 30
0.0
 11
890.738700977
 21
1248.8483768867
 31
0.0
  0
LINE
  5
32A
330
1F
100
AcDbEntity
  8
1
  6
SLD-Сплошная
100
AcDbLine
 10
893.0721533549
 20
1248.8483768867
 30
0.0
 11
893.5671281017
 21
1249.3433516335
 31
0.0
  0
LINE
  5
32B
330
1F
100
AcDbEntity
  8
1
  6
SLD-Сплошная
100
AcDbLine
 10
890.738700977
 20
1252.1717787583
 30
0.0
 11
890.2437262302
 21
1251.6768040114
 31
0.0
  0
CIRCLE
  5
32C
330
1F
100
AcDbEntity
  8
1
  6
SLD-Сплошная
100
AcDbCircle
 10
891.9054271659
 20
1250.5100778225
 30
0.0
 40
5.000000000000041
  0
ARC
  5
32D
330
1F
100
AcDbEntity
  8
1
  6
SLD-Сплошная
100
AcDbCircle
 10
591.6506951478
 20
1360.2553458043
 30
0.0
 40
26.5619554969127
100
AcDbArc
 50
223.8816987744
 51
226.1183012256
  0
ARC
  5
32E
330
1F
100
AcDbEntity
  8
1
  6
SLD-Сплошная
100
AcDbCircle
 10
558.1640129296
 20
1359.0231007965
 30
0.0
 40
23.41191191662457
100
AcDbArc
 50
310.0824770913
 51
312.9865596105
  0
SPLINE
  5
32F
330
1F
100
AcDbEntity
  8
1
  6
SLD-Сплошная
100
AcDbSpline
210
0.0
220
0.0
230
1.0
 70
     8
 71
     3
 72
    12
 73
     8
 74
     0
 42
0.00000001
 43
0.00000001
 40
0.0
 40
0.0
 40
0.0
 40
0.0
 40
0.2187857887072029
 40
0.4375776469534793
 40
0.6562353658864007
 40
0.8748419359491081
 40
1.0
 40
1.0
 40
1.0
 40
1.0
 10
574.683972862075
 20
1341.896967328651
 30
0.0
 10
574.6486474652061
 20
1341.923930754723
 30
0.0
 10
574.5779956914736
 20
1341.977858354885
 30
0.0
 10
574.4440324628328
 20
1342.010454243858
 30
0.0
 10
574.3084898365527
 20
1342.001105112616
 30
0.0
 10
574.1995920322588
 20
1341.957226354534
 30
0.0
 10
574.1462883214529
 20
1341.913050796247
 30
0.0
 10
574.1268814698191
 20
1341.896967328651
 30
0.0
  0
ARC
  5
330
330
1F
100
AcDbEntity
  8
1
  6
SLD-Сплошная
100
AcDbCircle
 10
590.6468414022
 20
1359.0231007964
 30
0.0
 40
23.41191191643825
100
AcDbArc
 50
227.0134403894
 51
229.9175229087
  0
ARC
  5
331
330
1F
100
AcDbEntity
  8
1
  6
SLD-Сплошная
100
AcDbCircle
 10
557.1601591844
 20
1360.255345804
 30
0.0
 40
26.56195549645822
100
AcDbArc
 50
313.8816987744
 51
316.1183012256
  0
ARC
  5
332
330
1F
100
AcDbEntity
  8
1
  6
SLD-Сплошная
100
AcDbCircle
 10
558.3924041922
 20
1326.7686635864
 30
0.0
 40
23.41191191616514
100
AcDbArc
 50
40.0824770913
 51
42.9865596106
  0
SPLINE
  5
333
330
1F
100
AcDbEntity
  8
1
  6
SLD-Сплошная
100
AcDbSpline
210
0.0
220
0.0
230
1.0
 70
     8
 71
     3
 72
    12
 73
     8
 74
     0
 42
0.00000001
 43
0.00000001
 40
0.0
 40
0.0
 40
0.0
 40
0.0
 40
0.2187857887072033
 40
0.4375776469534777
 40
0.6562353658863811
 40
0.8748419359490965
 40
1.0
 40
1.0
 40
1.0
 40
1.0
 10
575.5185376597593
 20
1343.288623518592
 30
0.0
 10
575.4915742336873
 20
1343.253298121723
 30
0.0
 10
575.4376466335257
 20
1343.18264634799
 30
0.0
 10
575.4050507445527
 20
1343.048683119349
 30
0.0
 10
575.4143998757946
 20
1342.913140493069
 30
0.0
 10
575.4582786338767
 20
1342.804242688776
 30
0.0
 10
575.5024541921631
 20
1342.75093897797
 30
0.0
 10
575.5185376597593
 20
1342.731532126336
 30
0.0
  0
ARC
  5
334
330
1F
100
AcDbEntity
  8
1
  6
SLD-Сплошная
100
AcDbCircle
 10
558.3924041925
 20
1359.2514920582
 30
0.0
 40
23.41191191575153
100
AcDbArc
 50
317.0134403894
 51
319.9175229087
  0
ARC
  5
335
330
1F
100
AcDbEntity
  8
1
  6
SLD-Сплошная
100
AcDbCircle
 10
557.1601591847
 20
1325.7648098412
 30
0.0
 40
26.56195549607894
100
AcDbArc
 50
43.8816987744
 51
46.1183012256
  0
ARC
  5
336
330
1F
100
AcDbEntity
  8
1
  6
SLD-Сплошная
100
AcDbCircle
 10
590.646841402
 20
1326.9970548487
 30
0.0
 40
23.41191191620678
100
AcDbArc
 50
130.0824770913
 51
132.9865596106
  0
SPLINE
  5
337
330
1F
100
AcDbEntity
  8
1
  6
SLD-Сплошная
100
AcDbSpline
210
0.0
220
0.0
230
1.0
 70
     8
 71
     3
 72
    12
 73
     8
 74
     0
 42
0.00000001
 43
0.00000001
 40
0.0
 40
0.0
 40
0.0
 40
0.0
 40
0.2187857887071716
 40
0.4375776469534868
 40
0.6562353658863617
 40
0.874841935949109
 40
1.0
 40
1.0
 40
1.0
 40
1.0
 10
574.1268814698191
 20
1344.123188316276
 30
0.0
 10
574.1622068666879
 20
1344.096224890204
 30
0.0
 10
574.2328586404204
 20
1344.042297290042
 30
0.0
 10
574.3668218690613
 20
1344.009701401069
 30
0.0
 10
574.5023644953416
 20
1344.019050532311
 30
0.0
 10
574.6112622996352
 20
1344.062929290393
 30
0.0
 10
574.6645660104413
 20
1344.10710484868
 30
0.0
 10
574.683972862075
 20
1344.123188316276
 30
0.0
  0
ARC
  5
338
330
1F
100
AcDbEntity
  8
1
  6
SLD-Сплошная
100
AcDbCircle
 10
558.16401293
 20
1326.9970548488
 30
0.0
 40
23.41191191605555
100
AcDbArc
 50
47.0134403894
 51
49.9175229087
  0
ARC
  5
339
330
1F
100
AcDbEntity
  8
1
  6
SLD-Сплошная
100
AcDbCircle
 10
591.6506951471
 20
1325.7648098413
 30
0.0
 40
26.5619554960089
100
AcDbArc
 50
133.8816987744
 51
136.1183012256
  0
ARC
  5
33A
330
1F
100
AcDbEntity
  8
1
  6
SLD-Сплошная
100
AcDbCircle
 10
590.4184501396
 20
1359.2514920584
 30
0.0
 40
23.41191191604067
100
AcDbArc
 50
220.0824770913
 51
222.9865596106
  0
SPLINE
  5
33B
330
1F
100
AcDbEntity
  8
1
  6
SLD-Сплошная
100
AcDbSpline
210
0.0
220
0.0
230
1.0
 70
     8
 71
     3
 72
    12
 73
     8
 74
     0
 42
0.00000001
 43
0.00000001
 40
0.0
 40
0.0
 40
0.0
 40
0.0
 40
0.2187857887071835
 40
0.4375776469534734
 40
0.656235365886389
 40
0.8748419359491165
 40
1.0
 40
1.0
 40
1.0
 40
1.0
 10
573.2923166721348
 20
1342.731532126336
 30
0.0
 10
573.3192800982067
 20
1342.766857523205
 30
0.0
 10
573.3732076983684
 20
1342.837509296937
 30
0.0
 10
573.4058035873416
 20
1342.971472525578
 30
0.0
 10
573.3964544560994
 20
1343.107015151858
 30
0.0
 10
573.3525756980175
 20
1343.215912956152
 30
0.0
 10
573.308400139731
 20
1343.269216666958
 30
0.0
 10
573.2923166721348
 20
1343.288623518592
 30
0.0
  0
ARC
  5
33C
330
1F
100
AcDbEntity
  8
1
  6
SLD-Сплошная
100
AcDbCircle
 10
590.4184501398
 20
1326.7686635863
 30
0.0
 40
23.41191191633399
100
AcDbArc
 50
137.0134403894
 51
139.9175229087
  0
CIRCLE
  5
33D
330
1F
100
AcDbEntity
  8
1
  6
SLD-Сплошная
100
AcDbCircle
 10
574.4054271659
 20
1343.0100778225
 30
0.0
 40
3.500000000000028
  0
ELLIPSE
  5
33E
330
1F
100
AcDbEntity
  8
1
  6
SLD-Сплошная
100
AcDbEllipse
 10
574.4054271659
 20
1341.9406910412
 30
0.0
 11
0.0
 21
0.4122489361054704
 31
0.0
210
0.0
220
0.0
230
1.0
 40
0.9702875252
 41
5.512866274278838
 42
7.053504340080551
  0
ELLIPSE
  5
33F
330
1F
100
AcDbEntity
  8
1
  6
SLD-Сплошная
100
AcDbEllipse
 10
575.4748139472
 20
1343.0100778225
 30
0.0
 11
-0.4122489361055841
 21
0.0
 31
0.0
210
0.0
220
0.0
230
1.0
 40
0.9702875252
 41
5.512866274278355
 42
7.053504340080831
  0
ELLIPSE
  5
340
330
1F
100
AcDbEntity
  8
1
  6
SLD-Сплошная
100
AcDbEllipse
 10
574.4054271659
 20
1344.0794646037
 30
0.0
 11
0.0
 21
-0.4122489361054704
 31
0.0
210
0.0
220
0.0
230
1.0
 40
0.9702875252
 41
5.512866274278393
 42
7.053504340080591
  0
ELLIPSE
  5
341
330
1F
100
AcDbEntity
  8
1
  6
SLD-Сплошная
100
AcDbEllipse
 10
573.3360403847
 20
1343.0100778225
 30
0.0
 11
0.4122489361056978
 21
0.0
 31
0.0
210
0.0
220
0.0
230
1.0
 40
0.9702875252
 41
5.512866274278501
 42
7.053504340080686
  0
LINE
  5
342
330
1F
100
AcDbEntity
  8
1
  6
SLD-Сплошная
100
AcDbLine
 10
575.5721533549
 20
1341.1102171687
 30
0.0
 11
575.5721533549
 21
1341.3483768867
 31
0.0
  0
LINE
  5
343
330
1F
100
AcDbEntity
  8
1
  6
SLD-Сплошная
100
AcDbLine
 10
574.6839728621
 20
1342.2365573795
 30
0.0
 11
575.5721533549
 21
1341.3483768867
 31
0.0
  0
LINE
  5
344
330
1F
100
AcDbEntity
  8
1
  6
SLD-Сплошная
100
AcDbLine
 10
576.3052878198
 20
1341.8433516335
 30
0.0
 11
576.0671281017
 21
1341.8433516335
 31
0.0
  0
LINE
  5
345
330
1F
100
AcDbEntity
  8
1
  6
SLD-Сплошная
100
AcDbLine
 10
576.0671281017
 20
1341.8433516335
 30
0.0
 11
575.1789476089
 21
1342.7315321263
 31
0.0
  0
LINE
  5
346
330
1F
100
AcDbEntity
  8
1
  6
SLD-Сплошная
100
AcDbLine
 10
576.3052878198
 20
1344.1768040114
 30
0.0
 11
576.0671281017
 21
1344.1768040114
 31
0.0
  0
LINE
  5
347
330
1F
100
AcDbEntity
  8
1
  6
SLD-Сплошная
100
AcDbLine
 10
575.1789476089
 20
1343.2886235186
 30
0.0
 11
576.0671281017
 21
1344.1768040114
 31
0.0
  0
LINE
  5
348
330
1F
100
AcDbEntity
  8
1
  6
SLD-Сплошная
100
AcDbLine
 10
572.5055665121
 20
1344.1768040114
 30
0.0
 11
572.7437262302
 21
1344.1768040114
 31
0.0
  0
LINE
  5
349
330
1F
100
AcDbEntity
  8
1
  6
SLD-Сплошная
100
AcDbLine
 10
572.7437262302
 20
1344.1768040114
 30
0.0
 11
573.631906723
 21
1343.2886235186
 31
0.0
  0
LINE
  5
34A
330
1F
100
AcDbEntity
  8
1
  6
SLD-Сплошная
100
AcDbLine
 10
573.238700977
 20
1341.1102171687
 30
0.0
 11
573.238700977
 21
1341.3483768867
 31
0.0
  0
LINE
  5
34B
330
1F
100
AcDbEntity
  8
1
  6
SLD-Сплошная
100
AcDbLine
 10
573.238700977
 20
1341.3483768867
 30
0.0
 11
574.1268814698
 21
1342.2365573795
 31
0.0
  0
LINE
  5
34C
330
1F
100
AcDbEntity
  8
1
  6
SLD-Сплошная
100
AcDbLine
 10
573.238700977
 20
1344.9099384763
 30
0.0
 11
573.238700977
 21
1344.6717787583
 31
0.0
  0
LINE
  5
34D
330
1F
100
AcDbEntity
  8
1
  6
SLD-Сплошная
100
AcDbLine
 10
574.1268814698
 20
1343.7835982654
 30
0.0
 11
573.238700977
 21
1344.6717787583
 31
0.0
  0
LINE
  5
34E
330
1F
100
AcDbEntity
  8
1
  6
SLD-Сплошная
100
AcDbLine
 10
572.5055665121
 20
1341.8433516335
 30
0.0
 11
572.7437262302
 21
1341.8433516335
 31
0.0
  0
LINE
  5
34F
330
1F
100
AcDbEntity
  8
1
  6
SLD-Сплошная
100
AcDbLine
 10
573.631906723
 20
1342.7315321263
 30
0.0
 11
572.7437262302
 21
1341.8433516335
 31
0.0
  0
LINE
  5
350
330
1F
100
AcDbEntity
  8
1
  6
SLD-Сплошная
100
AcDbLine
 10
575.5721533549
 20
1344.9099384763
 30
0.0
 11
575.5721533549
 21
1344.6717787583
 31
0.0
  0
LINE
  5
351
330
1F
100
AcDbEntity
  8
1
  6
SLD-Сплошная
100
AcDbLine
 10
575.5721533549
 20
1344.6717787583
 30
0.0
 11
574.6839728621
 21
1343.7835982654
 31
0.0
  0
LINE
  5
352
330
1F
100
AcDbEntity
  8
1
  6
SLD-Сплошная
100
AcDbLine
 10
575.5721533549
 20
1341.3483768867
 30
0.0
 11
576.0671281017
 21
1341.8433516335
 31
0.0
  0
LINE
  5
353
330
1F
100
AcDbEntity
  8
1
  6
SLD-Сплошная
100
AcDbLine
 10
576.0671281017
 20
1344.1768040114
 30
0.0
 11
575.5721533549
 21
1344.6717787583
 31
0.0
  0
LINE
  5
354
330
1F
100
AcDbEntity
  8
1
  6
SLD-Сплошная
100
AcDbLine
 10
572.7437262302
 20
1341.8433516335
 30
0.0
 11
573.238700977
 21
1341.3483768867
 31
0.0
  0
LINE
  5
355
330
1F
100
AcDbEntity
  8
1
  6
SLD-Сплошная
100
AcDbLine
 10
573.238700977
 20
1344.6717787583
 30
0.0
 11
572.7437262302
 21
1344.1768040114
 31
0.0
  0
CIRCLE
  5
356
330
1F
100
AcDbEntity
  8
1
  6
SLD-Сплошная
100
AcDbCircle
 10
574.4054271659
 20
1343.0100778225
 30
0.0
 40
4.99999999999996
  0
ARC
  5
357
330
1F
100
AcDbEntity
  8
1
  6
SLD-Сплошная
100
AcDbCircle
 10
674.6601591852
 20
1267.7553458032
 30
0.0
 40
26.56195549542575
100
AcDbArc
 50
313.8816987744
 51
316.1183012256
  0
ARC
  5
358
330
1F
100
AcDbEntity
  8
1
  6
SLD-Сплошная
100
AcDbCircle
 10
675.8924041923
 20
1234.2686635865
 30
0.0
 40
23.41191191607285
100
AcDbArc
 50
40.0824770913
 51
42.9865596106
  0
SPLINE
  5
359
330
1F
100
AcDbEntity
  8
1
  6
SLD-Сплошная
100
AcDbSpline
210
0.0
220
0.0
230
1.0
 70
     8
 71
     3
 72
    12
 73
     8
 74
     0
 42
0.00000001
 43
0.00000001
 40
0.0
 40
0.0
 40
0.0
 40
0.0
 40
0.2187857887071764
 40
0.4375776469534876
 40
0.6562353658863611
 40
0.874841935949103
 40
0.9999999999999999
 40
0.9999999999999999
 40
0.9999999999999999
 40
0.9999999999999999
 10
693.0185376597593
 20
1250.788623518592
 30
0.0
 10
692.9915742336873
 20
1250.753298121723
 30
0.0
 10
692.9376466335258
 20
1250.68264634799
 30
0.0
 10
692.9050507445527
 20
1250.548683119349
 30
0.0
 10
692.9143998757947
 20
1250.413140493069
 30
0.0
 10
692.9582786338766
 20
1250.304242688775
 30
0.0
 10
693.0024541921631
 20
1250.250938977969
 30
0.0
 10
693.0185376597593
 20
1250.231532126335
 30
0.0
  0
ARC
  5
35A
330
1F
100
AcDbEntity
  8
1
  6
SLD-Сплошная
100
AcDbCircle
 10
675.8924041923
 20
1266.7514920584
 30
0.0
 40
23.41191191607277
100
AcDbArc
 50
317.0134403894
 51
319.9175229087
  0
ARC
  5
35B
330
1F
100
AcDbEntity
  8
1
  6
SLD-Сплошная
100
AcDbCircle
 10
674.6601591854
 20
1233.264809842
 30
0.0
 40
26.56195549504679
100
AcDbArc
 50
43.8816987744
 51
46.1183012256
  0
ARC
  5
35C
330
1F
100
AcDbEntity
  8
1
  6
SLD-Сплошная
100
AcDbCircle
 10
708.1468414021
 20
1234.4970548486
 30
0.0
 40
23.41191191637931
100
AcDbArc
 50
130.0824770913
 51
132.9865596106
  0
SPLINE
  5
35D
330
1F
100
AcDbEntity
  8
1
  6
SLD-Сплошная
100
AcDbSpline
210
0.0
220
0.0
230
1.0
 70
     8
 71
     3
 72
    12
 73
     8
 74
     0
 42
0.00000001
 43
0.00000001
 40
0.0
 40
0.0
 40
0.0
 40
0.0
 40
0.2187857887071817
 40
0.4375776469534588
 40
0.6562353658863838
 40
0.8748419359490818
 40
1.0
 40
1.0
 40
1.0
 40
1.0
 10
691.6268814698191
 20
1251.623188316276
 30
0.0
 10
691.662206866688
 20
1251.596224890204
 30
0.0
 10
691.7328586404203
 20
1251.542297290042
 30
0.0
 10
691.8668218690614
 20
1251.509701401069
 30
0.0
 10
692.0023644953413
 20
1251.519050532311
 30
0.0
 10
692.1112622996354
 20
1251.562929290393
 30
0.0
 10
692.1645660104413
 20
1251.607104848679
 30
0.0
 10
692.1839728620752
 20
1251.623188316276
 30
0.0
  0
ARC
  5
35E
330
1F
100
AcDbEntity
  8
1
  6
SLD-Сплошная
100
AcDbCircle
 10
675.6640129298
 20
1234.4970548486
 30
0.0
 40
23.41191191633044
100
AcDbArc
 50
47.0134403894
 51
49.9175229087
  0
ARC
  5
35F
330
1F
100
AcDbEntity
  8
1
  6
SLD-Сплошная
100
AcDbCircle
 10
709.1506951465
 20
1233.2648098419
 30
0.0
 40
26.56195549505829
100
AcDbArc
 50
133.8816987744
 51
136.1183012256
  0
ARC
  5
360
330
1F
100
AcDbEntity
  8
1
  6
SLD-Сплошная
100
AcDbCircle
 10
707.9184501397
 20
1266.7514920585
 30
0.0
 40
23.41191191624171
100
AcDbArc
 50
220.0824770913
 51
222.9865596106
  0
SPLINE
  5
361
330
1F
100
AcDbEntity
  8
1
  6
SLD-Сплошная
100
AcDbSpline
210
0.0
220
0.0
230
1.0
 70
     8
 71
     3
 72
    12
 73
     8
 74
     0
 42
0.00000001
 43
0.00000001
 40
0.0
 40
0.0
 40
0.0
 40
0.0
 40
0.2187857887072047
 40
0.4375776469534796
 40
0.6562353658863966
 40
0.874841935949104
 40
1.0
 40
1.0
 40
1.0
 40
1.0
 10
690.7923166721348
 20
1250.231532126335
 30
0.0
 10
690.819280098207
 20
1250.266857523205
 30
0.0
 10
690.8732076983683
 20
1250.337509296937
 30
0.0
 10
690.9058035873414
 20
1250.471472525578
 30
0.0
 10
690.8964544560994
 20
1250.607015151858
 30
0.0
 10
690.8525756980175
 20
1250.715912956152
 30
0.0
 10
690.808400139731
 20
1250.769216666958
 30
0.0
 10
690.7923166721348
 20
1250.788623518592
 30
0.0
  0
ARC
  5
362
330
1F
100
AcDbEntity
  8
1
  6
SLD-Сплошная
100
AcDbCircle
 10
707.9184501397
 20
1234.2686635864
 30
0.0
 40
23.41191191624171
100
AcDbArc
 50
137.0134403894
 51
139.9175229087
  0
ARC
  5
363
330
1F
100
AcDbEntity
  8
1
  6
SLD-Сплошная
100
AcDbCircle
 10
709.1506951469
 20
1267.7553458034
 30
0.0
 40
26.5619554956911
100
AcDbArc
 50
223.8816987744
 51
226.1183012256
  0
ARC
  5
364
330
1F
100
AcDbEntity
  8
1
  6
SLD-Сплошная
100
AcDbCircle
 10
675.6640129298
 20
1266.5231007963
 30
0.0
 40
23.41191191630191
100
AcDbArc
 50
310.0824770913
 51
312.9865596106
  0
SPLINE
  5
365
330
1F
100
AcDbEntity
  8
1
  6
SLD-Сплошная
100
AcDbSpline
210
0.0
220
0.0
230
1.0
 70
     8
 71
     3
 72
    12
 73
     8
 74
     0
 42
0.00000001
 43
0.00000001
 40
0.0
 40
0.0
 40
0.0
 40
0.0
 40
0.2187857887072036
 40
0.4375776469534673
 40
0.6562353658863823
 40
0.8748419359490875
 40
1.0
 40
1.0
 40
1.0
 40
1.0
 10
692.1839728620752
 20
1249.396967328651
 30
0.0
 10
692.1486474652061
 20
1249.423930754723
 30
0.0
 10
692.0779956914738
 20
1249.477858354885
 30
0.0
 10
691.9440324628326
 20
1249.510454243858
 30
0.0
 10
691.8084898365528
 20
1249.501105112616
 30
0.0
 10
691.6995920322588
 20
1249.457226354534
 30
0.0
 10
691.6462883214529
 20
1249.413050796247
 30
0.0
 10
691.626881469819
 20
1249.396967328651
 30
0.0
  0
ARC
  5
366
330
1F
100
AcDbEntity
  8
1
  6
SLD-Сплошная
100
AcDbCircle
 10
708.1468414021
 20
1266.5231007963
 30
0.0
 40
23.41191191630077
100
AcDbArc
 50
227.0134403894
 51
229.9175229087
  0
CIRCLE
  5
367
330
1F
100
AcDbEntity
  8
1
  6
SLD-Сплошная
100
AcDbCircle
 10
691.9054271659
 20
1250.5100778225
 30
0.0
 40
3.500000000000349
  0
ELLIPSE
  5
368
330
1F
100
AcDbEntity
  8
1
  6
SLD-Сплошная
100
AcDbEllipse
 10
691.9054271659
 20
1249.4406910412
 30
0.0
 11
0.0
 21
0.4122489361056978
 31
0.0
210
0.0
220
0.0
230
1.0
 40
0.9702875252
 41
5.51286627427868
 42
7.053504340080098
  0
ELLIPSE
  5
369
330
1F
100
AcDbEntity
  8
1
  6
SLD-Сплошная
100
AcDbEllipse
 10
691.9054271659
 20
1251.5794646037
 30
0.0
 11
0.0
 21
-0.4122489361054704
 31
0.0
210
0.0
220
0.0
230
1.0
 40
0.9702875252
 41
5.51286627427908
 42
7.053504340080514
  0
ELLIPSE
  5
36A
330
1F
100
AcDbEntity
  8
1
  6
SLD-Сплошная
100
AcDbEllipse
 10
690.8360403847
 20
1250.5100778225
 30
0.0
 11
0.4122489361055841
 21
0.0
 31
0.0
210
0.0
220
0.0
230
1.0
 40
0.9702875252
 41
5.512866274278514
 42
7.053504340079856
  0
ELLIPSE
  5
36B
330
1F
100
AcDbEntity
  8
1
  6
SLD-Сплошная
100
AcDbEllipse
 10
692.9748139472
 20
1250.5100778225
 30
0.0
 11
-0.4122489361056978
 21
0.0
 31
0.0
210
0.0
220
0.0
230
1.0
 40
0.9702875252
 41
5.512866274278816
 42
7.053504340081186
  0
LINE
  5
36C
330
1F
100
AcDbEntity
  8
1
  6
SLD-Сплошная
100
AcDbLine
 10
693.0721533549
 20
1248.6102171687
 30
0.0
 11
693.0721533549
 21
1248.8483768867
 31
0.0
  0
LINE
  5
36D
330
1F
100
AcDbEntity
  8
1
  6
SLD-Сплошная
100
AcDbLine
 10
692.1839728621
 20
1249.7365573795
 30
0.0
 11
693.0721533549
 21
1248.8483768867
 31
0.0
  0
LINE
  5
36E
330
1F
100
AcDbEntity
  8
1
  6
SLD-Сплошная
100
AcDbLine
 10
690.738700977
 20
1248.6102171687
 30
0.0
 11
690.738700977
 21
1248.8483768867
 31
0.0
  0
LINE
  5
36F
330
1F
100
AcDbEntity
  8
1
  6
SLD-Сплошная
100
AcDbLine
 10
690.738700977
 20
1248.8483768867
 30
0.0
 11
691.6268814698
 21
1249.7365573795
 31
0.0
  0
LINE
  5
370
330
1F
100
AcDbEntity
  8
1
  6
SLD-Сплошная
100
AcDbLine
 10
693.8052878198
 20
1249.3433516335
 30
0.0
 11
693.5671281017
 21
1249.3433516335
 31
0.0
  0
LINE
  5
371
330
1F
100
AcDbEntity
  8
1
  6
SLD-Сплошная
100
AcDbLine
 10
693.5671281017
 20
1249.3433516335
 30
0.0
 11
692.6789476089
 21
1250.2315321263
 31
0.0
  0
LINE
  5
372
330
1F
100
AcDbEntity
  8
1
  6
SLD-Сплошная
100
AcDbLine
 10
693.8052878198
 20
1251.6768040114
 30
0.0
 11
693.5671281017
 21
1251.6768040114
 31
0.0
  0
LINE
  5
373
330
1F
100
AcDbEntity
  8
1
  6
SLD-Сплошная
100
AcDbLine
 10
692.6789476089
 20
1250.7886235186
 30
0.0
 11
693.5671281017
 21
1251.6768040114
 31
0.0
  0
LINE
  5
374
330
1F
100
AcDbEntity
  8
1
  6
SLD-Сплошная
100
AcDbLine
 10
693.0721533549
 20
1252.4099384763
 30
0.0
 11
693.0721533549
 21
1252.1717787583
 31
0.0
  0
LINE
  5
375
330
1F
100
AcDbEntity
  8
1
  6
SLD-Сплошная
100
AcDbLine
 10
693.0721533549
 20
1252.1717787583
 30
0.0
 11
692.1839728621
 21
1251.2835982654
 31
0.0
  0
LINE
  5
376
330
1F
100
AcDbEntity
  8
1
  6
SLD-Сплошная
100
AcDbLine
 10
690.0055665121
 20
1251.6768040114
 30
0.0
 11
690.2437262302
 21
1251.6768040114
 31
0.0
  0
LINE
  5
377
330
1F
100
AcDbEntity
  8
1
  6
SLD-Сплошная
100
AcDbLine
 10
690.2437262302
 20
1251.6768040114
 30
0.0
 11
691.131906723
 21
1250.7886235186
 31
0.0
  0
LINE
  5
378
330
1F
100
AcDbEntity
  8
1
  6
SLD-Сплошная
100
AcDbLine
 10
690.0055665121
 20
1249.3433516335
 30
0.0
 11
690.2437262302
 21
1249.3433516335
 31
0.0
  0
LINE
  5
379
330
1F
100
AcDbEntity
  8
1
  6
SLD-Сплошная
100
AcDbLine
 10
691.131906723
 20
1250.2315321263
 30
0.0
 11
690.2437262302
 21
1249.3433516335
 31
0.0
  0
LINE
  5
37A
330
1F
100
AcDbEntity
  8
1
  6
SLD-Сплошная
100
AcDbLine
 10
690.738700977
 20
1252.4099384763
 30
0.0
 11
690.738700977
 21
1252.1717787583
 31
0.0
  0
LINE
  5
37B
330
1F
100
AcDbEntity
  8
1
  6
SLD-Сплошная
100
AcDbLine
 10
691.6268814698
 20
1251.2835982654
 30
0.0
 11
690.738700977
 21
1252.1717787583
 31
0.0
  0
LINE
  5
37C
330
1F
100
AcDbEntity
  8
1
  6
SLD-Сплошная
100
AcDbLine
 10
693.0721533549
 20
1248.8483768867
 30
0.0
 11
693.5671281017
 21
1249.3433516335
 31
0.0
  0
LINE
  5
37D
330
1F
100
AcDbEntity
  8
1
  6
SLD-Сплошная
100
AcDbLine
 10
693.5671281017
 20
1251.6768040114
 30
0.0
 11
693.0721533549
 21
1252.1717787583
 31
0.0
  0
LINE
  5
37E
330
1F
100
AcDbEntity
  8
1
  6
SLD-Сплошная
100
AcDbLine
 10
690.738700977
 20
1252.1717787583
 30
0.0
 11
690.2437262302
 21
1251.6768040114
 31
0.0
  0
LINE
  5
37F
330
1F
100
AcDbEntity
  8
1
  6
SLD-Сплошная
100
AcDbLine
 10
690.2437262302
 20
1249.3433516335
 30
0.0
 11
690.738700977
 21
1248.8483768867
 31
0.0
  0
CIRCLE
  5
380
330
1F
100
AcDbEntity
  8
1
  6
SLD-Сплошная
100
AcDbCircle
 10
691.9054271659
 20
1250.5100778225
 30
0.0
 40
5.000000000000121
  0
ARC
  5
381
330
1F
100
AcDbEntity
  8
1
  6
SLD-Сплошная
100
AcDbCircle
 10
709.1506951477
 20
1377.7553458042
 30
0.0
 40
26.56195549679619
100
AcDbArc
 50
223.8816987744
 51
226.1183012256
  0
ARC
  5
382
330
1F
100
AcDbEntity
  8
1
  6
SLD-Сплошная
100
AcDbCircle
 10
675.6640129296
 20
1376.5231007966
 30
0.0
 40
23.41191191664921
100
AcDbArc
 50
310.0824770914
 51
312.9865596106
  0
SPLINE
  5
383
330
1F
100
AcDbEntity
  8
1
  6
SLD-Сплошная
100
AcDbSpline
210
0.0
220
0.0
230
1.0
 70
     8
 71
     3
 72
    12
 73
     8
 74
     0
 42
0.00000001
 43
0.00000001
 40
0.0
 40
0.0
 40
0.0
 40
0.0
 40
0.2187857887072087
 40
0.4375776469534819
 40
0.6562353658863805
 40
0.8748419359491083
 40
1.0
 40
1.0
 40
1.0
 40
1.0
 10
692.1839728620752
 20
1359.396967328651
 30
0.0
 10
692.1486474652061
 20
1359.423930754723
 30
0.0
 10
692.0779956914738
 20
1359.477858354885
 30
0.0
 10
691.9440324628328
 20
1359.510454243858
 30
0.0
 10
691.8084898365528
 20
1359.501105112616
 30
0.0
 10
691.6995920322588
 20
1359.457226354534
 30
0.0
 10
691.646288321453
 20
1359.413050796248
 30
0.0
 10
691.6268814698191
 20
1359.396967328651
 30
0.0
  0
ARC
  5
384
330
1F
100
AcDbEntity
  8
1
  6
SLD-Сплошная
100
AcDbCircle
 10
708.1468414022
 20
1376.5231007965
 30
0.0
 40
23.41191191654109
100
AcDbArc
 50
227.0134403894
 51
229.9175229087
  0
ARC
  5
385
330
1F
100
AcDbEntity
  8
1
  6
SLD-Сплошная
100
AcDbCircle
 10
674.6601591844
 20
1377.755345804
 30
0.0
 40
26.56195549645839
100
AcDbArc
 50
313.8816987744
 51
316.1183012256
  0
ARC
  5
386
330
1F
100
AcDbEntity
  8
1
  6
SLD-Сплошная
100
AcDbCircle
 10
675.8924041922
 20
1344.2686635864
 30
0.0
 40
23.41191191616499
100
AcDbArc
 50
40.0824770913
 51
42.9865596106
  0
SPLINE
  5
387
330
1F
100
AcDbEntity
  8
1
  6
SLD-Сплошная
100
AcDbSpline
210
0.0
220
0.0
230
1.0
 70
     8
 71
     3
 72
    12
 73
     8
 74
     0
 42
0.00000001
 43
0.00000001
 40
0.0
 40
0.0
 40
0.0
 40
0.0
 40
0.2187857887071986
 40
0.4375776469534816
 40
0.6562353658863895
 40
0.8748419359490992
 40
1.0
 40
1.0
 40
1.0
 40
1.0
 10
693.0185376597593
 20
1360.788623518592
 30
0.0
 10
692.9915742336873
 20
1360.753298121723
 30
0.0
 10
692.9376466335258
 20
1360.68264634799
 30
0.0
 10
692.9050507445527
 20
1360.548683119349
 30
0.0
 10
692.9143998757947
 20
1360.413140493069
 30
0.0
 10
692.9582786338766
 20
1360.304242688775
 30
0.0
 10
693.0024541921631
 20
1360.250938977969
 30
0.0
 10
693.0185376597593
 20
1360.231532126336
 30
0.0
  0
ARC
  5
388
330
1F
100
AcDbEntity
  8
1
  6
SLD-Сплошная
100
AcDbCircle
 10
675.8924041921
 20
1376.7514920586
 30
0.0
 40
23.41191191637696
100
AcDbArc
 50
317.0134403894
 51
319.9175229087
  0
ARC
  5
389
330
1F
100
AcDbEntity
  8
1
  6
SLD-Сплошная
100
AcDbCircle
 10
674.6601591851
 20
1343.2648098416
 30
0.0
 40
26.56195549555435
100
AcDbArc
 50
43.8816987744
 51
46.1183012256
  0
ARC
  5
38A
330
1F
100
AcDbEntity
  8
1
  6
SLD-Сплошная
100
AcDbCircle
 10
708.1468414017
 20
1344.4970548491
 30
0.0
 40
23.41191191573368
100
AcDbArc
 50
130.0824770913
 51
132.9865596106
  0
SPLINE
  5
38B
330
1F
100
AcDbEntity
  8
1
  6
SLD-Сплошная
100
AcDbSpline
210
0.0
220
0.0
230
1.0
 70
     8
 71
     3
 72
    12
 73
     8
 74
     0
 42
0.00000001
 43
0.00000001
 40
0.0
 40
0.0
 40
0.0
 40
0.0
 40
0.218785788707212
 40
0.4375776469534823
 40
0.6562353658864029
 40
0.874841935949109
 40
1.0
 40
1.0
 40
1.0
 40
1.0
 10
691.626881469819
 20
1361.623188316276
 30
0.0
 10
691.662206866688
 20
1361.596224890204
 30
0.0
 10
691.7328586404203
 20
1361.542297290042
 30
0.0
 10
691.8668218690615
 20
1361.509701401069
 30
0.0
 10
692.0023644953413
 20
1361.519050532311
 30
0.0
 10
692.1112622996354
 20
1361.562929290393
 30
0.0
 10
692.1645660104411
 20
1361.607104848679
 30
0.0
 10
692.1839728620752
 20
1361.623188316276
 30
0.0
  0
ARC
  5
38C
330
1F
100
AcDbEntity
  8
1
  6
SLD-Сплошная
100
AcDbCircle
 10
675.6640129301
 20
1344.4970548489
 30
0.0
 40
23.41191191597007
100
AcDbArc
 50
47.0134403894
 51
49.9175229087
  0
ARC
  5
38D
330
1F
100
AcDbEntity
  8
1
  6
SLD-Сплошная
100
AcDbCircle
 10
709.150695147
 20
1343.2648098414
 30
0.0
 40
26.56195549581946
100
AcDbArc
 50
133.8816987744
 51
136.1183012256
  0
ARC
  5
38E
330
1F
100
AcDbEntity
  8
1
  6
SLD-Сплошная
100
AcDbCircle
 10
707.9184501398
 20
1376.7514920586
 30
0.0
 40
23.4119119163319
100
AcDbArc
 50
220.0824770913
 51
222.9865596106
  0
SPLINE
  5
38F
330
1F
100
AcDbEntity
  8
1
  6
SLD-Сплошная
100
AcDbSpline
210
0.0
220
0.0
230
1.0
 70
     8
 71
     3
 72
    12
 73
     8
 74
     0
 42
0.00000001
 43
0.00000001
 40
0.0
 40
0.0
 40
0.0
 40
0.0
 40
0.2187857887071924
 40
0.4375776469534745
 40
0.6562353658863835
 40
0.8748419359490942
 40
1.0
 40
1.0
 40
1.0
 40
1.0
 10
690.7923166721348
 20
1360.231532126336
 30
0.0
 10
690.8192800982068
 20
1360.266857523205
 30
0.0
 10
690.8732076983683
 20
1360.337509296937
 30
0.0
 10
690.9058035873414
 20
1360.471472525578
 30
0.0
 10
690.8964544560993
 20
1360.607015151858
 30
0.0
 10
690.8525756980175
 20
1360.715912956152
 30
0.0
 10
690.808400139731
 20
1360.769216666958
 30
0.0
 10
690.7923166721348
 20
1360.788623518592
 30
0.0
  0
ARC
  5
390
330
1F
100
AcDbEntity
  8
1
  6
SLD-Сплошная
100
AcDbCircle
 10
707.9184501398
 20
1344.2686635863
 30
0.0
 40
23.41191191633393
100
AcDbArc
 50
137.0134403894
 51
139.9175229087
  0
CIRCLE
  5
391
330
1F
100
AcDbEntity
  8
1
  6
SLD-Сплошная
100
AcDbCircle
 10
691.9054271659
 20
1360.5100778225
 30
0.0
 40
3.499999999999948
  0
ELLIPSE
  5
392
330
1F
100
AcDbEntity
  8
1
  6
SLD-Сплошная
100
AcDbEllipse
 10
691.9054271659
 20
1359.4406910412
 30
0.0
 11
0.0
 21
0.4122489361059252
 31
0.0
210
0.0
220
0.0
230
1.0
 40
0.9702875252
 41
5.512866274278405
 42
7.053504340080373
  0
ELLIPSE
  5
393
330
1F
100
AcDbEntity
  8
1
  6
SLD-Сплошная
100
AcDbEllipse
 10
691.9054271659
 20
1361.5794646037
 30
0.0
 11
0.0
 21
-0.4122489361056978
 31
0.0
210
0.0
220
0.0
230
1.0
 40
0.9702875252
 41
5.512866274278805
 42
7.05350434008079
  0
ELLIPSE
  5
394
330
1F
100
AcDbEntity
  8
1
  6
SLD-Сплошная
100
AcDbEllipse
 10
692.9748139472
 20
1360.5100778225
 30
0.0
 11
-0.4122489361056978
 21
0.0
 31
0.0
210
0.0
220
0.0
230
1.0
 40
0.9702875252
 41
5.512866274278816
 42
7.053504340080777
  0
ELLIPSE
  5
395
330
1F
100
AcDbEntity
  8
1
  6
SLD-Сплошная
100
AcDbEllipse
 10
690.8360403847
 20
1360.5100778225
 30
0.0
 11
0.4122489361055841
 21
0.0
 31
0.0
210
0.0
220
0.0
230
1.0
 40
0.9702875252
 41
5.512866274278639
 42
7.05350434008014
  0
LINE
  5
396
330
1F
100
AcDbEntity
  8
1
  6
SLD-Сплошная
100
AcDbLine
 10
693.0721533549
 20
1358.6102171687
 30
0.0
 11
693.0721533549
 21
1358.8483768867
 31
0.0
  0
LINE
  5
397
330
1F
100
AcDbEntity
  8
1
  6
SLD-Сплошная
100
AcDbLine
 10
692.1839728621
 20
1359.7365573795
 30
0.0
 11
693.0721533549
 21
1358.8483768867
 31
0.0
  0
LINE
  5
398
330
1F
100
AcDbEntity
  8
1
  6
SLD-Сплошная
100
AcDbLine
 10
690.0055665121
 20
1359.3433516335
 30
0.0
 11
690.2437262302
 21
1359.3433516335
 31
0.0
  0
LINE
  5
399
330
1F
100
AcDbEntity
  8
1
  6
SLD-Сплошная
100
AcDbLine
 10
691.131906723
 20
1360.2315321263
 30
0.0
 11
690.2437262302
 21
1359.3433516335
 31
0.0
  0
LINE
  5
39A
330
1F
100
AcDbEntity
  8
1
  6
SLD-Сплошная
100
AcDbLine
 10
693.8052878198
 20
1361.6768040114
 30
0.0
 11
693.5671281017
 21
1361.6768040114
 31
0.0
  0
LINE
  5
39B
330
1F
100
AcDbEntity
  8
1
  6
SLD-Сплошная
100
AcDbLine
 10
692.6789476089
 20
1360.7886235186
 30
0.0
 11
693.5671281017
 21
1361.6768040114
 31
0.0
  0
LINE
  5
39C
330
1F
100
AcDbEntity
  8
1
  6
SLD-Сплошная
100
AcDbLine
 10
690.0055665121
 20
1361.6768040114
 30
0.0
 11
690.2437262302
 21
1361.6768040114
 31
0.0
  0
LINE
  5
39D
330
1F
100
AcDbEntity
  8
1
  6
SLD-Сплошная
100
AcDbLine
 10
690.2437262302
 20
1361.6768040114
 30
0.0
 11
691.131906723
 21
1360.7886235186
 31
0.0
  0
LINE
  5
39E
330
1F
100
AcDbEntity
  8
1
  6
SLD-Сплошная
100
AcDbLine
 10
690.738700977
 20
1362.4099384763
 30
0.0
 11
690.738700977
 21
1362.1717787583
 31
0.0
  0
LINE
  5
39F
330
1F
100
AcDbEntity
  8
1
  6
SLD-Сплошная
100
AcDbLine
 10
691.6268814698
 20
1361.2835982654
 30
0.0
 11
690.738700977
 21
1362.1717787583
 31
0.0
  0
LINE
  5
3A0
330
1F
100
AcDbEntity
  8
1
  6
SLD-Сплошная
100
AcDbLine
 10
693.0721533549
 20
1362.4099384763
 30
0.0
 11
693.0721533549
 21
1362.1717787583
 31
0.0
  0
LINE
  5
3A1
330
1F
100
AcDbEntity
  8
1
  6
SLD-Сплошная
100
AcDbLine
 10
693.0721533549
 20
1362.1717787583
 30
0.0
 11
692.1839728621
 21
1361.2835982654
 31
0.0
  0
LINE
  5
3A2
330
1F
100
AcDbEntity
  8
1
  6
SLD-Сплошная
100
AcDbLine
 10
690.738700977
 20
1358.6102171687
 30
0.0
 11
690.738700977
 21
1358.8483768867
 31
0.0
  0
LINE
  5
3A3
330
1F
100
AcDbEntity
  8
1
  6
SLD-Сплошная
100
AcDbLine
 10
690.738700977
 20
1358.8483768867
 30
0.0
 11
691.6268814698
 21
1359.7365573795
 31
0.0
  0
LINE
  5
3A4
330
1F
100
AcDbEntity
  8
1
  6
SLD-Сплошная
100
AcDbLine
 10
693.8052878198
 20
1359.3433516335
 30
0.0
 11
693.5671281017
 21
1359.3433516335
 31
0.0
  0
LINE
  5
3A5
330
1F
100
AcDbEntity
  8
1
  6
SLD-Сплошная
100
AcDbLine
 10
693.5671281017
 20
1359.3433516335
 30
0.0
 11
692.6789476089
 21
1360.2315321263
 31
0.0
  0
LINE
  5
3A6
330
1F
100
AcDbEntity
  8
1
  6
SLD-Сплошная
100
AcDbLine
 10
693.5671281017
 20
1361.6768040114
 30
0.0
 11
693.0721533549
 21
1362.1717787583
 31
0.0
  0
LINE
  5
3A7
330
1F
100
AcDbEntity
  8
1
  6
SLD-Сплошная
100
AcDbLine
 10
690.2437262302
 20
1359.3433516335
 30
0.0
 11
690.738700977
 21
1358.8483768867
 31
0.0
  0
LINE
  5
3A8
330
1F
100
AcDbEntity
  8
1
  6
SLD-Сплошная
100
AcDbLine
 10
693.0721533549
 20
1358.8483768867
 30
0.0
 11
693.5671281017
 21
1359.3433516335
 31
0.0
  0
LINE
  5
3A9
330
1F
100
AcDbEntity
  8
1
  6
SLD-Сплошная
100
AcDbLine
 10
690.738700977
 20
1362.1717787583
 30
0.0
 11
690.2437262302
 21
1361.6768040114
 31
0.0
  0
CIRCLE
  5
3AA
330
1F
100
AcDbEntity
  8
1
  6
SLD-Сплошная
100
AcDbCircle
 10
691.9054271659
 20
1360.5100778225
 30
0.0
 40
5.000000000000041
  0
ARC
  5
3AB
330
1F
100
AcDbEntity
  8
1
  6
SLD-Сплошная
100
AcDbCircle
 10
974.6601591849
 20
1267.7553458035
 30
0.0
 40
26.56195549576388
100
AcDbArc
 50
313.8816987744
 51
316.1183012256
  0
ARC
  5
3AC
330
1F
100
AcDbEntity
  8
1
  6
SLD-Сплошная
100
AcDbCircle
 10
975.8924041922
 20
1234.2686635864
 30
0.0
 40
23.411911916207
100
AcDbArc
 50
40.0824770913
 51
42.9865596106
  0
SPLINE
  5
3AD
330
1F
100
AcDbEntity
  8
1
  6
SLD-Сплошная
100
AcDbSpline
210
0.0
220
0.0
230
1.0
 70
     8
 71
     3
 72
    12
 73
     8
 74
     0
 42
0.00000001
 43
0.00000001
 40
0.0
 40
0.0
 40
0.0
 40
0.0
 40
0.2187857887071841
 40
0.4375776469534907
 40
0.6562353658863597
 40
0.8748419359491056
 40
1.0
 40
1.0
 40
1.0
 40
1.0
 10
993.0185376597593
 20
1250.788623518592
 30
0.0
 10
992.9915742336872
 20
1250.753298121723
 30
0.0
 10
992.9376466335258
 20
1250.68264634799
 30
0.0
 10
992.9050507445527
 20
1250.548683119349
 30
0.0
 10
992.9143998757947
 20
1250.413140493069
 30
0.0
 10
992.9582786338766
 20
1250.304242688775
 30
0.0
 10
993.0024541921631
 20
1250.250938977969
 30
0.0
 10
993.0185376597593
 20
1250.231532126335
 30
0.0
  0
ARC
  5
3AE
330
1F
100
AcDbEntity
  8
1
  6
SLD-Сплошная
100
AcDbCircle
 10
975.8924041923
 20
1266.7514920584
 30
0.0
 40
23.41191191609117
100
AcDbArc
 50
317.0134403894
 51
319.9175229087
  0
ARC
  5
3AF
330
1F
100
AcDbEntity
  8
1
  6
SLD-Сплошная
100
AcDbCircle
 10
974.6601591852
 20
1233.2648098417
 30
0.0
 40
26.561955495385
100
AcDbArc
 50
43.8816987744
 51
46.1183012256
  0
ARC
  5
3B0
330
1F
100
AcDbEntity
  8
1
  6
SLD-Сплошная
100
AcDbCircle
 10
1008.1468414023
 20
1234.4970548484
 30
0.0
 40
23.41191191666729
100
AcDbArc
 50
130.0824770913
 51
132.9865596105
  0
SPLINE
  5
3B1
330
1F
100
AcDbEntity
  8
1
  6
SLD-Сплошная
100
AcDbSpline
210
0.0
220
0.0
230
1.0
 70
     8
 71
     3
 72
    12
 73
     8
 74
     0
 42
0.00000001
 43
0.00000001
 40
0.0
 40
0.0
 40
0.0
 40
0.0
 40
0.2187857887071623
 40
0.4375776469534822
 40
0.6562353658863613
 40
0.8748419359490999
 40
1.0
 40
1.0
 40
1.0
 40
1.0
 10
991.6268814698191
 20
1251.623188316276
 30
0.0
 10
991.662206866688
 20
1251.596224890204
 30
0.0
 10
991.7328586404204
 20
1251.542297290042
 30
0.0
 10
991.8668218690614
 20
1251.509701401069
 30
0.0
 10
992.0023644953416
 20
1251.519050532311
 30
0.0
 10
992.1112622996353
 20
1251.562929290393
 30
0.0
 10
992.1645660104413
 20
1251.607104848679
 30
0.0
 10
992.183972862075
 20
1251.623188316276
 30
0.0
  0
ARC
  5
3B2
330
1F
100
AcDbEntity
  8
1
  6
SLD-Сплошная
100
AcDbCircle
 10
975.6640129298
 20
1234.4970548486
 30
0.0
 40
23.41191191629088
100
AcDbArc
 50
47.0134403894
 51
49.9175229087
  0
ARC
  5
3B3
330
1F
100
AcDbEntity
  8
1
  6
SLD-Сплошная
100
AcDbCircle
 10
1009.1506951466
 20
1233.2648098418
 30
0.0
 40
26.56195549523768
100
AcDbArc
 50
133.8816987744
 51
136.1183012256
  0
ARC
  5
3B4
330
1F
100
AcDbEntity
  8
1
  6
SLD-Сплошная
100
AcDbCircle
 10
1007.9184501396
 20
1266.7514920584
 30
0.0
 40
23.4119119160735
100
AcDbArc
 50
220.0824770913
 51
222.9865596106
  0
SPLINE
  5
3B5
330
1F
100
AcDbEntity
  8
1
  6
SLD-Сплошная
100
AcDbSpline
210
0.0
220
0.0
230
1.0
 70
     8
 71
     3
 72
    12
 73
     8
 74
     0
 42
0.00000001
 43
0.00000001
 40
0.0
 40
0.0
 40
0.0
 40
0.0
 40
0.2187857887072001
 40
0.4375776469534771
 40
0.6562353658864017
 40
0.8748419359490995
 40
1.0
 40
1.0
 40
1.0
 40
1.0
 10
990.7923166721348
 20
1250.231532126335
 30
0.0
 10
990.8192800982068
 20
1250.266857523204
 30
0.0
 10
990.8732076983684
 20
1250.337509296937
 30
0.0
 10
990.9058035873414
 20
1250.471472525578
 30
0.0
 10
990.8964544560993
 20
1250.607015151858
 30
0.0
 10
990.8525756980175
 20
1250.715912956152
 30
0.0
 10
990.808400139731
 20
1250.769216666958
 30
0.0
 10
990.7923166721348
 20
1250.788623518592
 30
0.0
  0
ARC
  5
3B6
330
1F
100
AcDbEntity
  8
1
  6
SLD-Сплошная
100
AcDbCircle
 10
1007.9184501397
 20
1234.2686635864
 30
0.0
 40
23.41191191624171
100
AcDbArc
 50
137.0134403894
 51
139.9175229087
  0
ARC
  5
3B7
330
1F
100
AcDbEntity
  8
1
  6
SLD-Сплошная
100
AcDbCircle
 10
1009.150695147
 20
1267.7553458036
 30
0.0
 40
26.56195549588054
100
AcDbArc
 50
223.8816987744
 51
226.1183012256
  0
ARC
  5
3B8
330
1F
100
AcDbEntity
  8
1
  6
SLD-Сплошная
100
AcDbCircle
 10
975.6640129297
 20
1266.5231007964
 30
0.0
 40
23.41191191644743
100
AcDbArc
 50
310.0824770913
 51
312.9865596106
  0
SPLINE
  5
3B9
330
1F
100
AcDbEntity
  8
1
  6
SLD-Сплошная
100
AcDbSpline
210
0.0
220
0.0
230
1.0
 70
     8
 71
     3
 72
    12
 73
     8
 74
     0
 42
0.00000001
 43
0.00000001
 40
0.0
 40
0.0
 40
0.0
 40
0.0
 40
0.218785788707222
 40
0.4375776469534855
 40
0.6562353658864003
 40
0.8748419359491052
 40
1.0
 40
1.0
 40
1.0
 40
1.0
 10
992.183972862075
 20
1249.396967328651
 30
0.0
 10
992.1486474652062
 20
1249.423930754723
 30
0.0
 10
992.0779956914738
 20
1249.477858354885
 30
0.0
 10
991.9440324628328
 20
1249.510454243858
 30
0.0
 10
991.8084898365527
 20
1249.501105112616
 30
0.0
 10
991.6995920322588
 20
1249.457226354534
 30
0.0
 10
991.6462883214529
 20
1249.413050796247
 30
0.0
 10
991.6268814698191
 20
1249.396967328651
 30
0.0
  0
ARC
  5
3BA
330
1F
100
AcDbEntity
  8
1
  6
SLD-Сплошная
100
AcDbCircle
 10
1008.1468414022
 20
1266.5231007965
 30
0.0
 40
23.41191191651074
100
AcDbArc
 50
227.0134403894
 51
229.9175229087
  0
CIRCLE
  5
3BB
330
1F
100
AcDbEntity
  8
1
  6
SLD-Сплошная
100
AcDbCircle
 10
991.9054271659
 20
1250.5100778225
 30
0.0
 40
3.50000000000027
  0
ELLIPSE
  5
3BC
330
1F
100
AcDbEntity
  8
1
  6
SLD-Сплошная
100
AcDbEllipse
 10
991.9054271659
 20
1249.4406910412
 30
0.0
 11
0.0
 21
0.4122489361056978
 31
0.0
210
0.0
220
0.0
230
1.0
 40
0.9702875252
 41
5.512866274278947
 42
7.053504340080444
  0
ELLIPSE
  5
3BD
330
1F
100
AcDbEntity
  8
1
  6
SLD-Сплошная
100
AcDbEllipse
 10
990.8360403847
 20
1250.5100778225
 30
0.0
 11
0.4122489361056978
 21
0.0
 31
0.0
210
0.0
220
0.0
230
1.0
 40
0.9702875252
 41
5.512866274278569
 42
7.053504340079802
  0
ELLIPSE
  5
3BE
330
1F
100
AcDbEntity
  8
1
  6
SLD-Сплошная
100
AcDbEllipse
 10
992.9748139472
 20
1250.5100778225
 30
0.0
 11
-0.4122489361055841
 21
0.0
 31
0.0
210
0.0
220
0.0
230
1.0
 40
0.9702875252
 41
5.512866274278762
 42
7.05350434008124
  0
ELLIPSE
  5
3BF
330
1F
100
AcDbEntity
  8
1
  6
SLD-Сплошная
100
AcDbEllipse
 10
991.9054271659
 20
1251.5794646037
 30
0.0
 11
0.0
 21
-0.4122489361054704
 31
0.0
210
0.0
220
0.0
230
1.0
 40
0.9702875252
 41
5.512866274279018
 42
7.053504340079964
  0
LINE
  5
3C0
330
1F
100
AcDbEntity
  8
1
  6
SLD-Сплошная
100
AcDbLine
 10
993.0721533549
 20
1248.6102171687
 30
0.0
 11
993.0721533549
 21
1248.8483768867
 31
0.0
  0
LINE
  5
3C1
330
1F
100
AcDbEntity
  8
1
  6
SLD-Сплошная
100
AcDbLine
 10
992.1839728621
 20
1249.7365573795
 30
0.0
 11
993.0721533549
 21
1248.8483768867
 31
0.0
  0
LINE
  5
3C2
330
1F
100
AcDbEntity
  8
1
  6
SLD-Сплошная
100
AcDbLine
 10
990.738700977
 20
1248.6102171687
 30
0.0
 11
990.738700977
 21
1248.8483768867
 31
0.0
  0
LINE
  5
3C3
330
1F
100
AcDbEntity
  8
1
  6
SLD-Сплошная
100
AcDbLine
 10
990.738700977
 20
1248.8483768867
 30
0.0
 11
991.6268814698
 21
1249.7365573795
 31
0.0
  0
LINE
  5
3C4
330
1F
100
AcDbEntity
  8
1
  6
SLD-Сплошная
100
AcDbLine
 10
993.0721533549
 20
1252.4099384763
 30
0.0
 11
993.0721533549
 21
1252.1717787583
 31
0.0
  0
LINE
  5
3C5
330
1F
100
AcDbEntity
  8
1
  6
SLD-Сплошная
100
AcDbLine
 10
993.0721533549
 20
1252.1717787583
 30
0.0
 11
992.1839728621
 21
1251.2835982654
 31
0.0
  0
LINE
  5
3C6
330
1F
100
AcDbEntity
  8
1
  6
SLD-Сплошная
100
AcDbLine
 10
990.738700977
 20
1252.4099384763
 30
0.0
 11
990.738700977
 21
1252.1717787583
 31
0.0
  0
LINE
  5
3C7
330
1F
100
AcDbEntity
  8
1
  6
SLD-Сплошная
100
AcDbLine
 10
991.6268814698
 20
1251.2835982654
 30
0.0
 11
990.738700977
 21
1252.1717787583
 31
0.0
  0
LINE
  5
3C8
330
1F
100
AcDbEntity
  8
1
  6
SLD-Сплошная
100
AcDbLine
 10
990.0055665121
 20
1249.3433516335
 30
0.0
 11
990.2437262302
 21
1249.3433516335
 31
0.0
  0
LINE
  5
3C9
330
1F
100
AcDbEntity
  8
1
  6
SLD-Сплошная
100
AcDbLine
 10
991.131906723
 20
1250.2315321263
 30
0.0
 11
990.2437262302
 21
1249.3433516335
 31
0.0
  0
LINE
  5
3CA
330
1F
100
AcDbEntity
  8
1
  6
SLD-Сплошная
100
AcDbLine
 10
993.8052878198
 20
1251.6768040114
 30
0.0
 11
993.5671281017
 21
1251.6768040114
 31
0.0
  0
LINE
  5
3CB
330
1F
100
AcDbEntity
  8
1
  6
SLD-Сплошная
100
AcDbLine
 10
992.6789476089
 20
1250.7886235186
 30
0.0
 11
993.5671281017
 21
1251.6768040114
 31
0.0
  0
LINE
  5
3CC
330
1F
100
AcDbEntity
  8
1
  6
SLD-Сплошная
100
AcDbLine
 10
990.0055665121
 20
1251.6768040114
 30
0.0
 11
990.2437262302
 21
1251.6768040114
 31
0.0
  0
LINE
  5
3CD
330
1F
100
AcDbEntity
  8
1
  6
SLD-Сплошная
100
AcDbLine
 10
990.2437262302
 20
1251.6768040114
 30
0.0
 11
991.131906723
 21
1250.7886235186
 31
0.0
  0
LINE
  5
3CE
330
1F
100
AcDbEntity
  8
1
  6
SLD-Сплошная
100
AcDbLine
 10
993.8052878198
 20
1249.3433516335
 30
0.0
 11
993.5671281017
 21
1249.3433516335
 31
0.0
  0
LINE
  5
3CF
330
1F
100
AcDbEntity
  8
1
  6
SLD-Сплошная
100
AcDbLine
 10
993.5671281017
 20
1249.3433516335
 30
0.0
 11
992.6789476089
 21
1250.2315321263
 31
0.0
  0
LINE
  5
3D0
330
1F
100
AcDbEntity
  8
1
  6
SLD-Сплошная
100
AcDbLine
 10
990.2437262302
 20
1249.3433516335
 30
0.0
 11
990.738700977
 21
1248.8483768867
 31
0.0
  0
LINE
  5
3D1
330
1F
100
AcDbEntity
  8
1
  6
SLD-Сплошная
100
AcDbLine
 10
993.5671281017
 20
1251.6768040114
 30
0.0
 11
993.0721533549
 21
1252.1717787583
 31
0.0
  0
LINE
  5
3D2
330
1F
100
AcDbEntity
  8
1
  6
SLD-Сплошная
100
AcDbLine
 10
990.738700977
 20
1252.1717787583
 30
0.0
 11
990.2437262302
 21
1251.6768040114
 31
0.0
  0
LINE
  5
3D3
330
1F
100
AcDbEntity
  8
1
  6
SLD-Сплошная
100
AcDbLine
 10
993.0721533549
 20
1248.8483768867
 30
0.0
 11
993.5671281017
 21
1249.3433516335
 31
0.0
  0
CIRCLE
  5
3D4
330
1F
100
AcDbEntity
  8
1
  6
SLD-Сплошная
100
AcDbCircle
 10
991.9054271659
 20
1250.5100778225
 30
0.0
 40
5.000000000000041
  0
ARC
  5
3D5
330
1F
100
AcDbEntity
  8
1
  6
SLD-Сплошная
100
AcDbCircle
 10
609.1506951475
 20
1377.755345804
 30
0.0
 40
26.5619554964608
100
AcDbArc
 50
223.8816987744
 51
226.1183012256
  0
ARC
  5
3D6
330
1F
100
AcDbEntity
  8
1
  6
SLD-Сплошная
100
AcDbCircle
 10
575.6640129299
 20
1376.5231007962
 30
0.0
 40
23.41191191622722
100
AcDbArc
 50
310.0824770913
 51
312.9865596106
  0
SPLINE
  5
3D7
330
1F
100
AcDbEntity
  8
1
  6
SLD-Сплошная
100
AcDbSpline
210
0.0
220
0.0
230
1.0
 70
     8
 71
     3
 72
    12
 73
     8
 74
     0
 42
0.00000001
 43
0.00000001
 40
0.0
 40
0.0
 40
0.0
 40
0.0
 40
0.2187857887072029
 40
0.4375776469534793
 40
0.6562353658864007
 40
0.8748419359491081
 40
1.0
 40
1.0
 40
1.0
 40
1.0
 10
592.183972862075
 20
1359.396967328651
 30
0.0
 10
592.1486474652061
 20
1359.423930754723
 30
0.0
 10
592.0779956914737
 20
1359.477858354885
 30
0.0
 10
591.9440324628326
 20
1359.510454243858
 30
0.0
 10
591.8084898365527
 20
1359.501105112616
 30
0.0
 10
591.6995920322587
 20
1359.457226354534
 30
0.0
 10
591.6462883214529
 20
1359.413050796248
 30
0.0
 10
591.626881469819
 20
1359.396967328651
 30
0.0
  0
ARC
  5
3D8
330
1F
100
AcDbEntity
  8
1
  6
SLD-Сплошная
100
AcDbCircle
 10
608.1468414021
 20
1376.5231007963
 30
0.0
 40
23.41191191632794
100
AcDbArc
 50
227.0134403894
 51
229.9175229087
  0
ARC
  5
3D9
330
1F
100
AcDbEntity
  8
1
  6
SLD-Сплошная
100
AcDbCircle
 10
574.6601591842
 20
1377.7553458042
 30
0.0
 40
26.56195549679619
100
AcDbArc
 50
313.8816987744
 51
316.1183012256
  0
ARC
  5
3DA
330
1F
100
AcDbEntity
  8
1
  6
SLD-Сплошная
100
AcDbCircle
 10
575.8924041918
 20
1344.2686635861
 30
0.0
 40
23.41191191665732
100
AcDbArc
 50
40.0824770913
 51
42.9865596105
  0
SPLINE
  5
3DB
330
1F
100
AcDbEntity
  8
1
  6
SLD-Сплошная
100
AcDbSpline
210
0.0
220
0.0
230
1.0
 70
     8
 71
     3
 72
    12
 73
     8
 74
     0
 42
0.00000001
 43
0.00000001
 40
0.0
 40
0.0
 40
0.0
 40
0.0
 40
0.2187857887072079
 40
0.4375776469534822
 40
0.6562353658863856
 40
0.8748419359491009
 40
1.0
 40
1.0
 40
1.0
 40
1.0
 10
593.0185376597593
 20
1360.788623518592
 30
0.0
 10
592.9915742336872
 20
1360.753298121723
 30
0.0
 10
592.9376466335257
 20
1360.68264634799
 30
0.0
 10
592.9050507445526
 20
1360.548683119349
 30
0.0
 10
592.9143998757947
 20
1360.413140493069
 30
0.0
 10
592.9582786338765
 20
1360.304242688775
 30
0.0
 10
593.002454192163
 20
1360.250938977969
 30
0.0
 10
593.0185376597593
 20
1360.231532126336
 30
0.0
  0
ARC
  5
3DC
330
1F
100
AcDbEntity
  8
1
  6
SLD-Сплошная
100
AcDbCircle
 10
575.8924041918
 20
1376.7514920589
 30
0.0
 40
23.4119119167491
100
AcDbArc
 50
317.0134403895
 51
319.9175229086
  0
ARC
  5
3DD
330
1F
100
AcDbEntity
  8
1
  6
SLD-Сплошная
100
AcDbCircle
 10
574.6601591849
 20
1343.2648098415
 30
0.0
 40
26.56195549575166
100
AcDbArc
 50
43.8816987744
 51
46.1183012256
  0
ARC
  5
3DE
330
1F
100
AcDbEntity
  8
1
  6
SLD-Сплошная
100
AcDbCircle
 10
608.1468414018
 20
1344.497054849
 30
0.0
 40
23.41191191583521
100
AcDbArc
 50
130.0824770913
 51
132.9865596106
  0
SPLINE
  5
3DF
330
1F
100
AcDbEntity
  8
1
  6
SLD-Сплошная
100
AcDbSpline
210
0.0
220
0.0
230
1.0
 70
     8
 71
     3
 72
    12
 73
     8
 74
     0
 42
0.00000001
 43
0.00000001
 40
0.0
 40
0.0
 40
0.0
 40
0.0
 40
0.2187857887071742
 40
0.4375776469534876
 40
0.6562353658863623
 40
0.8748419359491093
 40
1.0
 40
1.0
 40
1.0
 40
1.0
 10
591.626881469819
 20
1361.623188316276
 30
0.0
 10
591.6622068666879
 20
1361.596224890204
 30
0.0
 10
591.7328586404203
 20
1361.542297290042
 30
0.0
 10
591.8668218690614
 20
1361.509701401069
 30
0.0
 10
592.0023644953413
 20
1361.519050532311
 30
0.0
 10
592.1112622996352
 20
1361.562929290393
 30
0.0
 10
592.1645660104413
 20
1361.607104848679
 30
0.0
 10
592.183972862075
 20
1361.623188316276
 30
0.0
  0
ARC
  5
3E0
330
1F
100
AcDbEntity
  8
1
  6
SLD-Сплошная
100
AcDbCircle
 10
575.6640129302
 20
1344.4970548491
 30
0.0
 40
23.41191191573499
100
AcDbArc
 50
47.0134403894
 51
49.9175229087
  0
ARC
  5
3E1
330
1F
100
AcDbEntity
  8
1
  6
SLD-Сплошная
100
AcDbCircle
 10
609.1506951468
 20
1343.2648098416
 30
0.0
 40
26.561955495557
100
AcDbArc
 50
133.8816987744
 51
136.1183012256
  0
ARC
  5
3E2
330
1F
100
AcDbEntity
  8
1
  6
SLD-Сплошная
100
AcDbCircle
 10
607.9184501398
 20
1376.7514920586
 30
0.0
 40
23.4119119163205
100
AcDbArc
 50
220.0824770913
 51
222.9865596106
  0
SPLINE
  5
3E3
330
1F
100
AcDbEntity
  8
1
  6
SLD-Сплошная
100
AcDbSpline
210
0.0
220
0.0
230
1.0
 70
     8
 71
     3
 72
    12
 73
     8
 74
     0
 42
0.00000001
 43
0.00000001
 40
0.0
 40
0.0
 40
0.0
 40
0.0
 40
0.2187857887071884
 40
0.4375776469534731
 40
0.6562353658863888
 40
0.8748419359491165
 40
1.0
 40
1.0
 40
1.0
 40
1.0
 10
590.7923166721347
 20
1360.231532126336
 30
0.0
 10
590.8192800982068
 20
1360.266857523205
 30
0.0
 10
590.8732076983683
 20
1360.337509296937
 30
0.0
 10
590.9058035873414
 20
1360.471472525578
 30
0.0
 10
590.8964544560993
 20
1360.607015151858
 30
0.0
 10
590.8525756980175
 20
1360.715912956152
 30
0.0
 10
590.808400139731
 20
1360.769216666958
 30
0.0
 10
590.7923166721347
 20
1360.788623518592
 30
0.0
  0
ARC
  5
3E4
330
1F
100
AcDbEntity
  8
1
  6
SLD-Сплошная
100
AcDbCircle
 10
607.9184501398
 20
1344.2686635863
 30
0.0
 40
23.41191191632244
100
AcDbArc
 50
137.0134403894
 51
139.9175229087
  0
CIRCLE
  5
3E5
330
1F
100
AcDbEntity
  8
1
  6
SLD-Сплошная
100
AcDbCircle
 10
591.9054271659
 20
1360.5100778225
 30
0.0
 40
3.500000000000028
  0
ELLIPSE
  5
3E6
330
1F
100
AcDbEntity
  8
1
  6
SLD-Сплошная
100
AcDbEllipse
 10
590.8360403847
 20
1360.5100778225
 30
0.0
 11
0.4122489361056978
 21
0.0
 31
0.0
210
0.0
220
0.0
230
1.0
 40
0.9702875252
 41
5.512866274278693
 42
7.053504340080086
  0
ELLIPSE
  5
3E7
330
1F
100
AcDbEntity
  8
1
  6
SLD-Сплошная
100
AcDbEllipse
 10
591.9054271659
 20
1359.4406910412
 30
0.0
 11
0.0
 21
0.4122489361059252
 31
0.0
210
0.0
220
0.0
230
1.0
 40
0.9702875252
 41
5.512866274278529
 42
7.053504340081066
  0
ELLIPSE
  5
3E8
330
1F
100
AcDbEntity
  8
1
  6
SLD-Сплошная
100
AcDbEllipse
 10
592.9748139472
 20
1360.5100778225
 30
0.0
 11
-0.4122489361055841
 21
0.0
 31
0.0
210
0.0
220
0.0
230
1.0
 40
0.9702875252
 41
5.512866274278954
 42
7.053504340080639
  0
ELLIPSE
  5
3E9
330
1F
100
AcDbEntity
  8
1
  6
SLD-Сплошная
100
AcDbEllipse
 10
591.9054271659
 20
1361.5794646037
 30
0.0
 11
0.0
 21
-0.4122489361056978
 31
0.0
210
0.0
220
0.0
230
1.0
 40
0.9702875252
 41
5.51286627427868
 42
7.053504340080098
  0
LINE
  5
3EA
330
1F
100
AcDbEntity
  8
1
  6
SLD-Сплошная
100
AcDbLine
 10
590.738700977
 20
1358.6102171687
 30
0.0
 11
590.738700977
 21
1358.8483768867
 31
0.0
  0
LINE
  5
3EB
330
1F
100
AcDbEntity
  8
1
  6
SLD-Сплошная
100
AcDbLine
 10
590.738700977
 20
1358.8483768867
 30
0.0
 11
591.6268814698
 21
1359.7365573795
 31
0.0
  0
LINE
  5
3EC
330
1F
100
AcDbEntity
  8
1
  6
SLD-Сплошная
100
AcDbLine
 10
590.738700977
 20
1362.4099384763
 30
0.0
 11
590.738700977
 21
1362.1717787583
 31
0.0
  0
LINE
  5
3ED
330
1F
100
AcDbEntity
  8
1
  6
SLD-Сплошная
100
AcDbLine
 10
591.6268814698
 20
1361.2835982654
 30
0.0
 11
590.738700977
 21
1362.1717787583
 31
0.0
  0
LINE
  5
3EE
330
1F
100
AcDbEntity
  8
1
  6
SLD-Сплошная
100
AcDbLine
 10
593.0721533549
 20
1358.6102171687
 30
0.0
 11
593.0721533549
 21
1358.8483768867
 31
0.0
  0
LINE
  5
3EF
330
1F
100
AcDbEntity
  8
1
  6
SLD-Сплошная
100
AcDbLine
 10
592.1839728621
 20
1359.7365573795
 30
0.0
 11
593.0721533549
 21
1358.8483768867
 31
0.0
  0
LINE
  5
3F0
330
1F
100
AcDbEntity
  8
1
  6
SLD-Сплошная
100
AcDbLine
 10
590.0055665121
 20
1359.3433516335
 30
0.0
 11
590.2437262302
 21
1359.3433516335
 31
0.0
  0
LINE
  5
3F1
330
1F
100
AcDbEntity
  8
1
  6
SLD-Сплошная
100
AcDbLine
 10
591.131906723
 20
1360.2315321263
 30
0.0
 11
590.2437262302
 21
1359.3433516335
 31
0.0
  0
LINE
  5
3F2
330
1F
100
AcDbEntity
  8
1
  6
SLD-Сплошная
100
AcDbLine
 10
590.0055665121
 20
1361.6768040114
 30
0.0
 11
590.2437262302
 21
1361.6768040114
 31
0.0
  0
LINE
  5
3F3
330
1F
100
AcDbEntity
  8
1
  6
SLD-Сплошная
100
AcDbLine
 10
590.2437262302
 20
1361.6768040114
 30
0.0
 11
591.131906723
 21
1360.7886235186
 31
0.0
  0
LINE
  5
3F4
330
1F
100
AcDbEntity
  8
1
  6
SLD-Сплошная
100
AcDbLine
 10
593.0721533549
 20
1362.4099384763
 30
0.0
 11
593.0721533549
 21
1362.1717787583
 31
0.0
  0
LINE
  5
3F5
330
1F
100
AcDbEntity
  8
1
  6
SLD-Сплошная
100
AcDbLine
 10
593.0721533549
 20
1362.1717787583
 30
0.0
 11
592.1839728621
 21
1361.2835982654
 31
0.0
  0
LINE
  5
3F6
330
1F
100
AcDbEntity
  8
1
  6
SLD-Сплошная
100
AcDbLine
 10
593.8052878198
 20
1361.6768040114
 30
0.0
 11
593.5671281017
 21
1361.6768040114
 31
0.0
  0
LINE
  5
3F7
330
1F
100
AcDbEntity
  8
1
  6
SLD-Сплошная
100
AcDbLine
 10
592.6789476089
 20
1360.7886235186
 30
0.0
 11
593.5671281017
 21
1361.6768040114
 31
0.0
  0
LINE
  5
3F8
330
1F
100
AcDbEntity
  8
1
  6
SLD-Сплошная
100
AcDbLine
 10
593.8052878198
 20
1359.3433516335
 30
0.0
 11
593.5671281017
 21
1359.3433516335
 31
0.0
  0
LINE
  5
3F9
330
1F
100
AcDbEntity
  8
1
  6
SLD-Сплошная
100
AcDbLine
 10
593.5671281017
 20
1359.3433516335
 30
0.0
 11
592.6789476089
 21
1360.2315321263
 31
0.0
  0
LINE
  5
3FA
330
1F
100
AcDbEntity
  8
1
  6
SLD-Сплошная
100
AcDbLine
 10
593.0721533549
 20
1358.8483768867
 30
0.0
 11
593.5671281017
 21
1359.3433516335
 31
0.0
  0
LINE
  5
3FB
330
1F
100
AcDbEntity
  8
1
  6
SLD-Сплошная
100
AcDbLine
 10
590.738700977
 20
1362.1717787583
 30
0.0
 11
590.2437262302
 21
1361.6768040114
 31
0.0
  0
LINE
  5
3FC
330
1F
100
AcDbEntity
  8
1
  6
SLD-Сплошная
100
AcDbLine
 10
590.2437262302
 20
1359.3433516335
 30
0.0
 11
590.738700977
 21
1358.8483768867
 31
0.0
  0
LINE
  5
3FD
330
1F
100
AcDbEntity
  8
1
  6
SLD-Сплошная
100
AcDbLine
 10
593.5671281017
 20
1361.6768040114
 30
0.0
 11
593.0721533549
 21
1362.1717787583
 31
0.0
  0
CIRCLE
  5
3FE
330
1F
100
AcDbEntity
  8
1
  6
SLD-Сплошная
100
AcDbCircle
 10
591.9054271659
 20
1360.5100778225
 30
0.0
 40
5.000000000000121
  0
ARC
  5
3FF
330
1F
100
AcDbEntity
  8
1
  6
SLD-Сплошная
100
AcDbCircle
 10
1009.1506951476
 20
1377.7553458041
 30
0.0
 40
26.56195549664879
100
AcDbArc
 50
223.8816987744
 51
226.1183012256
  0
ARC
  5
400
330
1F
100
AcDbEntity
  8
1
  6
SLD-Сплошная
100
AcDbCircle
 10
975.6640129297
 20
1376.5231007965
 30
0.0
 40
23.4119119165502
100
AcDbArc
 50
310.0824770914
 51
312.9865596106
  0
SPLINE
  5
401
330
1F
100
AcDbEntity
  8
1
  6
SLD-Сплошная
100
AcDbSpline
210
0.0
220
0.0
230
1.0
 70
     8
 71
     3
 72
    12
 73
     8
 74
     0
 42
0.00000001
 43
0.00000001
 40
0.0
 40
0.0
 40
0.0
 40
0.0
 40
0.2187857887072029
 40
0.4375776469534793
 40
0.6562353658864007
 40
0.8748419359491081
 40
1.0
 40
1.0
 40
1.0
 40
1.0
 10
992.1839728620752
 20
1359.396967328651
 30
0.0
 10
992.1486474652062
 20
1359.423930754723
 30
0.0
 10
992.0779956914738
 20
1359.477858354885
 30
0.0
 10
991.9440324628326
 20
1359.510454243858
 30
0.0
 10
991.8084898365528
 20
1359.501105112616
 30
0.0
 10
991.6995920322587
 20
1359.457226354534
 30
0.0
 10
991.6462883214529
 20
1359.413050796248
 30
0.0
 10
991.6268814698191
 20
1359.396967328651
 30
0.0
  0
ARC
  5
402
330
1F
100
AcDbEntity
  8
1
  6
SLD-Сплошная
100
AcDbCircle
 10
1008.1468414023
 20
1376.5231007965
 30
0.0
 40
23.41191191661311
100
AcDbArc
 50
227.0134403894
 51
229.9175229086
  0
ARC
  5
403
330
1F
100
AcDbEntity
  8
1
  6
SLD-Сплошная
100
AcDbCircle
 10
974.660159184
 20
1377.7553458044
 30
0.0
 40
26.5619554970775
100
AcDbArc
 50
313.8816987745
 51
316.1183012255
  0
ARC
  5
404
330
1F
100
AcDbEntity
  8
1
  6
SLD-Сплошная
100
AcDbCircle
 10
975.8924041923
 20
1344.2686635865
 30
0.0
 40
23.41191191609608
100
AcDbArc
 50
40.0824770913
 51
42.9865596106
  0
SPLINE
  5
405
330
1F
100
AcDbEntity
  8
1
  6
SLD-Сплошная
100
AcDbSpline
210
0.0
220
0.0
230
1.0
 70
     8
 71
     3
 72
    12
 73
     8
 74
     0
 42
0.00000001
 43
0.00000001
 40
0.0
 40
0.0
 40
0.0
 40
0.0
 40
0.2187857887072079
 40
0.4375776469534822
 40
0.6562353658863856
 40
0.8748419359491009
 40
1.0
 40
1.0
 40
1.0
 40
1.0
 10
993.0185376597593
 20
1360.788623518592
 30
0.0
 10
992.9915742336872
 20
1360.753298121723
 30
0.0
 10
992.9376466335258
 20
1360.68264634799
 30
0.0
 10
992.9050507445527
 20
1360.548683119349
 30
0.0
 10
992.9143998757947
 20
1360.413140493069
 30
0.0
 10
992.9582786338766
 20
1360.304242688776
 30
0.0
 10
993.002454192163
 20
1360.25093897797
 30
0.0
 10
993.0185376597593
 20
1360.231532126336
 30
0.0
  0
ARC
  5
406
330
1F
100
AcDbEntity
  8
1
  6
SLD-Сплошная
100
AcDbCircle
 10
975.8924041924
 20
1376.7514920584
 30
0.0
 40
23.41191191598047
100
AcDbArc
 50
317.0134403894
 51
319.9175229087
  0
ARC
  5
407
330
1F
100
AcDbEntity
  8
1
  6
SLD-Сплошная
100
AcDbCircle
 10
974.6601591845
 20
1343.264809841
 30
0.0
 40
26.56195549640237
100
AcDbArc
 50
43.8816987744
 51
46.1183012256
  0
ARC
  5
408
330
1F
100
AcDbEntity
  8
1
  6
SLD-Сплошная
100
AcDbCircle
 10
1008.1468414019
 20
1344.4970548488
 30
0.0
 40
23.41191191602176
100
AcDbArc
 50
130.0824770913
 51
132.9865596106
  0
SPLINE
  5
409
330
1F
100
AcDbEntity
  8
1
  6
SLD-Сплошная
100
AcDbSpline
210
0.0
220
0.0
230
1.0
 70
     8
 71
     3
 72
    12
 73
     8
 74
     0
 42
0.00000001
 43
0.00000001
 40
0.0
 40
0.0
 40
0.0
 40
0.0
 40
0.2187857887071742
 40
0.4375776469534876
 40
0.6562353658863623
 40
0.8748419359491093
 40
1.0
 40
1.0
 40
1.0
 40
1.0
 10
991.6268814698191
 20
1361.623188316276
 30
0.0
 10
991.662206866688
 20
1361.596224890204
 30
0.0
 10
991.7328586404204
 20
1361.542297290042
 30
0.0
 10
991.8668218690614
 20
1361.509701401069
 30
0.0
 10
992.0023644953415
 20
1361.519050532311
 30
0.0
 10
992.1112622996354
 20
1361.562929290393
 30
0.0
 10
992.1645660104413
 20
1361.60710484868
 30
0.0
 10
992.183972862075
 20
1361.623188316276
 30
0.0
  0
ARC
  5
40A
330
1F
100
AcDbEntity
  8
1
  6
SLD-Сплошная
100
AcDbCircle
 10
975.6640129301
 20
1344.4970548489
 30
0.0
 40
23.41191191588051
100
AcDbArc
 50
47.0134403894
 51
49.9175229087
  0
ARC
  5
40B
330
1F
100
AcDbEntity
  8
1
  6
SLD-Сплошная
100
AcDbCircle
 10
1009.1506951475
 20
1343.2648098409
 30
0.0
 40
26.56195549651919
100
AcDbArc
 50
133.8816987744
 51
136.1183012256
  0
ARC
  5
40C
330
1F
100
AcDbEntity
  8
1
  6
SLD-Сплошная
100
AcDbCircle
 10
1007.9184501397
 20
1376.7514920585
 30
0.0
 40
23.41191191613079
100
AcDbArc
 50
220.0824770913
 51
222.9865596106
  0
SPLINE
  5
40D
330
1F
100
AcDbEntity
  8
1
  6
SLD-Сплошная
100
AcDbSpline
210
0.0
220
0.0
230
1.0
 70
     8
 71
     3
 72
    12
 73
     8
 74
     0
 42
0.00000001
 43
0.00000001
 40
0.0
 40
0.0
 40
0.0
 40
0.0
 40
0.2187857887071884
 40
0.4375776469534731
 40
0.6562353658863888
 40
0.8748419359491165
 40
1.0
 40
1.0
 40
1.0
 40
1.0
 10
990.7923166721348
 20
1360.231532126336
 30
0.0
 10
990.8192800982068
 20
1360.266857523205
 30
0.0
 10
990.8732076983684
 20
1360.337509296937
 30
0.0
 10
990.9058035873413
 20
1360.471472525578
 30
0.0
 10
990.8964544560993
 20
1360.607015151858
 30
0.0
 10
990.8525756980175
 20
1360.715912956152
 30
0.0
 10
990.808400139731
 20
1360.769216666958
 30
0.0
 10
990.7923166721348
 20
1360.788623518592
 30
0.0
  0
ARC
  5
40E
330
1F
100
AcDbEntity
  8
1
  6
SLD-Сплошная
100
AcDbCircle
 10
1007.9184501395
 20
1344.2686635866
 30
0.0
 40
23.41191191596258
100
AcDbArc
 50
137.0134403894
 51
139.9175229087
  0
CIRCLE
  5
40F
330
1F
100
AcDbEntity
  8
1
  6
SLD-Сплошная
100
AcDbCircle
 10
991.9054271659
 20
1360.5100778225
 30
0.0
 40
3.499999999999948
  0
ELLIPSE
  5
410
330
1F
100
AcDbEntity
  8
1
  6
SLD-Сплошная
100
AcDbEllipse
 10
990.8360403847
 20
1360.5100778225
 30
0.0
 11
0.4122489361056978
 21
0.0
 31
0.0
210
0.0
220
0.0
230
1.0
 40
0.9702875252
 41
5.512866274278409
 42
7.053504340080777
  0
ELLIPSE
  5
411
330
1F
100
AcDbEntity
  8
1
  6
SLD-Сплошная
100
AcDbEllipse
 10
991.9054271659
 20
1359.4406910412
 30
0.0
 11
0.0
 21
0.4122489361056978
 31
0.0
210
0.0
220
0.0
230
1.0
 40
0.9702875252
 41
5.512866274278562
 42
7.053504340080828
  0
ELLIPSE
  5
412
330
1F
100
AcDbEntity
  8
1
  6
SLD-Сплошная
100
AcDbEllipse
 10
992.9748139472
 20
1360.5100778225
 30
0.0
 11
-0.4122489361055841
 21
0.0
 31
0.0
210
0.0
220
0.0
230
1.0
 40
0.9702875252
 41
5.512866274278355
 42
7.053504340080831
  0
ELLIPSE
  5
413
330
1F
100
AcDbEntity
  8
1
  6
SLD-Сплошная
100
AcDbEllipse
 10
991.9054271659
 20
1361.5794646037
 30
0.0
 11
0.0
 21
-0.4122489361056978
 31
0.0
210
0.0
220
0.0
230
1.0
 40
0.9702875252
 41
5.512866274278359
 42
7.053504340080623
  0
LINE
  5
414
330
1F
100
AcDbEntity
  8
1
  6
SLD-Сплошная
100
AcDbLine
 10
993.0721533549
 20
1358.6102171687
 30
0.0
 11
993.0721533549
 21
1358.8483768867
 31
0.0
  0
LINE
  5
415
330
1F
100
AcDbEntity
  8
1
  6
SLD-Сплошная
100
AcDbLine
 10
992.1839728621
 20
1359.7365573795
 30
0.0
 11
993.0721533549
 21
1358.8483768867
 31
0.0
  0
LINE
  5
416
330
1F
100
AcDbEntity
  8
1
  6
SLD-Сплошная
100
AcDbLine
 10
990.0055665121
 20
1359.3433516335
 30
0.0
 11
990.2437262302
 21
1359.3433516335
 31
0.0
  0
LINE
  5
417
330
1F
100
AcDbEntity
  8
1
  6
SLD-Сплошная
100
AcDbLine
 10
991.131906723
 20
1360.2315321263
 30
0.0
 11
990.2437262302
 21
1359.3433516335
 31
0.0
  0
LINE
  5
418
330
1F
100
AcDbEntity
  8
1
  6
SLD-Сплошная
100
AcDbLine
 10
993.8052878198
 20
1359.3433516335
 30
0.0
 11
993.5671281017
 21
1359.3433516335
 31
0.0
  0
LINE
  5
419
330
1F
100
AcDbEntity
  8
1
  6
SLD-Сплошная
100
AcDbLine
 10
993.5671281017
 20
1359.3433516335
 30
0.0
 11
992.6789476089
 21
1360.2315321263
 31
0.0
  0
LINE
  5
41A
330
1F
100
AcDbEntity
  8
1
  6
SLD-Сплошная
100
AcDbLine
 10
990.738700977
 20
1362.4099384763
 30
0.0
 11
990.738700977
 21
1362.1717787583
 31
0.0
  0
LINE
  5
41B
330
1F
100
AcDbEntity
  8
1
  6
SLD-Сплошная
100
AcDbLine
 10
991.6268814698
 20
1361.2835982654
 30
0.0
 11
990.738700977
 21
1362.1717787583
 31
0.0
  0
LINE
  5
41C
330
1F
100
AcDbEntity
  8
1
  6
SLD-Сплошная
100
AcDbLine
 10
993.0721533549
 20
1362.4099384763
 30
0.0
 11
993.0721533549
 21
1362.1717787583
 31
0.0
  0
LINE
  5
41D
330
1F
100
AcDbEntity
  8
1
  6
SLD-Сплошная
100
AcDbLine
 10
993.0721533549
 20
1362.1717787583
 30
0.0
 11
992.1839728621
 21
1361.2835982654
 31
0.0
  0
LINE
  5
41E
330
1F
100
AcDbEntity
  8
1
  6
SLD-Сплошная
100
AcDbLine
 10
990.738700977
 20
1358.6102171687
 30
0.0
 11
990.738700977
 21
1358.8483768867
 31
0.0
  0
LINE
  5
41F
330
1F
100
AcDbEntity
  8
1
  6
SLD-Сплошная
100
AcDbLine
 10
990.738700977
 20
1358.8483768867
 30
0.0
 11
991.6268814698
 21
1359.7365573795
 31
0.0
  0
LINE
  5
420
330
1F
100
AcDbEntity
  8
1
  6
SLD-Сплошная
100
AcDbLine
 10
990.0055665121
 20
1361.6768040114
 30
0.0
 11
990.2437262302
 21
1361.6768040114
 31
0.0
  0
LINE
  5
421
330
1F
100
AcDbEntity
  8
1
  6
SLD-Сплошная
100
AcDbLine
 10
990.2437262302
 20
1361.6768040114
 30
0.0
 11
991.131906723
 21
1360.7886235186
 31
0.0
  0
LINE
  5
422
330
1F
100
AcDbEntity
  8
1
  6
SLD-Сплошная
100
AcDbLine
 10
993.8052878198
 20
1361.6768040114
 30
0.0
 11
993.5671281017
 21
1361.6768040114
 31
0.0
  0
LINE
  5
423
330
1F
100
AcDbEntity
  8
1
  6
SLD-Сплошная
100
AcDbLine
 10
992.6789476089
 20
1360.7886235186
 30
0.0
 11
993.5671281017
 21
1361.6768040114
 31
0.0
  0
LINE
  5
424
330
1F
100
AcDbEntity
  8
1
  6
SLD-Сплошная
100
AcDbLine
 10
990.2437262302
 20
1359.3433516335
 30
0.0
 11
990.738700977
 21
1358.8483768867
 31
0.0
  0
LINE
  5
425
330
1F
100
AcDbEntity
  8
1
  6
SLD-Сплошная
100
AcDbLine
 10
993.0721533549
 20
1358.8483768867
 30
0.0
 11
993.5671281017
 21
1359.3433516335
 31
0.0
  0
LINE
  5
426
330
1F
100
AcDbEntity
  8
1
  6
SLD-Сплошная
100
AcDbLine
 10
993.5671281017
 20
1361.6768040114
 30
0.0
 11
993.0721533549
 21
1362.1717787583
 31
0.0
  0
LINE
  5
427
330
1F
100
AcDbEntity
  8
1
  6
SLD-Сплошная
100
AcDbLine
 10
990.738700977
 20
1362.1717787583
 30
0.0
 11
990.2437262302
 21
1361.6768040114
 31
0.0
  0
CIRCLE
  5
428
330
1F
100
AcDbEntity
  8
1
  6
SLD-Сплошная
100
AcDbCircle
 10
991.9054271659
 20
1360.5100778225
 30
0.0
 40
5.000000000000121
  0
ARC
  5
429
330
1F
100
AcDbEntity
  8
1
  6
SLD-Сплошная
100
AcDbCircle
 10
574.6601591849
 20
1267.7553458035
 30
0.0
 40
26.56195549576396
100
AcDbArc
 50
313.8816987744
 51
316.1183012256
  0
ARC
  5
42A
330
1F
100
AcDbEntity
  8
1
  6
SLD-Сплошная
100
AcDbCircle
 10
575.892404192
 20
1234.2686635862
 30
0.0
 40
23.41191191644476
100
AcDbArc
 50
40.0824770913
 51
42.9865596106
  0
SPLINE
  5
42B
330
1F
100
AcDbEntity
  8
1
  6
SLD-Сплошная
100
AcDbSpline
210
0.0
220
0.0
230
1.0
 70
     8
 71
     3
 72
    12
 73
     8
 74
     0
 42
0.00000001
 43
0.00000001
 40
0.0
 40
0.0
 40
0.0
 40
0.0
 40
0.2187857887072228
 40
0.4375776469534871
 40
0.6562353658863576
 40
0.8748419359491049
 40
1.0
 40
1.0
 40
1.0
 40
1.0
 10
593.0185376597593
 20
1250.788623518592
 30
0.0
 10
592.9915742336872
 20
1250.753298121722
 30
0.0
 10
592.9376466335257
 20
1250.68264634799
 30
0.0
 10
592.9050507445528
 20
1250.548683119349
 30
0.0
 10
592.9143998757949
 20
1250.413140493069
 30
0.0
 10
592.9582786338765
 20
1250.304242688775
 30
0.0
 10
593.002454192163
 20
1250.250938977969
 30
0.0
 10
593.0185376597593
 20
1250.231532126335
 30
0.0
  0
ARC
  5
42C
330
1F
100
AcDbEntity
  8
1
  6
SLD-Сплошная
100
AcDbCircle
 10
575.892404192
 20
1266.7514920587
 30
0.0
 40
23.41191191644476
100
AcDbArc
 50
317.0134403894
 51
319.9175229087
  0
ARC
  5
42D
330
1F
100
AcDbEntity
  8
1
  6
SLD-Сплошная
100
AcDbCircle
 10
574.6601591853
 20
1233.2648098418
 30
0.0
 40
26.56195549524443
100
AcDbArc
 50
43.8816987744
 51
46.1183012256
  0
ARC
  5
42E
330
1F
100
AcDbEntity
  8
1
  6
SLD-Сплошная
100
AcDbCircle
 10
608.1468414022
 20
1234.4970548485
 30
0.0
 40
23.41191191648083
100
AcDbArc
 50
130.0824770913
 51
132.9865596106
  0
SPLINE
  5
42F
330
1F
100
AcDbEntity
  8
1
  6
SLD-Сплошная
100
AcDbSpline
210
0.0
220
0.0
230
1.0
 70
     8
 71
     3
 72
    12
 73
     8
 74
     0
 42
0.00000001
 43
0.00000001
 40
0.0
 40
0.0
 40
0.0
 40
0.0
 40
0.2187857887071623
 40
0.4375776469534822
 40
0.6562353658863613
 40
0.8748419359490999
 40
1.0
 40
1.0
 40
1.0
 40
1.0
 10
591.626881469819
 20
1251.623188316276
 30
0.0
 10
591.6622068666879
 20
1251.596224890204
 30
0.0
 10
591.7328586404203
 20
1251.542297290042
 30
0.0
 10
591.8668218690615
 20
1251.509701401069
 30
0.0
 10
592.0023644953413
 20
1251.519050532311
 30
0.0
 10
592.1112622996354
 20
1251.562929290393
 30
0.0
 10
592.1645660104413
 20
1251.607104848679
 30
0.0
 10
592.183972862075
 20
1251.623188316276
 30
0.0
  0
ARC
  5
430
330
1F
100
AcDbEntity
  8
1
  6
SLD-Сплошная
100
AcDbCircle
 10
575.6640129298
 20
1234.4970548486
 30
0.0
 40
23.41191191638011
100
AcDbArc
 50
47.0134403894
 51
49.9175229087
  0
ARC
  5
431
330
1F
100
AcDbEntity
  8
1
  6
SLD-Сплошная
100
AcDbCircle
 10
609.1506951465
 20
1233.264809842
 30
0.0
 40
26.5619554950496
100
AcDbArc
 50
133.8816987744
 51
136.1183012256
  0
ARC
  5
432
330
1F
100
AcDbEntity
  8
1
  6
SLD-Сплошная
100
AcDbCircle
 10
607.9184501397
 20
1266.7514920585
 30
0.0
 40
23.41191191623007
100
AcDbArc
 50
220.0824770913
 51
222.9865596106
  0
SPLINE
  5
433
330
1F
100
AcDbEntity
  8
1
  6
SLD-Сплошная
100
AcDbSpline
210
0.0
220
0.0
230
1.0
 70
     8
 71
     3
 72
    12
 73
     8
 74
     0
 42
0.00000001
 43
0.00000001
 40
0.0
 40
0.0
 40
0.0
 40
0.0
 40
0.2187857887072001
 40
0.4375776469534771
 40
0.6562353658864017
 40
0.8748419359490995
 40
1.0
 40
1.0
 40
1.0
 40
1.0
 10
590.7923166721347
 20
1250.231532126335
 30
0.0
 10
590.8192800982068
 20
1250.266857523204
 30
0.0
 10
590.8732076983682
 20
1250.337509296937
 30
0.0
 10
590.9058035873414
 20
1250.471472525578
 30
0.0
 10
590.8964544560993
 20
1250.607015151858
 30
0.0
 10
590.8525756980175
 20
1250.715912956152
 30
0.0
 10
590.8084001397311
 20
1250.769216666958
 30
0.0
 10
590.7923166721347
 20
1250.788623518592
 30
0.0
  0
ARC
  5
434
330
1F
100
AcDbEntity
  8
1
  6
SLD-Сплошная
100
AcDbCircle
 10
607.9184501397
 20
1234.2686635864
 30
0.0
 40
23.41191191623023
100
AcDbArc
 50
137.0134403894
 51
139.9175229087
  0
ARC
  5
435
330
1F
100
AcDbEntity
  8
1
  6
SLD-Сплошная
100
AcDbCircle
 10
609.1506951466
 20
1267.7553458031
 30
0.0
 40
26.56195549523768
100
AcDbArc
 50
223.8816987744
 51
226.1183012256
  0
ARC
  5
436
330
1F
100
AcDbEntity
  8
1
  6
SLD-Сплошная
100
AcDbCircle
 10
575.6640129296
 20
1266.5231007965
 30
0.0
 40
23.41191191661657
100
AcDbArc
 50
310.0824770913
 51
312.9865596105
  0
SPLINE
  5
437
330
1F
100
AcDbEntity
  8
1
  6
SLD-Сплошная
100
AcDbSpline
210
0.0
220
0.0
230
1.0
 70
     8
 71
     3
 72
    12
 73
     8
 74
     0
 42
0.00000001
 43
0.00000001
 40
0.0
 40
0.0
 40
0.0
 40
0.0
 40
0.218785788707222
 40
0.4375776469534855
 40
0.6562353658864003
 40
0.8748419359491052
 40
1.0
 40
1.0
 40
1.0
 40
1.0
 10
592.183972862075
 20
1249.396967328651
 30
0.0
 10
592.1486474652061
 20
1249.423930754723
 30
0.0
 10
592.0779956914737
 20
1249.477858354885
 30
0.0
 10
591.9440324628326
 20
1249.510454243858
 30
0.0
 10
591.8084898365527
 20
1249.501105112616
 30
0.0
 10
591.6995920322587
 20
1249.457226354534
 30
0.0
 10
591.6462883214529
 20
1249.413050796247
 30
0.0
 10
591.626881469819
 20
1249.396967328651
 30
0.0
  0
ARC
  5
438
330
1F
100
AcDbEntity
  8
1
  6
SLD-Сплошная
100
AcDbCircle
 10
608.1468414023
 20
1266.5231007966
 30
0.0
 40
23.41191191671713
100
AcDbArc
 50
227.0134403895
 51
229.9175229087
  0
CIRCLE
  5
439
330
1F
100
AcDbEntity
  8
1
  6
SLD-Сплошная
100
AcDbCircle
 10
591.9054271659
 20
1250.5100778225
 30
0.0
 40
3.500000000000109
  0
ELLIPSE
  5
43A
330
1F
100
AcDbEntity
  8
1
  6
SLD-Сплошная
100
AcDbEllipse
 10
590.8360403847
 20
1250.5100778225
 30
0.0
 11
0.4122489361056978
 21
0.0
 31
0.0
210
0.0
220
0.0
230
1.0
 40
0.9702875252
 41
5.512866274278693
 42
7.053504340080494
  0
ELLIPSE
  5
43B
330
1F
100
AcDbEntity
  8
1
  6
SLD-Сплошная
100
AcDbEllipse
 10
591.9054271659
 20
1251.5794646037
 30
0.0
 11
0.0
 21
-0.4122489361056978
 31
0.0
210
0.0
220
0.0
230
1.0
 40
0.9702875252
 41
5.51286627427868
 42
7.053504340080098
  0
ELLIPSE
  5
43C
330
1F
100
AcDbEntity
  8
1
  6
SLD-Сплошная
100
AcDbEllipse
 10
592.9748139472
 20
1250.5100778225
 30
0.0
 11
-0.4122489361055841
 21
0.0
 31
0.0
210
0.0
220
0.0
230
1.0
 40
0.9702875252
 41
5.512866274278831
 42
7.053504340080355
  0
ELLIPSE
  5
43D
330
1F
100
AcDbEntity
  8
1
  6
SLD-Сплошная
100
AcDbEllipse
 10
591.9054271659
 20
1249.4406910412
 30
0.0
 11
0.0
 21
0.4122489361056978
 31
0.0
210
0.0
220
0.0
230
1.0
 40
0.9702875252
 41
5.512866274278805
 42
7.05350434008079
  0
LINE
  5
43E
330
1F
100
AcDbEntity
  8
1
  6
SLD-Сплошная
100
AcDbLine
 10
593.0721533549
 20
1248.6102171687
 30
0.0
 11
593.0721533549
 21
1248.8483768867
 31
0.0
  0
LINE
  5
43F
330
1F
100
AcDbEntity
  8
1
  6
SLD-Сплошная
100
AcDbLine
 10
592.1839728621
 20
1249.7365573795
 30
0.0
 11
593.0721533549
 21
1248.8483768867
 31
0.0
  0
LINE
  5
440
330
1F
100
AcDbEntity
  8
1
  6
SLD-Сплошная
100
AcDbLine
 10
590.0055665121
 20
1249.3433516335
 30
0.0
 11
590.2437262302
 21
1249.3433516335
 31
0.0
  0
LINE
  5
441
330
1F
100
AcDbEntity
  8
1
  6
SLD-Сплошная
100
AcDbLine
 10
591.131906723
 20
1250.2315321263
 30
0.0
 11
590.2437262302
 21
1249.3433516335
 31
0.0
  0
LINE
  5
442
330
1F
100
AcDbEntity
  8
1
  6
SLD-Сплошная
100
AcDbLine
 10
590.738700977
 20
1248.6102171687
 30
0.0
 11
590.738700977
 21
1248.8483768867
 31
0.0
  0
LINE
  5
443
330
1F
100
AcDbEntity
  8
1
  6
SLD-Сплошная
100
AcDbLine
 10
590.738700977
 20
1248.8483768867
 30
0.0
 11
591.6268814698
 21
1249.7365573795
 31
0.0
  0
LINE
  5
444
330
1F
100
AcDbEntity
  8
1
  6
SLD-Сплошная
100
AcDbLine
 10
593.8052878198
 20
1251.6768040114
 30
0.0
 11
593.5671281017
 21
1251.6768040114
 31
0.0
  0
LINE
  5
445
330
1F
100
AcDbEntity
  8
1
  6
SLD-Сплошная
100
AcDbLine
 10
592.6789476089
 20
1250.7886235186
 30
0.0
 11
593.5671281017
 21
1251.6768040114
 31
0.0
  0
LINE
  5
446
330
1F
100
AcDbEntity
  8
1
  6
SLD-Сплошная
100
AcDbLine
 10
593.8052878198
 20
1249.3433516335
 30
0.0
 11
593.5671281017
 21
1249.3433516335
 31
0.0
  0
LINE
  5
447
330
1F
100
AcDbEntity
  8
1
  6
SLD-Сплошная
100
AcDbLine
 10
593.5671281017
 20
1249.3433516335
 30
0.0
 11
592.6789476089
 21
1250.2315321263
 31
0.0
  0
LINE
  5
448
330
1F
100
AcDbEntity
  8
1
  6
SLD-Сплошная
100
AcDbLine
 10
590.0055665121
 20
1251.6768040114
 30
0.0
 11
590.2437262302
 21
1251.6768040114
 31
0.0
  0
LINE
  5
449
330
1F
100
AcDbEntity
  8
1
  6
SLD-Сплошная
100
AcDbLine
 10
590.2437262302
 20
1251.6768040114
 30
0.0
 11
591.131906723
 21
1250.7886235186
 31
0.0
  0
LINE
  5
44A
330
1F
100
AcDbEntity
  8
1
  6
SLD-Сплошная
100
AcDbLine
 10
590.738700977
 20
1252.4099384763
 30
0.0
 11
590.738700977
 21
1252.1717787583
 31
0.0
  0
LINE
  5
44B
330
1F
100
AcDbEntity
  8
1
  6
SLD-Сплошная
100
AcDbLine
 10
591.6268814698
 20
1251.2835982654
 30
0.0
 11
590.738700977
 21
1252.1717787583
 31
0.0
  0
LINE
  5
44C
330
1F
100
AcDbEntity
  8
1
  6
SLD-Сплошная
100
AcDbLine
 10
593.0721533549
 20
1252.4099384763
 30
0.0
 11
593.0721533549
 21
1252.1717787583
 31
0.0
  0
LINE
  5
44D
330
1F
100
AcDbEntity
  8
1
  6
SLD-Сплошная
100
AcDbLine
 10
593.0721533549
 20
1252.1717787583
 30
0.0
 11
592.1839728621
 21
1251.2835982654
 31
0.0
  0
LINE
  5
44E
330
1F
100
AcDbEntity
  8
1
  6
SLD-Сплошная
100
AcDbLine
 10
590.2437262302
 20
1249.3433516335
 30
0.0
 11
590.738700977
 21
1248.8483768867
 31
0.0
  0
LINE
  5
44F
330
1F
100
AcDbEntity
  8
1
  6
SLD-Сплошная
100
AcDbLine
 10
590.738700977
 20
1252.1717787583
 30
0.0
 11
590.2437262302
 21
1251.6768040114
 31
0.0
  0
LINE
  5
450
330
1F
100
AcDbEntity
  8
1
  6
SLD-Сплошная
100
AcDbLine
 10
593.0721533549
 20
1248.8483768867
 30
0.0
 11
593.5671281017
 21
1249.3433516335
 31
0.0
  0
LINE
  5
451
330
1F
100
AcDbEntity
  8
1
  6
SLD-Сплошная
100
AcDbLine
 10
593.5671281017
 20
1251.6768040114
 30
0.0
 11
593.0721533549
 21
1252.1717787583
 31
0.0
  0
CIRCLE
  5
452
330
1F
100
AcDbEntity
  8
1
  6
SLD-Сплошная
100
AcDbCircle
 10
591.9054271659
 20
1250.5100778225
 30
0.0
 40
4.99999999999996
  0
CIRCLE
  5
453
330
1F
100
AcDbEntity
  8
1
  6
SLD-Сплошная
100
AcDbCircle
 10
1026.9054271659
 20
1377.7600778225
 30
0.0
 40
8.300000000000182
  0
LINE
  5
454
330
1F
100
AcDbEntity
  8
1
  6
SLD-Сплошная
100
AcDbLine
 10
613.1054271659
 20
1419.8600778225
 30
0.0
 11
585.1054271659
 21
1419.8600778225
 31
0.0
  0
LINE
  5
455
330
1F
100
AcDbEntity
  8
1
  6
SLD-Сплошная
100
AcDbLine
 10
610.1054271659
 20
1422.8600778225
 30
0.0
 11
588.1054271659
 21
1422.8600778225
 31
0.0
  0
LINE
  5
456
330
1F
100
AcDbEntity
  8
1
  6
SLD-Сплошная
100
AcDbLine
 10
1037.9054271659
 20
1393.7600778225
 30
0.0
 11
1037.9054271659
 21
1392.7600778225
 31
0.0
  0
LINE
  5
457
330
1F
100
AcDbEntity
  8
1
  6
SLD-Сплошная
100
AcDbLine
 10
1035.9054271659
 20
1394.7600778225
 30
0.0
 11
1036.9054271659
 21
1394.7600778225
 31
0.0
  0
SPLINE
  5
458
330
1F
100
AcDbEntity
  8
1
  6
SLD-Сплошная
100
AcDbSpline
210
0.0
220
0.0
230
1.0
 70
     8
 71
     3
 72
    12
 73
     8
 74
     0
 42
0.00000001
 43
0.00000001
 40
0.0
 40
0.0
 40
0.0
 40
0.0
 40
0.2178231110882047
 40
0.4765675029999252
 40
0.8410160589292625
 40
0.9961871477580917
 40
1.0
 40
1.0
 40
1.0
 40
1.0
 10
1036.905427165932
 20
1394.760077822464
 30
0.0
 10
1037.046563735965
 20
1394.740724629053
 30
0.0
 10
1037.355351460219
 20
1394.698382459699
 30
0.0
 10
1037.713161588579
 20
1394.40423470483
 30
0.0
 10
1037.879411854604
 20
1394.07024421023
 30
0.0
 10
1037.905300759419
 20
1393.833572023839
 30
0.0
 10
1037.905424205373
 20
1393.761799124983
 30
0.0
 10
1037.905427165932
 20
1393.760077822464
 30
0.0
  0
LINE
  5
459
330
1F
100
AcDbEntity
  8
1
  6
SLD-Сплошная
100
AcDbLine
 10
1025.4054271659
 20
1394.7600778225
 30
0.0
 11
1035.9054271659
 21
1394.7600778225
 31
0.0
  0
ARC
  5
45A
330
1F
100
AcDbEntity
  8
1
  6
SLD-Сплошная
100
AcDbCircle
 10
1025.4054271659
 20
1395.7600778225
 30
0.0
 40
1.0
100
AcDbArc
 50
180.0
 51
270.0
  0
ARC
  5
45B
330
1F
100
AcDbEntity
  8
1
  6
SLD-Сплошная
100
AcDbCircle
 10
1025.4054271659
 20
1395.7600778225
 30
0.0
 40
3.0
100
AcDbArc
 50
180.0
 51
270.0
  0
LINE
  5
45C
330
1F
100
AcDbEntity
  8
1
  6
SLD-Сплошная
100
AcDbLine
 10
1022.4054271659
 20
1399.8600778225
 30
0.0
 11
1022.4054271659
 21
1395.7600778225
 31
0.0
  0
LINE
  5
45D
330
1F
100
AcDbEntity
  8
1
  6
SLD-Сплошная
100
AcDbLine
 10
1024.4054271659
 20
1399.8600778225
 30
0.0
 11
1024.4054271659
 21
1395.7600778225
 31
0.0
  0
LINE
  5
45E
330
1F
100
AcDbEntity
  8
1
  6
SLD-Сплошная
100
AcDbLine
 10
1034.1581183594
 20
1394.8600778225
 30
0.0
 11
1035.5054271659
 21
1394.8600778225
 31
0.0
  0
LINE
  5
45F
330
1F
100
AcDbEntity
  8
1
  6
SLD-Сплошная
100
AcDbLine
 10
1026.3054271659
 20
1394.8600778225
 30
0.0
 11
1034.1581183594
 21
1394.8600778225
 31
0.0
  0
LINE
  5
460
330
1F
100
AcDbEntity
  8
1
  6
SLD-Сплошная
100
AcDbLine
 10
1034.1581183594
 20
1395.2600778225
 30
0.0
 11
1035.5054271659
 21
1395.2600778225
 31
0.0
  0
LINE
  5
461
330
1F
100
AcDbEntity
  8
1
  6
SLD-Сплошная
100
AcDbLine
 10
1026.3054271659
 20
1395.2600778225
 30
0.0
 11
1034.1581183594
 21
1395.2600778225
 31
0.0
  0
ARC
  5
462
330
1F
100
AcDbEntity
  8
1
  6
SLD-Сплошная
100
AcDbCircle
 10
1024.9054271659
 20
1395.2600778225
 30
0.0
 40
2.5
100
AcDbArc
 50
180.0
 51
270.0
  0
LINE
  5
463
330
1F
100
AcDbEntity
  8
1
  6
SLD-Сплошная
100
AcDbLine
 10
1022.4054271659
 20
1395.7600778225
 30
0.0
 11
1022.4054271659
 21
1395.2600778225
 31
0.0
  0
LINE
  5
464
330
1F
100
AcDbEntity
  8
1
  6
SLD-Сплошная
100
AcDbLine
 10
1478.7853296565
 20
915.4489112129
 30
0.0
 11
1478.7853296565
 21
421.0095466381
 31
0.0
  0
ARC
  5
465
330
1F
100
AcDbEntity
  8
1
  6
SLD-Сплошная
100
AcDbCircle
 10
1472.8507056952
 20
823.3792289255
 30
0.0
 40
0.2000000000000455
100
AcDbArc
 50
270.0
 51
338.1849373759
  0
ARC
  5
466
330
1F
100
AcDbEntity
  8
1
  6
SLD-Сплошная
100
AcDbCircle
 10
1472.8507056952
 20
833.0792289255
 30
0.0
 40
0.1999999999999318
100
AcDbArc
 50
21.8150626241
 51
90.0
  0
LINE
  5
467
330
1F
100
AcDbEntity
  8
1
  6
SLD-Сплошная
100
AcDbLine
 10
1471.6853296565
 20
823.1792289255
 30
0.0
 11
1472.8507056952
 21
823.1792289255
 31
0.0
  0
LINE
  5
468
330
1F
100
AcDbEntity
  8
1
  6
SLD-Сплошная
100
AcDbLine
 10
1472.8507056952
 20
833.2792289255
 30
0.0
 11
1471.6853296565
 21
833.2792289255
 31
0.0
  0
ARC
  5
469
330
1F
100
AcDbEntity
  8
1
  6
SLD-Сплошная
100
AcDbCircle
 10
1460.7340796565
 20
828.2292289255
 30
0.0
 40
13.25125000000011
100
AcDbArc
 50
338.1849373759
 51
0.0
  0
ARC
  5
46A
330
1F
100
AcDbEntity
  8
1
  6
SLD-Сплошная
100
AcDbCircle
 10
1460.7340796565
 20
828.2292289255
 30
0.0
 40
13.25125000000011
100
AcDbArc
 50
0.0
 51
21.8150626241
  0
LINE
  5
46B
330
1F
100
AcDbEntity
  8
1
  6
SLD-Сплошная
100
AcDbLine
 10
1471.6853296565
 20
503.1792289255
 30
0.0
 11
1472.8507056952
 21
503.1792289255
 31
0.0
  0
LINE
  5
46C
330
1F
100
AcDbEntity
  8
1
  6
SLD-Сплошная
100
AcDbLine
 10
1472.8507056952
 20
513.2792289255
 30
0.0
 11
1471.6853296565
 21
513.2792289255
 31
0.0
  0
ARC
  5
46D
330
1F
100
AcDbEntity
  8
1
  6
SLD-Сплошная
100
AcDbCircle
 10
1472.8507056952
 20
503.3792289255
 30
0.0
 40
0.1999999999999318
100
AcDbArc
 50
270.0
 51
338.1849373759
  0
ARC
  5
46E
330
1F
100
AcDbEntity
  8
1
  6
SLD-Сплошная
100
AcDbCircle
 10
1472.8507056952
 20
513.0792289255
 30
0.0
 40
0.2000000000000455
100
AcDbArc
 50
21.8150626241
 51
90.0
  0
ARC
  5
46F
330
1F
100
AcDbEntity
  8
1
  6
SLD-Сплошная
100
AcDbCircle
 10
1460.7340796565
 20
508.2292289255
 30
0.0
 40
13.2512499999999
100
AcDbArc
 50
338.1849373759
 51
0.0
  0
ARC
  5
470
330
1F
100
AcDbEntity
  8
1
  6
SLD-Сплошная
100
AcDbCircle
 10
1460.7340796565
 20
508.2292289255
 30
0.0
 40
13.2512499999999
100
AcDbArc
 50
0.0
 51
21.8150626241
  0
ARC
  5
471
330
1F
100
AcDbEntity
  8
1
  6
SLD-Сплошная
100
AcDbCircle
 10
1449.3853296565
 20
417.0234668679
 30
0.0
 40
1.000000000000227
100
AcDbArc
 50
180.0
 51
257.5813184942
  0
ARC
  5
472
330
1F
100
AcDbEntity
  8
1
  6
SLD-Сплошная
100
AcDbCircle
 10
1463.9853296565
 20
417.0234668679
 30
0.0
 40
1.000000000000227
100
AcDbArc
 50
282.4186815058
 51
0.0
  0
LINE
  5
473
330
1F
100
AcDbEntity
  8
1
  6
SLD-Сплошная
100
AcDbLine
 10
1448.3853296565
 20
418.2292289255
 30
0.0
 11
1448.3853296565
 21
417.0234668679
 31
0.0
  0
LINE
  5
474
330
1F
100
AcDbEntity
  8
1
  6
SLD-Сплошная
100
AcDbLine
 10
1464.9853296565
 20
417.0234668679
 30
0.0
 11
1464.9853296565
 21
418.2292289255
 31
0.0
  0
ARC
  5
475
330
1F
100
AcDbEntity
  8
1
  6
SLD-Сплошная
100
AcDbCircle
 10
1456.6853296565
 20
450.1742289255
 30
0.0
 40
34.94500000000001
100
AcDbArc
 50
270.0104111827
 51
282.4186815058
  0
ARC
  5
476
330
1F
100
AcDbEntity
  8
1
  6
SLD-Сплошная
100
AcDbCircle
 10
1456.6853296565
 20
450.1742289255
 30
0.0
 40
34.94500000000001
100
AcDbArc
 50
257.5813184942
 51
270.0104111827
  0
LINE
  5
477
330
1F
100
AcDbEntity
  8
1
  6
SLD-Сплошная
100
AcDbLine
 10
1498.7853296565
 20
654.2292289255
 30
0.0
 11
1501.7853296565
 21
657.2292289255
 31
0.0
  0
LINE
  5
478
330
1F
100
AcDbEntity
  8
1
  6
SLD-Сплошная
100
AcDbLine
 10
1501.7853296565
 20
679.2292289255
 30
0.0
 11
1498.7853296565
 21
682.2292289255
 31
0.0
  0
LINE
  5
479
330
1F
100
AcDbEntity
  8
1
  6
SLD-Сплошная
100
AcDbLine
 10
1497.7853296565
 20
654.2292289255
 30
0.0
 11
1498.7853296565
 21
654.2292289255
 31
0.0
  0
LINE
  5
47A
330
1F
100
AcDbEntity
  8
1
  6
SLD-Сплошная
100
AcDbLine
 10
1498.7853296565
 20
682.2292289255
 30
0.0
 11
1497.7853296565
 21
682.2292289255
 31
0.0
  0
LINE
  5
47B
330
1F
100
AcDbEntity
  8
1
  6
SLD-Сплошная
100
AcDbLine
 10
1479.8353296565
 20
421.0120716381
 30
0.0
 11
1495.0853296565
 21
421.0120716381
 31
0.0
  0
LINE
  5
47C
330
1F
100
AcDbEntity
  8
1
  6
SLD-Сплошная
100
AcDbLine
 10
1479.8353296565
 20
915.4463862129
 30
0.0
 11
1495.0853296565
 21
915.4463862129
 31
0.0
  0
SPLINE
  5
47D
330
1F
100
AcDbEntity
  8
1
  6
SLD-Сплошная
100
AcDbSpline
210
0.0
220
0.0
230
1.0
 70
     8
 71
     3
 72
    11
 73
     7
 74
     0
 42
0.00000001
 43
0.00000001
 40
0.0
 40
0.0
 40
0.0
 40
0.0
 40
0.2500000000000022
 40
0.5000000000000021
 40
0.7499999999999933
 40
1.0
 40
1.0
 40
1.0
 40
1.0
 10
1479.835329656517
 20
915.4463862129493
 30
0.0
 10
1479.69774076052
 20
915.4422195462826
 30
0.0
 10
1479.422562968528
 20
915.4338862129493
 30
0.0
 10
1479.075490784576
 20
915.4213862129492
 30
0.0
 10
1478.832679110797
 20
915.4088862129493
 30
0.0
 10
1478.801112807944
 20
915.4005528796158
 30
0.0
 10
1478.785329656517
 20
915.3963862129493
 30
0.0
  0
SPLINE
  5
47E
330
1F
100
AcDbEntity
  8
1
  6
SLD-Сплошная
100
AcDbSpline
210
0.0
220
0.0
230
1.0
 70
     8
 71
     3
 72
    11
 73
     7
 74
     0
 42
0.00000001
 43
0.00000001
 40
0.0
 40
0.0
 40
0.0
 40
0.0
 40
0.2500000000000034
 40
0.5000000000000048
 40
0.7500000000000023
 40
0.9999999999999999
 40
0.9999999999999999
 40
0.9999999999999999
 40
0.9999999999999999
 10
1478.785329656517
 20
421.0620716380586
 30
0.0
 10
1478.801112807943
 20
421.0579049713921
 30
0.0
 10
1478.832679110795
 20
421.0495716380587
 30
0.0
 10
1479.075490784573
 20
421.0370716380586
 30
0.0
 10
1479.422562968526
 20
421.0245716380586
 30
0.0
 10
1479.69774076052
 20
421.0162383047254
 30
0.0
 10
1479.835329656517
 20
421.0120716380587
 30
0.0
  0
ELLIPSE
  5
47F
330
1F
100
AcDbEntity
  8
1
  6
SLD-Сплошная
100
AcDbEllipse
 10
1495.0853296565
 20
914.0292289254
 30
0.0
 11
2.700000000000045
 21
0.0
 31
0.0
210
0.0
220
0.0
230
1.0
 40
0.5248730694
 41
0.0
 42
1.570796326794897
  0
LINE
  5
480
330
1F
100
AcDbEntity
  8
1
  6
SLD-Сплошная
100
AcDbLine
 10
1497.7853296565
 20
914.0292289254
 30
0.0
 11
1497.7853296565
 21
422.4292289256
 31
0.0
  0
ELLIPSE
  5
481
330
1F
100
AcDbEntity
  8
1
  6
SLD-Сплошная
100
AcDbEllipse
 10
1495.0853296565
 20
422.4292289256
 30
0.0
 11
2.700000000000273
 21
0.0
 31
0.0
210
0.0
220
0.0
230
1.0
 40
0.5248730694
 41
4.712388980384697
 42
6.283185307179586
  0
LINE
  5
482
330
1F
100
AcDbEntity
  8
1
  6
SLD-Сплошная
100
AcDbLine
 10
1495.0853296565
 20
916.7292289255
 30
0.0
 11
1479.8353296565
 21
916.7292289255
 31
0.0
  0
LINE
  5
483
330
1F
100
AcDbEntity
  8
1
  6
SLD-Сплошная
100
AcDbLine
 10
1495.0853296565
 20
915.7292289255
 30
0.0
 11
1479.8353296565
 21
915.7292289255
 31
0.0
  0
LINE
  5
484
330
1F
100
AcDbEntity
  8
1
  6
SLD-Сплошная
100
AcDbLine
 10
1479.8353296565
 20
916.7292289255
 30
0.0
 11
1479.8353296565
 21
915.7292289255
 31
0.0
  0
LINE
  5
485
330
1F
100
AcDbEntity
  8
1
  6
SLD-Сплошная
100
AcDbLine
 10
1479.7853296565
 20
915.6792289255
 30
0.0
 11
1478.7853296565
 21
915.6792289255
 31
0.0
  0
SPLINE
  5
486
330
1F
100
AcDbEntity
  8
1
  6
SLD-Сплошная
100
AcDbSpline
210
0.0
220
0.0
230
1.0
 70
     8
 71
     3
 72
    11
 73
     7
 74
     0
 42
0.00000001
 43
0.00000001
 40
0.0
 40
0.0
 40
0.0
 40
0.0
 40
0.2500000000000012
 40
0.4999999999999957
 40
0.7499999999999997
 40
1.0
 40
1.0
 40
1.0
 40
1.0
 10
1478.785329656517
 20
915.679228925504
 30
0.0
 10
1478.801112807944
 20
915.8168178215006
 30
0.0
 10
1478.832679110797
 20
916.0919956134936
 30
0.0
 10
1479.075490784576
 20
916.4390677974453
 30
0.0
 10
1479.422562968527
 20
916.6818794712242
 30
0.0
 10
1479.69774076052
 20
916.7134457740774
 30
0.0
 10
1479.835329656517
 20
916.7292289255041
 30
0.0
  0
SPLINE
  5
487
330
1F
100
AcDbEntity
  8
1
  6
SLD-Сплошная
100
AcDbSpline
210
0.0
220
0.0
230
1.0
 70
     8
 71
     3
 72
    11
 73
     7
 74
     0
 42
0.00000001
 43
0.00000001
 40
0.0
 40
0.0
 40
0.0
 40
0.0
 40
0.2499999999995677
 40
0.5000000000000343
 40
0.7500000000003086
 40
0.9999999999999999
 40
0.9999999999999999
 40
0.9999999999999999
 40
0.9999999999999999
 10
1479.785329656517
 20
915.679228925504
 30
0.0
 10
1479.786081235156
 20
915.6857807776945
 30
0.0
 10
1479.787584392435
 20
915.6988844820752
 30
0.0
 10
1479.799146853091
 20
915.7154117289298
 30
0.0
 10
1479.815674099946
 20
915.726974189586
 30
0.0
 10
1479.828777804327
 20
915.7284773468648
 30
0.0
 10
1479.835329656517
 20
915.7292289255041
 30
0.0
  0
LINE
  5
488
330
1F
100
AcDbEntity
  8
1
  6
SLD-Сплошная
100
AcDbLine
 10
1479.8353296565
 20
419.7292289255
 30
0.0
 11
1479.8353296565
 21
420.7292289255
 31
0.0
  0
SPLINE
  5
489
330
1F
100
AcDbEntity
  8
1
  6
SLD-Сплошная
100
AcDbSpline
210
0.0
220
0.0
230
1.0
 70
     8
 71
     3
 72
    11
 73
     7
 74
     0
 42
0.00000001
 43
0.00000001
 40
0.0
 40
0.0
 40
0.0
 40
0.0
 40
0.2500000000000028
 40
0.4999999999999969
 40
0.7499999999999947
 40
1.0
 40
1.0
 40
1.0
 40
1.0
 10
1479.835329656517
 20
419.729228925504
 30
0.0
 10
1479.69774076052
 20
419.7450120769308
 30
0.0
 10
1479.422562968527
 20
419.7765783797842
 30
0.0
 10
1479.075490784576
 20
420.0193900535626
 30
0.0
 10
1478.832679110797
 20
420.3664622375143
 30
0.0
 10
1478.801112807944
 20
420.6416400295075
 30
0.0
 10
1478.785329656517
 20
420.7792289255041
 30
0.0
  0
LINE
  5
48A
330
1F
100
AcDbEntity
  8
1
  6
SLD-Сплошная
100
AcDbLine
 10
1479.7853296565
 20
420.7792289255
 30
0.0
 11
1478.7853296565
 21
420.7792289255
 31
0.0
  0
SPLINE
  5
48B
330
1F
100
AcDbEntity
  8
1
  6
SLD-Сплошная
100
AcDbSpline
210
0.0
220
0.0
230
1.0
 70
     8
 71
     3
 72
    11
 73
     7
 74
     0
 42
0.00000001
 43
0.00000001
 40
0.0
 40
0.0
 40
0.0
 40
0.0
 40
0.2499999999999847
 40
0.4999999999999633
 40
0.750000000000108
 40
1.0
 40
1.0
 40
1.0
 40
1.0
 10
1479.835329656517
 20
420.729228925504
 30
0.0
 10
1479.828777804327
 20
420.7299805041434
 30
0.0
 10
1479.815674099946
 20
420.7314836614221
 30
0.0
 10
1479.799146853091
 20
420.7430461220782
 30
0.0
 10
1479.787584392435
 20
420.7595733689331
 30
0.0
 10
1479.786081235156
 20
420.7726770733138
 30
0.0
 10
1479.785329656517
 20
420.7792289255041
 30
0.0
  0
LINE
  5
48C
330
1F
100
AcDbEntity
  8
1
  6
SLD-Сплошная
100
AcDbLine
 10
1495.0853296565
 20
420.7292289255
 30
0.0
 11
1479.8353296565
 21
420.7292289255
 31
0.0
  0
LINE
  5
48D
330
1F
100
AcDbEntity
  8
1
  6
SLD-Сплошная
100
AcDbLine
 10
1495.0853296565
 20
419.7292289255
 30
0.0
 11
1479.8353296565
 21
419.7292289255
 31
0.0
  0
ARC
  5
48E
330
1F
100
AcDbEntity
  8
1
  6
SLD-Сплошная
100
AcDbCircle
 10
1495.0853296565
 20
914.0292289255
 30
0.0
 40
1.699999999999983
100
AcDbArc
 50
49.5408896201
 51
90.0
  0
ARC
  5
48F
330
1F
100
AcDbEntity
  8
1
  6
SLD-Сплошная
100
AcDbCircle
 10
1495.0853296565
 20
914.0292289255
 30
0.0
 40
2.700000000000045
100
AcDbArc
 50
359.9999999979
 51
90.0
  0
ARC
  5
490
330
1F
100
AcDbEntity
  8
1
  6
SLD-Сплошная
100
AcDbCircle
 10
1495.0853296565
 20
422.4292289255
 30
0.0
 40
1.700000000000174
100
AcDbArc
 50
270.0
 51
310.4591103794
  0
ARC
  5
491
330
1F
100
AcDbEntity
  8
1
  6
SLD-Сплошная
100
AcDbCircle
 10
1495.0853296565
 20
422.4292289255
 30
0.0
 40
2.700000000000273
100
AcDbArc
 50
270.0
 51
0.0000000021
  0
LINE
  5
492
330
1F
100
AcDbEntity
  8
1
  6
SLD-Сплошная
100
AcDbLine
 10
1479.8353296565
 20
915.4463862129
 30
0.0
 11
1479.8353296565
 21
915.6292289255
 31
0.0
  0
LINE
  5
493
330
1F
100
AcDbEntity
  8
1
  6
SLD-Сплошная
100
AcDbLine
 10
1478.8535062071
 20
915.3550610701
 30
0.0
 11
1478.7853296565
 21
915.6792289255
 31
0.0
  0
SPLINE
  5
494
330
1F
100
AcDbEntity
  8
1
  6
SLD-Сплошная
100
AcDbSpline
210
0.0
220
0.0
230
1.0
 70
     8
 71
     3
 72
    10
 73
     6
 74
     0
 42
0.00000001
 43
0.00000001
 40
0.0
 40
0.0
 40
0.0
 40
0.0
 40
0.3585486610977567
 40
0.5969690048360767
 40
1.0
 40
1.0
 40
1.0
 40
1.0
 10
1479.835329656517
 20
915.6292289255041
 30
0.0
 10
1479.819903463987
 20
915.6351459684964
 30
0.0
 10
1479.794219477955
 20
915.6449976055261
 30
0.0
 10
1479.788327904074
 20
915.6618976277332
 30
0.0
 10
1479.786486580533
 20
915.6725413541011
 30
0.0
 10
1479.785329656517
 20
915.679228925504
 30
0.0
  0
LINE
  5
495
330
1F
100
AcDbEntity
  8
1
  6
SLD-Сплошная
100
AcDbLine
 10
1479.8353296565
 20
421.0120716381
 30
0.0
 11
1479.8353296565
 21
420.8292289255
 31
0.0
  0
SPLINE
  5
496
330
1F
100
AcDbEntity
  8
1
  6
SLD-Сплошная
100
AcDbSpline
210
0.0
220
0.0
230
1.0
 70
     8
 71
     3
 72
    10
 73
     6
 74
     0
 42
0.00000001
 43
0.00000001
 40
0.0
 40
0.0
 40
0.0
 40
0.0
 40
0.421564701991301
 40
0.6406677011946463
 40
1.0
 40
1.0
 40
1.0
 40
1.0
 10
1479.785329656517
 20
420.779228925504
 30
0.0
 10
1479.786669696444
 20
420.786483674513
 30
0.0
 10
1479.788706205419
 20
420.7975089888917
 30
0.0
 10
1479.794828210451
 20
420.8135988065168
 30
0.0
 10
1479.81981037672
 20
420.8232398013273
 30
0.0
 10
1479.835329656517
 20
420.8292289255041
 30
0.0
  0
LINE
  5
497
330
1F
100
AcDbEntity
  8
1
  6
SLD-Сплошная
100
AcDbLine
 10
1478.7853296565
 20
420.7792289255
 30
0.0
 11
1478.8421952697
 21
421.0314702876
 31
0.0
  0
LINE
  5
498
330
1F
100
AcDbEntity
  8
1
  6
SLD-Сплошная
100
AcDbLine
 10
1494.6753296565
 20
915.6292289255
 30
0.0
 11
1479.8353296565
 21
915.6292289255
 31
0.0
  0
LINE
  5
499
330
1F
100
AcDbEntity
  8
1
  6
SLD-Сплошная
100
AcDbLine
 10
1494.6753296565
 20
915.446386213
 30
0.0
 11
1494.6753296565
 21
915.6292289255
 31
0.0
  0
LINE
  5
49A
330
1F
100
AcDbEntity
  8
1
  6
SLD-Сплошная
100
AcDbLine
 10
1494.6753296565
 20
420.8292289255
 30
0.0
 11
1479.8353296565
 21
420.8292289255
 31
0.0
  0
LINE
  5
49B
330
1F
100
AcDbEntity
  8
1
  6
SLD-Сплошная
100
AcDbLine
 10
1494.6753296565
 20
421.0120716381
 30
0.0
 11
1494.6753296565
 21
420.8292289255
 31
0.0
  0
ARC
  5
49C
330
1F
100
AcDbEntity
  8
1
  6
SLD-Сплошная
100
AcDbCircle
 10
1494.6753296565
 20
913.6192289255
 30
0.0
 40
2.010000000000003
100
AcDbArc
 50
63.906948706
 51
90.0
  0
ARC
  5
49D
330
1F
100
AcDbEntity
  8
1
  6
SLD-Сплошная
100
AcDbCircle
 10
1494.6753296565
 20
422.8392289255
 30
0.0
 40
2.010000000000031
100
AcDbArc
 50
270.0
 51
296.0930512973
  0
LINE
  5
49E
330
1F
100
AcDbEntity
  8
1
  6
SLD-Сплошная
100
AcDbLine
 10
1300.1853296565
 20
420.2292289255
 30
0.0
 11
1469.6853296565
 21
420.2292289255
 31
0.0
  0
CIRCLE
  5
49F
330
1F
100
AcDbEntity
  8
1
  6
SLD-Сплошная
100
AcDbCircle
 10
1431.6853296565
 20
468.2292289255
 30
0.0
 40
0.5
  0
CIRCLE
  5
4A0
330
1F
100
AcDbEntity
  8
1
  6
SLD-Сплошная
100
AcDbCircle
 10
1431.6853296565
 20
868.2292289255
 30
0.0
 40
0.4999999999998863
  0
CIRCLE
  5
4A1
330
1F
100
AcDbEntity
  8
1
  6
SLD-Сплошная
100
AcDbCircle
 10
1381.6853296565
 20
878.2292289255
 30
0.0
 40
0.5000000000001137
  0
ELLIPSE
  5
4A2
330
1F
100
AcDbEntity
  8
1
  6
SLD-Сплошная
100
AcDbEllipse
 10
1300.1853296565
 20
915.6585182474
 30
0.0
 11
2.5
 21
0.0
 31
0.0
210
0.0
220
0.0
230
1.0
 40
0.6
 41
2.751284095262492
 42
3.141592653589892
  0
LINE
  5
4A3
330
1F
100
AcDbEntity
  8
1
  6
SLD-Сплошная
100
AcDbLine
 10
1297.8733503927
 20
916.2292289255
 30
0.0
 11
1300.1853296565
 21
916.2292289255
 31
0.0
  0
LINE
  5
4A4
330
1F
100
AcDbEntity
  8
1
  6
SLD-Сплошная
100
AcDbLine
 10
1297.8733503927
 20
420.2292289255
 30
0.0
 11
1300.1853296565
 21
420.2292289255
 31
0.0
  0
ELLIPSE
  5
4A5
330
1F
100
AcDbEntity
  8
1
  6
SLD-Сплошная
100
AcDbEllipse
 10
1300.1853296565
 20
420.7999396036
 30
0.0
 11
2.5
 21
0.0
 31
0.0
210
0.0
220
0.0
230
1.0
 40
0.6
 41
3.14159265358968
 42
3.531901211917116
  0
LINE
  5
4A6
330
1F
100
AcDbEntity
  8
1
  6
SLD-Сплошная
100
AcDbLine
 10
1297.6853296565
 20
420.7999396036
 30
0.0
 11
1297.6853296565
 21
915.6585182474
 31
0.0
  0
LINE
  5
4A7
330
1F
100
AcDbEntity
  8
1
  6
SLD-Сплошная
100
AcDbLine
 10
1300.1853296565
 20
918.2292289255
 30
0.0
 11
1469.6853296565
 21
918.2292289255
 31
0.0
  0
LINE
  5
4A8
330
1F
100
AcDbEntity
  8
1
  6
SLD-Сплошная
100
AcDbLine
 10
1469.6853296565
 20
916.2292289255
 30
0.0
 11
1469.6853296565
 21
918.2292289255
 31
0.0
  0
LINE
  5
4A9
330
1F
100
AcDbEntity
  8
1
  6
SLD-Сплошная
100
AcDbLine
 10
1300.1853296565
 20
916.2292289255
 30
0.0
 11
1300.1853296565
 21
918.2292289255
 31
0.0
  0
LINE
  5
4AA
330
1F
100
AcDbEntity
  8
1
  6
SLD-Сплошная
100
AcDbLine
 10
1471.6853296565
 20
420.2999396036
 30
0.0
 11
1469.6853296565
 21
420.2292289255
 31
0.0
  0
LINE
  5
4AB
330
1F
100
AcDbEntity
  8
1
  6
SLD-Сплошная
100
AcDbLine
 10
1471.6853296565
 20
916.1585182474
 30
0.0
 11
1469.6853296565
 21
916.2292289255
 31
0.0
  0
LINE
  5
4AC
330
1F
100
AcDbEntity
  8
1
  6
SLD-Сплошная
100
AcDbLine
 10
1471.6853296565
 20
916.1585182474
 30
0.0
 11
1471.6853296565
 21
420.2999396036
 31
0.0
  0
LINE
  5
4AD
330
1F
100
AcDbEntity
  8
1
  6
SLD-Сплошная
100
AcDbLine
 10
1469.6853296565
 20
420.2292289255
 30
0.0
 11
1469.6853296565
 21
418.5588996167
 31
0.0
  0
LINE
  5
4AE
330
1F
100
AcDbEntity
  8
1
  6
SLD-Сплошная
100
AcDbLine
 10
1469.6853296565
 20
418.2292289255
 30
0.0
 11
1300.1853296565
 21
418.2292289255
 31
0.0
  0
LINE
  5
4AF
330
1F
100
AcDbEntity
  8
1
  6
SLD-Сплошная
100
AcDbLine
 10
1300.1853296565
 20
418.5588996167
 30
0.0
 11
1300.1853296565
 21
420.2292289255
 31
0.0
  0
ARC
  5
4B0
330
1F
100
AcDbEntity
  8
1
  6
SLD-Сплошная
100
AcDbCircle
 10
1300.1853296565
 20
915.7292289255
 30
0.0
 40
1.500000000000068
100
AcDbArc
 50
90.0
 51
157.6369669022
  0
LINE
  5
4B1
330
1F
100
AcDbEntity
  8
1
  6
SLD-Сплошная
100
AcDbLine
 10
1297.8733503927
 20
916.680413389
 30
0.0
 11
1298.7981420982
 21
916.2999396036
 31
0.0
  0
ARC
  5
4B2
330
1F
100
AcDbEntity
  8
1
  6
SLD-Сплошная
100
AcDbCircle
 10
1300.1853296565
 20
915.7292289255
 30
0.0
 40
2.5
100
AcDbArc
 50
90.0
 51
157.6369669022
  0
LINE
  5
4B3
330
1F
100
AcDbEntity
  8
1
  6
SLD-Сплошная
100
AcDbLine
 10
1300.1853296565
 20
418.5588996167
 30
0.0
 11
1300.1853296565
 21
418.2292289255
 31
0.0
  0
ARC
  5
4B4
330
1F
100
AcDbEntity
  8
1
  6
SLD-Сплошная
100
AcDbCircle
 10
1300.1853296565
 20
420.7292289255
 30
0.0
 40
2.5
100
AcDbArc
 50
202.3630330978
 51
270.0
  0
LINE
  5
4B5
330
1F
100
AcDbEntity
  8
1
  6
SLD-Сплошная
100
AcDbLine
 10
1297.8733503927
 20
419.7780444621
 30
0.0
 11
1298.7981420982
 21
420.1585182475
 31
0.0
  0
ARC
  5
4B6
330
1F
100
AcDbEntity
  8
1
  6
SLD-Сплошная
100
AcDbCircle
 10
1300.1853296565
 20
420.7292289255
 30
0.0
 40
1.500000000000068
100
AcDbArc
 50
202.3630330978
 51
270.0
  0
LINE
  5
4B7
330
1F
100
AcDbEntity
  8
1
  6
SLD-Сплошная
100
AcDbLine
 10
1297.6853296565
 20
915.7292289255
 30
0.0
 11
1297.6881089792
 21
915.7292289255
 31
0.0
  0
ARC
  5
4B8
330
1F
100
AcDbEntity
  8
1
  6
SLD-Сплошная
100
AcDbCircle
 10
1300.1853296565
 20
915.7292289255
 30
0.0
 40
2.5
100
AcDbArc
 50
157.6369669022
 51
180.0
  0
LINE
  5
4B9
330
1F
100
AcDbEntity
  8
1
  6
SLD-Сплошная
100
AcDbLine
 10
1297.6853296565
 20
420.7292289255
 30
0.0
 11
1297.6881089792
 21
420.7292289255
 31
0.0
  0
ARC
  5
4BA
330
1F
100
AcDbEntity
  8
1
  6
SLD-Сплошная
100
AcDbCircle
 10
1300.1853296565
 20
420.7292289255
 30
0.0
 40
2.5
100
AcDbArc
 50
180.0
 51
202.3630330978
  0
ARC
  5
4BB
330
1F
100
AcDbEntity
  8
1
  6
SLD-Сплошная
100
AcDbCircle
 10
1469.6853296565
 20
420.2292289255
 30
0.0
 40
2.0
100
AcDbArc
 50
270.0
 51
0.0
  0
LINE
  5
4BC
330
1F
100
AcDbEntity
  8
1
  6
SLD-Сплошная
100
AcDbLine
 10
1469.6853296565
 20
418.2292289255
 30
0.0
 11
1469.6853296565
 21
418.5588996167
 31
0.0
  0
ARC
  5
4BD
330
1F
100
AcDbEntity
  8
1
  6
SLD-Сплошная
100
AcDbCircle
 10
1469.6853296565
 20
420.2292289255
 30
0.0
 40
1.0
100
AcDbArc
 50
270.0
 51
0.0
  0
LINE
  5
4BE
330
1F
100
AcDbEntity
  8
1
  6
SLD-Сплошная
100
AcDbLine
 10
1470.6853296565
 20
420.2292289255
 30
0.0
 11
1471.6853296565
 21
420.2292289255
 31
0.0
  0
ARC
  5
4BF
330
1F
100
AcDbEntity
  8
1
  6
SLD-Сплошная
100
AcDbCircle
 10
1469.6853296565
 20
916.2292289255
 30
0.0
 40
1.0
100
AcDbArc
 50
0.0
 51
90.0
  0
ARC
  5
4C0
330
1F
100
AcDbEntity
  8
1
  6
SLD-Сплошная
100
AcDbCircle
 10
1469.6853296565
 20
916.2292289255
 30
0.0
 40
2.0
100
AcDbArc
 50
0.0
 51
90.0
  0
LINE
  5
4C1
330
1F
100
AcDbEntity
  8
1
  6
SLD-Сплошная
100
AcDbLine
 10
1470.6853296565
 20
916.2292289255
 30
0.0
 11
1471.6853296565
 21
916.2292289255
 31
0.0
  0
LINE
  5
4C2
330
1F
100
AcDbEntity
  8
1
  6
SLD-Сплошная
100
AcDbLine
 10
1471.6853296565
 20
420.2292289255
 30
0.0
 11
1471.6853296565
 21
420.2999396036
 31
0.0
  0
LINE
  5
4C3
330
1F
100
AcDbEntity
  8
1
  6
SLD-Сплошная
100
AcDbLine
 10
1470.6853296565
 20
420.2292289255
 30
0.0
 11
1470.6853296565
 21
420.2645842646
 31
0.0
  0
LINE
  5
4C4
330
1F
100
AcDbEntity
  8
1
  6
SLD-Сплошная
100
AcDbLine
 10
1470.6853296565
 20
916.2292289255
 30
0.0
 11
1470.6853296565
 21
916.1938735864
 31
0.0
  0
LINE
  5
4C5
330
1F
100
AcDbEntity
  8
1
  6
SLD-Сплошная
100
AcDbLine
 10
1471.6853296565
 20
916.2292289255
 30
0.0
 11
1471.6853296565
 21
916.1585182474
 31
0.0
  0
LINE
  5
4C6
330
1F
100
AcDbEntity
  8
1
  6
SLD-Сплошная
100
AcDbLine
 10
1297.6853296565
 20
915.7292289255
 30
0.0
 11
1297.6853296565
 21
915.6585182474
 31
0.0
  0
LINE
  5
4C7
330
1F
100
AcDbEntity
  8
1
  6
SLD-Сплошная
100
AcDbLine
 10
1297.6853296565
 20
420.7292289255
 30
0.0
 11
1297.6853296565
 21
420.7999396036
 31
0.0
  0
ELLIPSE
  5
4C8
330
1F
100
AcDbEntity
  8
1
  6
SLD-Сплошная
100
AcDbEllipse
 10
1472.6853296565
 20
437.2999396036
 30
0.0
 11
0.0
 21
1.999999999999943
 31
0.0
210
0.0
220
0.0
230
1.0
 40
0.5
 41
0.0
 42
1.570796326794897
  0
ELLIPSE
  5
4C9
330
1F
100
AcDbEntity
  8
1
  6
SLD-Сплошная
100
AcDbEllipse
 10
1472.6853296565
 20
899.1585182474
 30
0.0
 11
0.0
 21
2.0
 31
0.0
210
0.0
220
0.0
230
1.0
 40
0.5
 41
1.570796326794897
 42
3.141592653589793
  0
ARC
  5
4CA
330
1F
100
AcDbEntity
  8
1
  6
SLD-Сплошная
100
AcDbCircle
 10
1472.6853296565
 20
437.2292289255
 30
0.0
 40
1.0
100
AcDbArc
 50
90.0
 51
180.0
  0
ARC
  5
4CB
330
1F
100
AcDbEntity
  8
1
  6
SLD-Сплошная
100
AcDbCircle
 10
1472.6853296565
 20
437.2292289255
 30
0.0
 40
2.0
100
AcDbArc
 50
90.0
 51
98.7004774959
  0
ARC
  5
4CC
330
1F
100
AcDbEntity
  8
1
  6
SLD-Сплошная
100
AcDbCircle
 10
1472.6853296565
 20
899.2292289255
 30
0.0
 40
1.0
100
AcDbArc
 50
180.0
 51
270.0
  0
ARC
  5
4CD
330
1F
100
AcDbEntity
  8
1
  6
SLD-Сплошная
100
AcDbCircle
 10
1472.6853296565
 20
899.2292289255
 30
0.0
 40
2.000000000000028
100
AcDbArc
 50
261.2995225041
 51
270.0
  0
LINE
  5
4CE
330
1F
100
AcDbEntity
  8
1
  6
SLD-Сплошная
100
AcDbLine
 10
1472.6853296565
 20
897.1585182474
 30
0.0
 11
1478.7853296565
 21
897.1585182474
 31
0.0
  0
LINE
  5
4CF
330
1F
100
AcDbEntity
  8
1
  6
SLD-Сплошная
100
AcDbLine
 10
1472.6853296565
 20
439.2999396036
 30
0.0
 11
1478.7853296565
 21
439.2999396036
 31
0.0
  0
LINE
  5
4D0
330
1F
100
AcDbEntity
  8
1
  6
SLD-Сплошная
100
AcDbLine
 10
1478.7853296565
 20
898.2292289255
 30
0.0
 11
1472.6853296565
 21
898.2292289255
 31
0.0
  0
LINE
  5
4D1
330
1F
100
AcDbEntity
  8
1
  6
SLD-Сплошная
100
AcDbLine
 10
1478.7853296565
 20
897.2292289255
 30
0.0
 11
1472.6853296565
 21
897.2292289255
 31
0.0
  0
LINE
  5
4D2
330
1F
100
AcDbEntity
  8
1
  6
SLD-Сплошная
100
AcDbLine
 10
1478.7853296565
 20
438.2292289255
 30
0.0
 11
1472.6853296565
 21
438.2292289255
 31
0.0
  0
LINE
  5
4D3
330
1F
100
AcDbEntity
  8
1
  6
SLD-Сплошная
100
AcDbLine
 10
1478.7853296565
 20
439.2292289255
 30
0.0
 11
1472.6853296565
 21
439.2292289255
 31
0.0
  0
LINE
  5
4D4
330
1F
100
AcDbEntity
  8
1
  6
SLD-Сплошная
100
AcDbLine
 10
1349.9353296565
 20
417.7292289255
 30
0.0
 11
1339.4436557686
 21
417.7292289255
 31
0.0
  0
ARC
  5
4D5
330
1F
100
AcDbEntity
  8
1
  6
SLD-Сплошная
100
AcDbCircle
 10
1339.4436557686
 20
420.1292289255
 30
0.0
 40
2.399999999999977
100
AcDbArc
 50
232.3415379937
 51
270.0
  0
LINE
  5
4D6
330
1F
100
AcDbEntity
  8
1
  6
SLD-Сплошная
100
AcDbLine
 10
1418.9353296565
 20
417.7292289255
 30
0.0
 11
1349.9353296565
 21
417.7292289255
 31
0.0
  0
LINE
  5
4D7
330
1F
100
AcDbEntity
  8
1
  6
SLD-Сплошная
100
AcDbLine
 10
1429.4270035444
 20
417.7292289255
 30
0.0
 11
1418.9353296565
 21
417.7292289255
 31
0.0
  0
ARC
  5
4D8
330
1F
100
AcDbEntity
  8
1
  6
SLD-Сплошная
100
AcDbCircle
 10
1429.4270035444
 20
420.1292289255
 30
0.0
 40
2.399999999999977
100
AcDbArc
 50
270.0
 51
307.6584620061
  0
LINE
  5
4D9
330
1F
100
AcDbEntity
  8
1
  6
SLD-Сплошная
100
AcDbLine
 10
1498.7853296565
 20
654.2292289255
 30
0.0
 11
1498.7853296565
 21
682.2292289255
 31
0.0
  0
LINE
  5
4DA
330
1F
100
AcDbEntity
  8
1
  6
SLD-Сплошная
100
AcDbLine
 10
1501.7853296565
 20
657.2292289255
 30
0.0
 11
1501.7853296565
 21
679.2292289255
 31
0.0
  0
ENDSEC
  0
SECTION
  2
OBJECTS
  0
DICTIONARY
  5
C
330
0
100
AcDbDictionary
281
     1
  3
ACAD_GROUP
350
D
  3
ACAD_LAYOUT
350
1A
  3
ACAD_MLINESTYLE
350
17
  3
ACAD_PLOTSETTINGS
350
19
  3
ACAD_PLOTSTYLENAME
350
E
  3
ACAD_SCALELIST
350
47
  3
DWGPROPS
350
4DB
  0
DICTIONARY
  5
D
102
{ACAD_REACTORS
330
C
102
}
330
C
100
AcDbDictionary
281
     1
  0
DICTIONARY
  5
1A
102
{ACAD_REACTORS
330
C
102
}
330
C
100
AcDbDictionary
281
     1
  3
Layout1
350
1E
  3
Layout2
350
26
  3
Model
350
22
  0
DICTIONARY
  5
17
102
{ACAD_REACTORS
330
C
102
}
330
C
100
AcDbDictionary
281
     1
  3
Standard
350
18
  0
DICTIONARY
  5
19
102
{ACAD_REACTORS
330
C
102
}
330
C
100
AcDbDictionary
281
     1
  0
ACDBDICTIONARYWDFLT
  5
E
102
{ACAD_REACTORS
330
C
102
}
330
C
100
AcDbDictionary
281
     1
  3
Normal
350
F
100
AcDbDictionaryWithDefault
340
F
  0
DICTIONARY
  5
47
102
{ACAD_REACTORS
330
C
102
}
330
C
100
AcDbDictionary
281
     1
  3
A0
350
48
  3
A1
350
49
  3
A2
350
4A
  3
A3
350
4B
  3
A4
350
4C
  3
A5
350
4D
  3
A6
350
4E
  3
A7
350
4F
  3
A8
350
50
  3
A9
350
51
  3
B0
350
52
  3
B1
350
53
  3
B2
350
54
  3
B3
350
55
  3
B4
350
56
  3
B5
350
57
  3
B6
350
58
  0
XRECORD
  5
4DB
102
{ACAD_REACTORS
330
C
102
}
330
C
100
AcDbXrecord
280
     1
  1
DWGPROPS COOKIE
  2

  3

  4

  6

  7

  8
ignatieved
  9

300
=
301
=
302
=
303
=
304
=
305
=
306
=
307
=
308
=
309
=
 40
0.0
 41
2460213.502881296
 42
2460213.502881898
  1

 90
        0
  0
LAYOUT
  5
1E
102
{ACAD_REACTORS
330
1A
102
}
330
1A
100
AcDbPlotSettings
  1

  2
none_device
  4

  6

 40
0.0
 41
0.0
 42
0.0
 43
0.0
 44
0.0
 45
0.0
 46
0.0
 47
0.0
 48
0.0
 49
0.0
140
0.0
141
0.0
142
1.0
143
1.0
 70
   688
 72
     1
 73
     0
 74
     5
  7

 75
    16
147
1.0
148
0.0
149
0.0
100
AcDbLayout
  1
Layout1
 70
     1
 71
     1
 10
0.0
 20
0.0
 11
420.0
 21
297.0
 12
0.0
 22
0.0
 32
0.0
 14
1.0000000000E+20
 24
1.0000000000E+20
 34
1.0000000000E+20
 15
-1.0000000000E+20
 25
-1.0000000000E+20
 35
-1.0000000000E+20
146
0.0
 13
0.0
 23
0.0
 33
0.0
 16
1.0
 26
0.0
 36
0.0
 17
0.0
 27
1.0
 37
0.0
 76
     0
330
1B
  0
LAYOUT
  5
26
102
{ACAD_REACTORS
330
1A
102
}
330
1A
100
AcDbPlotSettings
  1

  2
none_device
  4

  6

 40
0.0
 41
0.0
 42
0.0
 43
0.0
 44
0.0
 45
0.0
 46
0.0
 47
0.0
 48
0.0
 49
0.0
140
0.0
141
0.0
142
1.0
143
1.0
 70
   688
 72
     1
 73
     0
 74
     5
  7

 75
    16
147
1.0
148
0.0
149
0.0
100
AcDbLayout
  1
Layout2
 70
     1
 71
     2
 10
0.0
 20
0.0
 11
0.0
 21
0.0
 12
0.0
 22
0.0
 32
0.0
 14
0.0
 24
0.0
 34
0.0
 15
0.0
 25
0.0
 35
0.0
146
0.0
 13
0.0
 23
0.0
 33
0.0
 16
1.0
 26
0.0
 36
0.0
 17
0.0
 27
1.0
 37
0.0
 76
     0
330
23
  0
LAYOUT
  5
22
102
{ACAD_REACTORS
330
1A
102
}
330
1A
100
AcDbPlotSettings
  1

  2
none_device
  4
Letter_(8.50_x_11.00_Inches)
  6

 40
6.35
 41
6.35
 42
6.35000508
 43
6.35000508
 44
215.9
 45
279.4
 46
0.0
 47
0.0
 48
0.0
 49
0.0
140
0.0
141
0.0
142
1.0
143
1.0
 70
  1712
 72
     1
 73
     0
 74
     0
  7

 75
     0
147
1.0
148
0.0
149
0.0
100
AcDbLayout
  1
Model
 70
     1
 71
     0
 10
0.0
 20
0.0
 11
2000.0
 21
2000.0
 12
0.0
 22
0.0
 32
0.0
 14
0.0
 24
0.0
 34
0.0
 15
2000.0
 25
2000.0
 35
0.0
146
0.0
 13
0.0
 23
0.0
 33
0.0
 16
1.0
 26
0.0
 36
0.0
 17
0.0
 27
1.0
 37
0.0
 76
     0
330
1F
331
29
  0
MLINESTYLE
  5
18
102
{ACAD_REACTORS
330
17
102
}
330
17
100
AcDbMlineStyle
  2
Standard
 70
     0
  3

 62
   256
 51
90.0
 52
90.0
 71
     2
 49
0.5
 62
   256
  6
BYLAYER
 49
-0.5
 62
   256
  6
BYLAYER
  0
ACDBPLACEHOLDER
  5
F
102
{ACAD_REACTORS
330
E
102
}
330
E
  0
SCALE
  5
48
102
{ACAD_REACTORS
330
47
102
}
330
47
100
AcDbScale
 70
     0
300
1:1
140
1.0
141
1.0
290
     1
  0
SCALE
  5
49
102
{ACAD_REACTORS
330
47
102
}
330
47
100
AcDbScale
 70
     0
300
1:2
140
1.0
141
2.0
290
     0
  0
SCALE
  5
4A
102
{ACAD_REACTORS
330
47
102
}
330
47
100
AcDbScale
 70
     0
300
1:4
140
1.0
141
4.0
290
     0
  0
SCALE
  5
4B
102
{ACAD_REACTORS
330
47
102
}
330
47
100
AcDbScale
 70
     0
300
1:5
140
1.0
141
5.0
290
     0
  0
SCALE
  5
4C
102
{ACAD_REACTORS
330
47
102
}
330
47
100
AcDbScale
 70
     0
300
1:8
140
1.0
141
8.0
290
     0
  0
SCALE
  5
4D
102
{ACAD_REACTORS
330
47
102
}
330
47
100
AcDbScale
 70
     0
300
1:10
140
1.0
141
10.0
290
     0
  0
SCALE
  5
4E
102
{ACAD_REACTORS
330
47
102
}
330
47
100
AcDbScale
 70
     0
300
1:16
140
1.0
141
16.0
290
     0
  0
SCALE
  5
4F
102
{ACAD_REACTORS
330
47
102
}
330
47
100
AcDbScale
 70
     0
300
1:20
140
1.0
141
20.0
290
     0
  0
SCALE
  5
50
102
{ACAD_REACTORS
330
47
102
}
330
47
100
AcDbScale
 70
     0
300
1:30
140
1.0
141
30.0
290
     0
  0
SCALE
  5
51
102
{ACAD_REACTORS
330
47
102
}
330
47
100
AcDbScale
 70
     0
300
1:40
140
1.0
141
40.0
290
     0
  0
SCALE
  5
52
102
{ACAD_REACTORS
330
47
102
}
330
47
100
AcDbScale
 70
     0
300
1:50
140
1.0
141
50.0
290
     0
  0
SCALE
  5
53
102
{ACAD_REACTORS
330
47
102
}
330
47
100
AcDbScale
 70
     0
300
1:100
140
1.0
141
100.0
290
     0
  0
SCALE
  5
54
102
{ACAD_REACTORS
330
47
102
}
330
47
100
AcDbScale
 70
     0
300
2:1
140
2.0
141
1.0
290
     0
  0
SCALE
  5
55
102
{ACAD_REACTORS
330
47
102
}
330
47
100
AcDbScale
 70
     0
300
4:1
140
4.0
141
1.0
290
     0
  0
SCALE
  5
56
102
{ACAD_REACTORS
330
47
102
}
330
47
100
AcDbScale
 70
     0
300
8:1
140
8.0
141
1.0
290
     0
  0
SCALE
  5
57
102
{ACAD_REACTORS
330
47
102
}
330
47
100
AcDbScale
 70
     0
300
10:1
140
10.0
141
1.0
290
     0
  0
SCALE
  5
58
102
{ACAD_REACTORS
330
47
102
}
330
47
100
AcDbScale
 70
     0
300
100:1
140
100.0
141
1.0
290
     0
  0
ENDSEC
  0
EOF
