ISO-10303-21;
HEADER;
FILE_DESCRIPTION (( 'STEP AP203' ),
    '1' );
FILE_NAME ('CTR10-020-K41-093I Òðóáà ãëàäêàÿ æåñòêàÿ ÏÂÕ d20 ÈÝÊ ñåðàÿ (93ì),3ì.STEP',
    '2016-04-27T08:15:48',
    ( '' ),
    ( '' ),
    'SwSTEP 2.0',
    'SolidWorks 2014',
    '' );
FILE_SCHEMA (( 'CONFIG_CONTROL_DESIGN' ));
ENDSEC;

DATA;
#1 = PRODUCT_DEFINITION_FORMATION_WITH_SPECIFIED_SOURCE ( 'ANY', '', #36, .NOT_KNOWN. ) ;
#2 = CARTESIAN_POINT ( 'NONE',  ( 3000.000000000000000, 0.0000000000000000000, -10.00000000000000000 ) ) ;
#3 = DIRECTION ( 'NONE',  ( 0.0000000000000000000, 0.0000000000000000000, 1.000000000000000000 ) ) ;
#4 = CC_DESIGN_APPROVAL ( #160, ( #1 ) ) ;
#5 = CARTESIAN_POINT ( 'NONE',  ( 3000.000000000000000, 0.0000000000000000000, 0.0000000000000000000 ) ) ;
#6 = ORIENTED_EDGE ( 'NONE', *, *, #139, .F. ) ;
#7 = LOCAL_TIME ( 11, 15, 48.00000000000000000, #39 ) ;
#8 = APPROVAL_PERSON_ORGANIZATION ( #40, #160, #102 ) ;
#9 = DIRECTION ( 'NONE',  ( 1.000000000000000000, 0.0000000000000000000, 0.0000000000000000000 ) ) ;
#10 = VERTEX_POINT ( 'NONE', #110 ) ;
#11 = FACE_OUTER_BOUND ( 'NONE', #17, .T. ) ;
#12 = ORGANIZATION ( 'UNSPECIFIED', 'UNSPECIFIED', '' ) ;
#13 = COORDINATED_UNIVERSAL_TIME_OFFSET ( 3, 0, .AHEAD. ) ;
#14 = APPROVAL_STATUS ( 'not_yet_approved' ) ;
#15 = CC_DESIGN_DATE_AND_TIME_ASSIGNMENT ( #75, #88, ( #48 ) ) ;
#16 = SECURITY_CLASSIFICATION ( '', '', #37 ) ;
#17 = EDGE_LOOP ( 'NONE', ( #92 ) ) ;
#18 = CC_DESIGN_PERSON_AND_ORGANIZATION_ASSIGNMENT ( #46, #123, ( #48 ) ) ;
#19 = MECHANICAL_CONTEXT ( 'NONE', #168, 'mechanical' ) ;
#20 = PERSON_AND_ORGANIZATION ( #26, #12 ) ;
#21 = CC_DESIGN_APPROVAL ( #29, ( #48 ) ) ;
#22 = LOCAL_TIME ( 11, 15, 48.00000000000000000, #57 ) ;
#23 = ORIENTED_EDGE ( 'NONE', *, *, #146, .F. ) ;
#24 = PERSON_AND_ORGANIZATION_ROLE ( 'creator' ) ;
#25 = COORDINATED_UNIVERSAL_TIME_OFFSET ( 3, 0, .AHEAD. ) ;
#26 = PERSON ( 'UNSPECIFIED', 'UNSPECIFIED', 'UNSPECIFIED', ('UNSPECIFIED'), ('UNSPECIFIED'), ('UNSPECIFIED') ) ;
#27 = CALENDAR_DATE ( 2016, 27, 4 ) ;
#28 = CARTESIAN_POINT ( 'NONE',  ( 0.0000000000000000000, 0.0000000000000000000, -10.00000000000000000 ) ) ;
#29 = APPROVAL ( #47, 'UNSPECIFIED' ) ;
#30 = PLANE ( 'NONE',  #103 ) ;
#31 = CARTESIAN_POINT ( 'NONE',  ( 0.0000000000000000000, 0.0000000000000000000, 0.0000000000000000000 ) ) ;
#32 = APPLICATION_CONTEXT ( 'configuration controlled 3d designs of mechanical parts and assemblies' ) ;
#33 = PRODUCT_DEFINITION_SHAPE ( 'NONE', 'NONE',  #48 ) ;
#34 = ORIENTED_EDGE ( 'NONE', *, *, #143, .T. ) ;
#35 = UNCERTAINTY_MEASURE_WITH_UNIT (LENGTH_MEASURE( 1.000000000000000100E-005 ), #52, 'distance_accuracy_value', 'NONE');
#36 = PRODUCT ( 'CTR10-020-K41-093I Òðóáà ãëàäêàÿ æåñòêàÿ ÏÂÕ d20 ÈÝÊ ñåðàÿ (93ì),3ì', 'CTR10-020-K41-093I Òðóáà ãëàäêàÿ æåñòêàÿ ÏÂÕ d20 ÈÝÊ ñåðàÿ (93ì),3ì', '', ( #19 ) ) ;
#37 = SECURITY_CLASSIFICATION_LEVEL ( 'unclassified' ) ;
#38 = ADVANCED_FACE ( 'NONE', ( #72, #117 ), #109, .T. ) ;
#39 = COORDINATED_UNIVERSAL_TIME_OFFSET ( 3, 0, .AHEAD. ) ;
#40 = PERSON_AND_ORGANIZATION ( #26, #12 ) ;
#41 = DIRECTION ( 'NONE',  ( 0.0000000000000000000, 0.0000000000000000000, -1.000000000000000000 ) ) ;
#42 = SHAPE_DEFINITION_REPRESENTATION ( #33, #132 ) ;
#43 = CIRCLE ( 'NONE', #101, 10.00000000000000000 ) ;
#44 = DIRECTION ( 'NONE',  ( 1.000000000000000000, 0.0000000000000000000, 0.0000000000000000000 ) ) ;
#45 = DIRECTION ( 'NONE',  ( 0.0000000000000000000, 0.0000000000000000000, -1.000000000000000000 ) ) ;
#46 = PERSON_AND_ORGANIZATION ( #26, #12 ) ;
#47 = APPROVAL_STATUS ( 'not_yet_approved' ) ;
#48 = PRODUCT_DEFINITION ( 'UNKNOWN', '', #1, #108 ) ;
#49 = CC_DESIGN_PERSON_AND_ORGANIZATION_ASSIGNMENT ( #152, #114, ( #36 ) ) ;
#50 = DATE_TIME_ROLE ( 'classification_date' ) ;
#51 = ORIENTED_EDGE ( 'NONE', *, *, #143, .F. ) ;
#52 =( LENGTH_UNIT ( ) NAMED_UNIT ( * ) SI_UNIT ( .MILLI., .METRE. ) );
#53 = ORIENTED_EDGE ( 'NONE', *, *, #145, .T. ) ;
#54 = DIRECTION ( 'NONE',  ( 0.0000000000000000000, 0.0000000000000000000, 1.000000000000000000 ) ) ;
#55 = CARTESIAN_POINT ( 'NONE',  ( 3000.000000000000000, 0.0000000000000000000, 0.0000000000000000000 ) ) ;
#56 = APPROVAL_DATE_TIME ( #89, #160 ) ;
#57 = COORDINATED_UNIVERSAL_TIME_OFFSET ( 3, 0, .AHEAD. ) ;
#58 = DIRECTION ( 'NONE',  ( -1.000000000000000000, -0.0000000000000000000, -0.0000000000000000000 ) ) ;
#59 = CARTESIAN_POINT ( 'NONE',  ( 0.0000000000000000000, 0.0000000000000000000, -9.099999999999999600 ) ) ;
#60 = EDGE_LOOP ( 'NONE', ( #23 ) ) ;
#61 = CIRCLE ( 'NONE', #99, 9.099999999999999600 ) ;
#62 = LOCAL_TIME ( 11, 15, 48.00000000000000000, #95 ) ;
#63 = DIRECTION ( 'NONE',  ( 1.000000000000000000, 0.0000000000000000000, 0.0000000000000000000 ) ) ;
#64 = CIRCLE ( 'NONE', #105, 10.00000000000000000 ) ;
#65 = APPROVAL_ROLE ( '' ) ;
#66 = AXIS2_PLACEMENT_3D ( 'NONE', #94, #84, #9 ) ;
#67 =( NAMED_UNIT ( * ) SI_UNIT ( $, .STERADIAN. ) SOLID_ANGLE_UNIT ( ) );
#68 = PLANE ( 'NONE',  #111 ) ;
#69 = CLOSED_SHELL ( 'NONE', ( #77, #87, #38, #140 ) ) ;
#70 = CARTESIAN_POINT ( 'NONE',  ( 3000.000000000000000, 0.0000000000000000000, 0.0000000000000000000 ) ) ;
#71 = DIRECTION ( 'NONE',  ( 1.000000000000000000, 0.0000000000000000000, 0.0000000000000000000 ) ) ;
#72 = FACE_OUTER_BOUND ( 'NONE', #163, .T. ) ;
#73 = CYLINDRICAL_SURFACE ( 'NONE', #91, 9.099999999999999600 ) ;
#74 = APPROVAL_PERSON_ORGANIZATION ( #112, #29, #79 ) ;
#75 = DATE_AND_TIME ( #113, #154 ) ;
#76 =( GEOMETRIC_REPRESENTATION_CONTEXT ( 3 ) GLOBAL_UNCERTAINTY_ASSIGNED_CONTEXT ( ( #35 ) ) GLOBAL_UNIT_ASSIGNED_CONTEXT ( ( #52, #153, #67 ) ) REPRESENTATION_CONTEXT ( 'NONE', 'WORKASPACE' ) );
#77 = ADVANCED_FACE ( 'NONE', ( #11, #78 ), #68, .T. ) ;
#78 = FACE_BOUND ( 'NONE', #135, .T. ) ;
#79 = APPROVAL_ROLE ( '' ) ;
#80 = APPROVAL_DATE_TIME ( #106, #29 ) ;
#81 = CARTESIAN_POINT ( 'NONE',  ( 3000.000000000000000, 0.0000000000000000000, 0.0000000000000000000 ) ) ;
#82 = CC_DESIGN_PERSON_AND_ORGANIZATION_ASSIGNMENT ( #126, #138, ( #16 ) ) ;
#83 = AXIS2_PLACEMENT_3D ( 'NONE', #157, #71, #104 ) ;
#84 = DIRECTION ( 'NONE',  ( 0.0000000000000000000, 0.0000000000000000000, 1.000000000000000000 ) ) ;
#85 = CC_DESIGN_PERSON_AND_ORGANIZATION_ASSIGNMENT ( #161, #120, ( #1 ) ) ;
#86 = EDGE_LOOP ( 'NONE', ( #122 ) ) ;
#87 = ADVANCED_FACE ( 'NONE', ( #151, #98 ), #30, .F. ) ;
#88 = DATE_TIME_ROLE ( 'creation_date' ) ;
#89 = DATE_AND_TIME ( #133, #165 ) ;
#90 = APPROVAL_PERSON_ORGANIZATION ( #134, #130, #65 ) ;
#91 = AXIS2_PLACEMENT_3D ( 'NONE', #70, #58, #54 ) ;
#92 = ORIENTED_EDGE ( 'NONE', *, *, #139, .T. ) ;
#93 = FACE_OUTER_BOUND ( 'NONE', #60, .T. ) ;
#94 = CARTESIAN_POINT ( 'NONE',  ( 0.0000000000000000000, 0.0000000000000000000, 0.0000000000000000000 ) ) ;
#95 = COORDINATED_UNIVERSAL_TIME_OFFSET ( 3, 0, .AHEAD. ) ;
#96 = DIRECTION ( 'NONE',  ( 0.0000000000000000000, 0.0000000000000000000, -1.000000000000000000 ) ) ;
#97 = APPROVAL_DATE_TIME ( #141, #130 ) ;
#98 = FACE_BOUND ( 'NONE', #86, .T. ) ;
#99 = AXIS2_PLACEMENT_3D ( 'NONE', #5, #125, #96 ) ;
#100 = APPLICATION_PROTOCOL_DEFINITION ( 'international standard', 'config_control_design', 1994, #168 ) ;
#101 = AXIS2_PLACEMENT_3D ( 'NONE', #31, #128, #45 ) ;
#102 = APPROVAL_ROLE ( '' ) ;
#103 = AXIS2_PLACEMENT_3D ( 'NONE', #127, #44, #144 ) ;
#104 = DIRECTION ( 'NONE',  ( 0.0000000000000000000, 0.0000000000000000000, -1.000000000000000000 ) ) ;
#105 = AXIS2_PLACEMENT_3D ( 'NONE', #164, #124, #41 ) ;
#106 = DATE_AND_TIME ( #148, #7 ) ;
#107 = VERTEX_POINT ( 'NONE', #59 ) ;
#108 = DESIGN_CONTEXT ( 'detailed design', #32, 'design' ) ;
#109 = CYLINDRICAL_SURFACE ( 'NONE', #119, 10.00000000000000000 ) ;
#110 = CARTESIAN_POINT ( 'NONE',  ( 3000.000000000000000, 0.0000000000000000000, -9.099999999999999600 ) ) ;
#111 = AXIS2_PLACEMENT_3D ( 'NONE', #81, #63, #118 ) ;
#112 = PERSON_AND_ORGANIZATION ( #26, #12 ) ;
#113 = CALENDAR_DATE ( 2016, 27, 4 ) ;
#114 = PERSON_AND_ORGANIZATION_ROLE ( 'design_owner' ) ;
#115 = VERTEX_POINT ( 'NONE', #2 ) ;
#116 = CC_DESIGN_PERSON_AND_ORGANIZATION_ASSIGNMENT ( #20, #24, ( #1 ) ) ;
#117 = FACE_OUTER_BOUND ( 'NONE', #129, .T. ) ;
#118 = DIRECTION ( 'NONE',  ( 0.0000000000000000000, 0.0000000000000000000, -1.000000000000000000 ) ) ;
#119 = AXIS2_PLACEMENT_3D ( 'NONE', #55, #155, #3 ) ;
#120 = PERSON_AND_ORGANIZATION_ROLE ( 'design_supplier' ) ;
#121 = CC_DESIGN_DATE_AND_TIME_ASSIGNMENT ( #166, #50, ( #16 ) ) ;
#122 = ORIENTED_EDGE ( 'NONE', *, *, #146, .T. ) ;
#123 = PERSON_AND_ORGANIZATION_ROLE ( 'creator' ) ;
#124 = DIRECTION ( 'NONE',  ( 1.000000000000000000, 0.0000000000000000000, 0.0000000000000000000 ) ) ;
#125 = DIRECTION ( 'NONE',  ( 1.000000000000000000, 0.0000000000000000000, 0.0000000000000000000 ) ) ;
#126 = PERSON_AND_ORGANIZATION ( #26, #12 ) ;
#127 = CARTESIAN_POINT ( 'NONE',  ( 0.0000000000000000000, 0.0000000000000000000, 0.0000000000000000000 ) ) ;
#128 = DIRECTION ( 'NONE',  ( 1.000000000000000000, 0.0000000000000000000, 0.0000000000000000000 ) ) ;
#129 = EDGE_LOOP ( 'NONE', ( #53 ) ) ;
#130 = APPROVAL ( #150, 'UNSPECIFIED' ) ;
#131 = APPLICATION_PROTOCOL_DEFINITION ( 'international standard', 'config_control_design', 1994, #32 ) ;
#132 = ADVANCED_BREP_SHAPE_REPRESENTATION ( 'CTR10-020-K41-093I T¨ºñð óûðôúð  öõ¸ªúð  ¦T- d20 L¦¦ ¸õ¨ð  (93ü),3ü', ( #142, #66 ), #76 ) ;
#133 = CALENDAR_DATE ( 2016, 27, 4 ) ;
#134 = PERSON_AND_ORGANIZATION ( #26, #12 ) ;
#135 = EDGE_LOOP ( 'NONE', ( #51 ) ) ;
#136 = EDGE_LOOP ( 'NONE', ( #159 ) ) ;
#137 = CIRCLE ( 'NONE', #83, 9.099999999999999600 ) ;
#138 = PERSON_AND_ORGANIZATION_ROLE ( 'classification_officer' ) ;
#139 = EDGE_CURVE ( 'NONE', #115, #115, #64, .T. ) ;
#140 = ADVANCED_FACE ( 'NONE', ( #167, #93 ), #73, .F. ) ;
#141 = DATE_AND_TIME ( #169, #22 ) ;
#142 = MANIFOLD_SOLID_BREP ( 'Áîáûøêà-Âûòÿíóòü1', #69 ) ;
#143 = EDGE_CURVE ( 'NONE', #10, #10, #61, .T. ) ;
#144 = DIRECTION ( 'NONE',  ( 0.0000000000000000000, 0.0000000000000000000, -1.000000000000000000 ) ) ;
#145 = EDGE_CURVE ( 'NONE', #149, #149, #43, .T. ) ;
#146 = EDGE_CURVE ( 'NONE', #107, #107, #137, .T. ) ;
#147 = CC_DESIGN_APPROVAL ( #130, ( #16 ) ) ;
#148 = CALENDAR_DATE ( 2016, 27, 4 ) ;
#149 = VERTEX_POINT ( 'NONE', #28 ) ;
#150 = APPROVAL_STATUS ( 'not_yet_approved' ) ;
#151 = FACE_OUTER_BOUND ( 'NONE', #136, .T. ) ;
#152 = PERSON_AND_ORGANIZATION ( #26, #12 ) ;
#153 =( NAMED_UNIT ( * ) PLANE_ANGLE_UNIT ( ) SI_UNIT ( $, .RADIAN. ) );
#154 = LOCAL_TIME ( 11, 15, 48.00000000000000000, #13 ) ;
#155 = DIRECTION ( 'NONE',  ( -1.000000000000000000, -0.0000000000000000000, -0.0000000000000000000 ) ) ;
#156 = EDGE_LOOP ( 'NONE', ( #34 ) ) ;
#157 = CARTESIAN_POINT ( 'NONE',  ( 0.0000000000000000000, 0.0000000000000000000, 0.0000000000000000000 ) ) ;
#158 = CC_DESIGN_SECURITY_CLASSIFICATION ( #16, ( #1 ) ) ;
#159 = ORIENTED_EDGE ( 'NONE', *, *, #145, .F. ) ;
#160 = APPROVAL ( #14, 'UNSPECIFIED' ) ;
#161 = PERSON_AND_ORGANIZATION ( #26, #12 ) ;
#162 = PRODUCT_RELATED_PRODUCT_CATEGORY ( 'detail', '', ( #36 ) ) ;
#163 = EDGE_LOOP ( 'NONE', ( #6 ) ) ;
#164 = CARTESIAN_POINT ( 'NONE',  ( 3000.000000000000000, 0.0000000000000000000, 0.0000000000000000000 ) ) ;
#165 = LOCAL_TIME ( 11, 15, 48.00000000000000000, #25 ) ;
#166 = DATE_AND_TIME ( #27, #62 ) ;
#167 = FACE_OUTER_BOUND ( 'NONE', #156, .T. ) ;
#168 = APPLICATION_CONTEXT ( 'configuration controlled 3d designs of mechanical parts and assemblies' ) ;
#169 = CALENDAR_DATE ( 2016, 27, 4 ) ;
ENDSEC;
END-ISO-10303-21;
