ISO-10303-21;
HEADER;
FILE_DESCRIPTION (( 'STEP AP203' ),
    '1' );
FILE_NAME ('Ñîåäèíèòåëüíàÿ íàêëàäêà CGB_37350.STEP',
    '2012-11-09T08:54:42',
    ( 'Àñååâ' ),
    ( '' ),
    'SwSTEP 2.0',
    'SolidWorks 2012',
    '' );
FILE_SCHEMA (( 'CONFIG_CONTROL_DESIGN' ));
ENDSEC;

DATA;
#1 = DESIGN_CONTEXT ( 'detailed design', #218, 'design' ) ;
#2 = PRODUCT_DEFINITION_SHAPE ( 'NONE', 'NONE',  #4 ) ;
#3 = APPROVAL ( #216, 'UNSPECIFIED' ) ;
#4 = PRODUCT_DEFINITION ( 'UNKNOWN', '', #44, #1 ) ;
#5 = CC_DESIGN_PERSON_AND_ORGANIZATION_ASSIGNMENT ( #190, #214, ( #4 ) ) ;
#6 = AXIS2_PLACEMENT_3D ( 'NONE', #229, #228, #221 ) ;
#7 = EDGE_CURVE ( 'NONE', #180, #180, #70, .T. ) ;
#8 = AXIS2_PLACEMENT_3D ( 'NONE', #247, #239, #243 ) ;
#9 = AXIS2_PLACEMENT_3D ( 'NONE', #253, #242, #237 ) ;
#10 =( GEOMETRIC_REPRESENTATION_CONTEXT ( 3 ) GLOBAL_UNCERTAINTY_ASSIGNED_CONTEXT ( ( #149 ) ) GLOBAL_UNIT_ASSIGNED_CONTEXT ( ( #227, #226, #225 ) ) REPRESENTATION_CONTEXT ( 'NONE', 'WORKASPACE' ) );
#11 = AXIS2_PLACEMENT_3D ( 'NONE', #254, #256, #250 ) ;
#12 = AXIS2_PLACEMENT_3D ( 'NONE', #251, #249, #246 ) ;
#13 = AXIS2_PLACEMENT_3D ( 'NONE', #258, #264, #255 ) ;
#14 = AXIS2_PLACEMENT_3D ( 'NONE', #263, #260, #259 ) ;
#15 = AXIS2_PLACEMENT_3D ( 'NONE', #277, #276, #290 ) ;
#16 = AXIS2_PLACEMENT_3D ( 'NONE', #280, #279, #278 ) ;
#17 = AXIS2_PLACEMENT_3D ( 'NONE', #289, #288, #287 ) ;
#18 = AXIS2_PLACEMENT_3D ( 'NONE', #286, #202, #302 ) ;
#19 = EDGE_CURVE ( 'NONE', #79, #62, #121, .T. ) ;
#20 = EDGE_CURVE ( 'NONE', #63, #79, #116, .T. ) ;
#21 = EDGE_CURVE ( 'NONE', #80, #97, #133, .T. ) ;
#22 = EDGE_CURVE ( 'NONE', #62, #115, #52, .T. ) ;
#23 = EDGE_CURVE ( 'NONE', #124, #142, #140, .T. ) ;
#24 = EDGE_CURVE ( 'NONE', #63, #124, #86, .T. ) ;
#25 = EDGE_CURVE ( 'NONE', #178, #178, #136, .T. ) ;
#26 = EDGE_CURVE ( 'NONE', #97, #124, #102, .T. ) ;
#27 = EDGE_CURVE ( 'NONE', #115, #97, #117, .T. ) ;
#28 = EDGE_CURVE ( 'NONE', #115, #63, #143, .T. ) ;
#29 = EDGE_CURVE ( 'NONE', #174, #174, #67, .T. ) ;
#30 = EDGE_CURVE ( 'NONE', #173, #173, #141, .T. ) ;
#31 = EDGE_CURVE ( 'NONE', #62, #80, #101, .T. ) ;
#32 = EDGE_CURVE ( 'NONE', #142, #80, #84, .T. ) ;
#33 = AXIS2_PLACEMENT_3D ( 'NONE', #238, #240, #244 ) ;
#34 = AXIS2_PLACEMENT_3D ( 'NONE', #235, #234, #236 ) ;
#35 = CC_DESIGN_APPROVAL ( #3, ( #4 ) ) ;
#36 = SECURITY_CLASSIFICATION ( '', '', #207 ) ;
#37 = CC_DESIGN_PERSON_AND_ORGANIZATION_ASSIGNMENT ( #169, #206, ( #36 ) ) ;
#38 = CC_DESIGN_PERSON_AND_ORGANIZATION_ASSIGNMENT ( #198, #219, ( #305 ) ) ;
#39 = EDGE_CURVE ( 'NONE', #79, #142, #126, .T. ) ;
#40 = CC_DESIGN_PERSON_AND_ORGANIZATION_ASSIGNMENT ( #170, #208, ( #44 ) ) ;
#41 = CC_DESIGN_PERSON_AND_ORGANIZATION_ASSIGNMENT ( #171, #210, ( #44 ) ) ;
#42 = CC_DESIGN_APPROVAL ( #43, ( #44 ) ) ;
#43 = APPROVAL ( #213, 'UNSPECIFIED' ) ;
#44 = PRODUCT_DEFINITION_FORMATION_WITH_SPECIFIED_SOURCE ( 'ANY', '', #305, .NOT_KNOWN. ) ;
#45 = CC_DESIGN_DATE_AND_TIME_ASSIGNMENT ( #186, #224, ( #4 ) ) ;
#46 = PRODUCT_RELATED_PRODUCT_CATEGORY ( 'detail', '', ( #305 ) ) ;
#47 = APPROVAL ( #204, 'UNSPECIFIED' ) ;
#48 = CC_DESIGN_APPROVAL ( #47, ( #36 ) ) ;
#49 = CC_DESIGN_SECURITY_CLASSIFICATION ( #36, ( #44 ) ) ;
#50 = CC_DESIGN_DATE_AND_TIME_ASSIGNMENT ( #165, #205, ( #36 ) ) ;
#51 = VECTOR ( 'NONE', #297, 1000.000000000000000 ) ;
#52 = LINE ( 'NONE', #201, #103 ) ;
#53 = EDGE_LOOP ( 'NONE', ( #92 ) ) ;
#54 = EDGE_LOOP ( 'NONE', ( #59, #94, #111, #77 ) ) ;
#55 = EDGE_LOOP ( 'NONE', ( #93, #110, #76, #144 ) ) ;
#56 = ORIENTED_EDGE ( 'NONE', *, *, #30, .T. ) ;
#57 = ORIENTED_EDGE ( 'NONE', *, *, #24, .T. ) ;
#58 = ORIENTED_EDGE ( 'NONE', *, *, #39, .T. ) ;
#59 = ORIENTED_EDGE ( 'NONE', *, *, #19, .F. ) ;
#60 = ORIENTED_EDGE ( 'NONE', *, *, #21, .T. ) ;
#61 = ORIENTED_EDGE ( 'NONE', *, *, #7, .T. ) ;
#62 = VERTEX_POINT ( 'NONE', #270 ) ;
#63 = VERTEX_POINT ( 'NONE', #266 ) ;
#64 = FACE_OUTER_BOUND ( 'NONE', #120, .T. ) ;
#65 = FACE_BOUND ( 'NONE', #71, .T. ) ;
#66 = VECTOR ( 'NONE', #275, 1000.000000000000000 ) ;
#67 = CIRCLE ( 'NONE', #16, 2.500000000000000000 ) ;
#68 = VECTOR ( 'NONE', #292, 1000.000000000000000 ) ;
#69 = VECTOR ( 'NONE', #301, 1000.000000000000000 ) ;
#70 = CIRCLE ( 'NONE', #18, 2.500000000000002200 ) ;
#71 = EDGE_LOOP ( 'NONE', ( #56 ) ) ;
#72 = EDGE_LOOP ( 'NONE', ( #91 ) ) ;
#73 = ORIENTED_EDGE ( 'NONE', *, *, #19, .T. ) ;
#74 = ORIENTED_EDGE ( 'NONE', *, *, #27, .F. ) ;
#75 = ORIENTED_EDGE ( 'NONE', *, *, #24, .F. ) ;
#76 = ORIENTED_EDGE ( 'NONE', *, *, #22, .T. ) ;
#77 = ORIENTED_EDGE ( 'NONE', *, *, #22, .F. ) ;
#78 = ORIENTED_EDGE ( 'NONE', *, *, #30, .F. ) ;
#79 = VERTEX_POINT ( 'NONE', #267 ) ;
#80 = VERTEX_POINT ( 'NONE', #273 ) ;
#81 = FACE_OUTER_BOUND ( 'NONE', #145, .T. ) ;
#82 = FACE_OUTER_BOUND ( 'NONE', #54, .T. ) ;
#83 = VECTOR ( 'NONE', #268, 1000.000000000000000 ) ;
#84 = LINE ( 'NONE', #274, #138 ) ;
#85 = VECTOR ( 'NONE', #284, 1000.000000000000000 ) ;
#86 = LINE ( 'NONE', #295, #68 ) ;
#87 = VECTOR ( 'NONE', #299, 1000.000000000000000 ) ;
#88 = EDGE_LOOP ( 'NONE', ( #78 ) ) ;
#89 = EDGE_LOOP ( 'NONE', ( #90 ) ) ;
#90 = ORIENTED_EDGE ( 'NONE', *, *, #7, .F. ) ;
#91 = ORIENTED_EDGE ( 'NONE', *, *, #29, .F. ) ;
#92 = ORIENTED_EDGE ( 'NONE', *, *, #25, .T. ) ;
#93 = ORIENTED_EDGE ( 'NONE', *, *, #21, .F. ) ;
#94 = ORIENTED_EDGE ( 'NONE', *, *, #20, .F. ) ;
#95 = ORIENTED_EDGE ( 'NONE', *, *, #26, .T. ) ;
#96 = ORIENTED_EDGE ( 'NONE', *, *, #29, .T. ) ;
#97 = VERTEX_POINT ( 'NONE', #265 ) ;
#98 = FACE_OUTER_BOUND ( 'NONE', #55, .T. ) ;
#99 = FACE_OUTER_BOUND ( 'NONE', #146, .T. ) ;
#100 = FACE_OUTER_BOUND ( 'NONE', #105, .T. ) ;
#101 = LINE ( 'NONE', #291, #66 ) ;
#102 = LINE ( 'NONE', #298, #137 ) ;
#103 = VECTOR ( 'NONE', #300, 1000.000000000000000 ) ;
#104 = VECTOR ( 'NONE', #296, 1000.000000000000000 ) ;
#105 = EDGE_LOOP ( 'NONE', ( #109, #75, #139, #58 ) ) ;
#106 = EDGE_LOOP ( 'NONE', ( #112 ) ) ;
#107 = ORIENTED_EDGE ( 'NONE', *, *, #39, .F. ) ;
#108 = ORIENTED_EDGE ( 'NONE', *, *, #26, .F. ) ;
#109 = ORIENTED_EDGE ( 'NONE', *, *, #23, .F. ) ;
#110 = ORIENTED_EDGE ( 'NONE', *, *, #31, .F. ) ;
#111 = ORIENTED_EDGE ( 'NONE', *, *, #28, .F. ) ;
#112 = ORIENTED_EDGE ( 'NONE', *, *, #25, .F. ) ;
#113 = ORIENTED_EDGE ( 'NONE', *, *, #32, .T. ) ;
#114 = ORIENTED_EDGE ( 'NONE', *, *, #23, .T. ) ;
#115 = VERTEX_POINT ( 'NONE', #269 ) ;
#116 = LINE ( 'NONE', #293, #104 ) ;
#117 = LINE ( 'NONE', #294, #85 ) ;
#118 = FACE_BOUND ( 'NONE', #89, .T. ) ;
#119 = VECTOR ( 'NONE', #282, 1000.000000000000000 ) ;
#120 = EDGE_LOOP ( 'NONE', ( #135, #107, #73, #134 ) ) ;
#121 = LINE ( 'NONE', #209, #87 ) ;
#122 = FACE_OUTER_BOUND ( 'NONE', #130, .T. ) ;
#123 = EDGE_LOOP ( 'NONE', ( #113, #60, #95, #114 ) ) ;
#124 = VERTEX_POINT ( 'NONE', #281 ) ;
#125 = FACE_OUTER_BOUND ( 'NONE', #88, .T. ) ;
#126 = LINE ( 'NONE', #271, #83 ) ;
#127 = CLOSED_SHELL ( 'NONE', ( #152, #151, #150, #155, #154, #153, #157, #156 ) ) ;
#128 = FACE_OUTER_BOUND ( 'NONE', #123, .T. ) ;
#129 = FACE_BOUND ( 'NONE', #72, .T. ) ;
#130 = EDGE_LOOP ( 'NONE', ( #96 ) ) ;
#131 = ORIENTED_EDGE ( 'NONE', *, *, #28, .T. ) ;
#132 = FACE_BOUND ( 'NONE', #53, .T. ) ;
#133 = LINE ( 'NONE', #211, #69 ) ;
#134 = ORIENTED_EDGE ( 'NONE', *, *, #31, .T. ) ;
#135 = ORIENTED_EDGE ( 'NONE', *, *, #32, .F. ) ;
#136 = CIRCLE ( 'NONE', #17, 2.500000000000000000 ) ;
#137 = VECTOR ( 'NONE', #285, 1000.000000000000000 ) ;
#138 = VECTOR ( 'NONE', #272, 1000.000000000000000 ) ;
#139 = ORIENTED_EDGE ( 'NONE', *, *, #20, .T. ) ;
#140 = LINE ( 'NONE', #303, #51 ) ;
#141 = CIRCLE ( 'NONE', #15, 2.499999999999998700 ) ;
#142 = VERTEX_POINT ( 'NONE', #261 ) ;
#143 = LINE ( 'NONE', #283, #119 ) ;
#144 = ORIENTED_EDGE ( 'NONE', *, *, #27, .T. ) ;
#145 = EDGE_LOOP ( 'NONE', ( #61 ) ) ;
#146 = EDGE_LOOP ( 'NONE', ( #108, #74, #131, #57 ) ) ;
#147 = ADVANCED_BREP_SHAPE_REPRESENTATION ( 'Tþõôøýøªõû¹ýð  ýðúûðôúð CGB_37350', ( #148, #6 ), #10 ) ;
#148 = MANIFOLD_SOLID_BREP ( 'Çåðêàëüíîå îòðàæåíèå1', #127 ) ;
#149 = UNCERTAINTY_MEASURE_WITH_UNIT (LENGTH_MEASURE( 1.000000000000000100E-005 ), #227, 'distance_accuracy_value', 'NONE');
#150 = ADVANCED_FACE ( 'NONE', ( #100 ), #262, .T. ) ;
#151 = ADVANCED_FACE ( 'NONE', ( #129, #99, #132 ), #257, .T. ) ;
#152 = ADVANCED_FACE ( 'NONE', ( #118, #64, #65 ), #252, .T. ) ;
#153 = ADVANCED_FACE ( 'NONE', ( #128 ), #248, .T. ) ;
#154 = ADVANCED_FACE ( 'NONE', ( #82 ), #245, .F. ) ;
#155 = ADVANCED_FACE ( 'NONE', ( #98 ), #241, .T. ) ;
#156 = ADVANCED_FACE ( 'NONE', ( #81, #122 ), #175, .F. ) ;
#157 = ADVANCED_FACE ( 'NONE', ( #125, #177 ), #176, .F. ) ;
#158 = APPROVAL_DATE_TIME ( #159, #47 ) ;
#159 = DATE_AND_TIME ( #160, #161 ) ;
#160 = CALENDAR_DATE ( 2012, 9, 11 ) ;
#161 = LOCAL_TIME ( 12, 54, 42.00000000000000000, #162 ) ;
#162 = COORDINATED_UNIVERSAL_TIME_OFFSET ( 4, 0, .AHEAD. ) ;
#163 = APPROVAL_PERSON_ORGANIZATION ( #164, #47, #203 ) ;
#164 = PERSON_AND_ORGANIZATION ( #304, #199 ) ;
#165 = DATE_AND_TIME ( #166, #167 ) ;
#166 = CALENDAR_DATE ( 2012, 9, 11 ) ;
#167 = LOCAL_TIME ( 12, 54, 42.00000000000000000, #168 ) ;
#168 = COORDINATED_UNIVERSAL_TIME_OFFSET ( 4, 0, .AHEAD. ) ;
#169 = PERSON_AND_ORGANIZATION ( #304, #199 ) ;
#170 = PERSON_AND_ORGANIZATION ( #304, #199 ) ;
#171 = PERSON_AND_ORGANIZATION ( #304, #199 ) ;
#172 = APPROVAL_DATE_TIME ( #179, #43 ) ;
#173 = VERTEX_POINT ( 'NONE', #233 ) ;
#174 = VERTEX_POINT ( 'NONE', #230 ) ;
#175 = CYLINDRICAL_SURFACE ( 'NONE', #33, 2.500000000000000000 ) ;
#176 = CYLINDRICAL_SURFACE ( 'NONE', #34, 2.500000000000000000 ) ;
#177 = FACE_OUTER_BOUND ( 'NONE', #106, .T. ) ;
#178 = VERTEX_POINT ( 'NONE', #232 ) ;
#179 = DATE_AND_TIME ( #181, #182 ) ;
#180 = VERTEX_POINT ( 'NONE', #231 ) ;
#181 = CALENDAR_DATE ( 2012, 9, 11 ) ;
#182 = LOCAL_TIME ( 12, 54, 42.00000000000000000, #183 ) ;
#183 = COORDINATED_UNIVERSAL_TIME_OFFSET ( 4, 0, .AHEAD. ) ;
#184 = APPROVAL_PERSON_ORGANIZATION ( #185, #43, #212 ) ;
#185 = PERSON_AND_ORGANIZATION ( #304, #199 ) ;
#186 = DATE_AND_TIME ( #187, #188 ) ;
#187 = CALENDAR_DATE ( 2012, 9, 11 ) ;
#188 = LOCAL_TIME ( 12, 54, 42.00000000000000000, #189 ) ;
#189 = COORDINATED_UNIVERSAL_TIME_OFFSET ( 4, 0, .AHEAD. ) ;
#190 = PERSON_AND_ORGANIZATION ( #304, #199 ) ;
#191 = APPROVAL_DATE_TIME ( #192, #3 ) ;
#192 = DATE_AND_TIME ( #193, #194 ) ;
#193 = CALENDAR_DATE ( 2012, 9, 11 ) ;
#194 = LOCAL_TIME ( 12, 54, 42.00000000000000000, #195 ) ;
#195 = COORDINATED_UNIVERSAL_TIME_OFFSET ( 4, 0, .AHEAD. ) ;
#196 = APPROVAL_PERSON_ORGANIZATION ( #197, #3, #215 ) ;
#197 = PERSON_AND_ORGANIZATION ( #304, #199 ) ;
#198 = PERSON_AND_ORGANIZATION ( #304, #199 ) ;
#199 = ORGANIZATION ( 'UNSPECIFIED', 'UNSPECIFIED', '' ) ;
#200 = SHAPE_DEFINITION_REPRESENTATION ( #2, #147 ) ;
#201 = CARTESIAN_POINT ( 'NONE',  ( 21.99999999999999300, 0.0000000000000000000, -65.00000000000000000 ) ) ;
#202 = DIRECTION ( 'NONE',  ( 0.0000000000000000000, -1.000000000000000000, 0.0000000000000000000 ) ) ;
#203 = APPROVAL_ROLE ( '' ) ;
#204 = APPROVAL_STATUS ( 'not_yet_approved' ) ;
#205 = DATE_TIME_ROLE ( 'classification_date' ) ;
#206 = PERSON_AND_ORGANIZATION_ROLE ( 'classification_officer' ) ;
#207 = SECURITY_CLASSIFICATION_LEVEL ( 'unclassified' ) ;
#208 = PERSON_AND_ORGANIZATION_ROLE ( 'design_supplier' ) ;
#209 = CARTESIAN_POINT ( 'NONE',  ( -21.99999999999999300, 0.0000000000000000000, -65.00000000000000000 ) ) ;
#210 = PERSON_AND_ORGANIZATION_ROLE ( 'creator' ) ;
#211 = CARTESIAN_POINT ( 'NONE',  ( 21.99999999999999300, 0.0000000000000000000, 0.0000000000000000000 ) ) ;
#212 = APPROVAL_ROLE ( '' ) ;
#213 = APPROVAL_STATUS ( 'not_yet_approved' ) ;
#214 = PERSON_AND_ORGANIZATION_ROLE ( 'creator' ) ;
#215 = APPROVAL_ROLE ( '' ) ;
#216 = APPROVAL_STATUS ( 'not_yet_approved' ) ;
#217 = APPLICATION_PROTOCOL_DEFINITION ( 'international standard', 'config_control_design', 1994, #218 ) ;
#218 = APPLICATION_CONTEXT ( 'configuration controlled 3d designs of mechanical parts and assemblies' ) ;
#219 = PERSON_AND_ORGANIZATION_ROLE ( 'design_owner' ) ;
#220 = MECHANICAL_CONTEXT ( 'NONE', #222, 'mechanical' ) ;
#221 = DIRECTION ( 'NONE',  ( 1.000000000000000000, 0.0000000000000000000, 0.0000000000000000000 ) ) ;
#222 = APPLICATION_CONTEXT ( 'configuration controlled 3d designs of mechanical parts and assemblies' ) ;
#223 = APPLICATION_PROTOCOL_DEFINITION ( 'international standard', 'config_control_design', 1994, #222 ) ;
#224 = DATE_TIME_ROLE ( 'creation_date' ) ;
#225 =( NAMED_UNIT ( * ) SI_UNIT ( $, .STERADIAN. ) SOLID_ANGLE_UNIT ( ) );
#226 =( NAMED_UNIT ( * ) PLANE_ANGLE_UNIT ( ) SI_UNIT ( $, .RADIAN. ) );
#227 =( LENGTH_UNIT ( ) NAMED_UNIT ( * ) SI_UNIT ( .MILLI., .METRE. ) );
#228 = DIRECTION ( 'NONE',  ( 0.0000000000000000000, 0.0000000000000000000, 1.000000000000000000 ) ) ;
#229 = CARTESIAN_POINT ( 'NONE',  ( 0.0000000000000000000, 0.0000000000000000000, 0.0000000000000000000 ) ) ;
#230 = CARTESIAN_POINT ( 'NONE',  ( 2.499999999999960900, 0.8000000000000008200, -47.50000000000000000 ) ) ;
#231 = CARTESIAN_POINT ( 'NONE',  ( -3.882891630284329400E-014, 0.0000000000000000000, -50.00000000000000000 ) ) ;
#232 = CARTESIAN_POINT ( 'NONE',  ( 2.499999999999960900, 0.8000000000000008200, -17.50000000000000000 ) ) ;
#233 = CARTESIAN_POINT ( 'NONE',  ( -3.882891630284329400E-014, 0.0000000000000000000, -20.00000000000000000 ) ) ;
#234 = DIRECTION ( 'NONE',  ( 5.162867488026211000E-018, 1.000000000000000000, 0.0000000000000000000 ) ) ;
#235 = CARTESIAN_POINT ( 'NONE',  ( -3.887641468373313200E-014, -9.199999999999999300, -17.50000000000000000 ) ) ;
#236 = DIRECTION ( 'NONE',  ( -1.000000000000000000, 0.0000000000000000000, 0.0000000000000000000 ) ) ;
#237 = DIRECTION ( 'NONE',  ( 1.000000000000000000, 0.0000000000000000000, -0.0000000000000000000 ) ) ;
#238 = CARTESIAN_POINT ( 'NONE',  ( -3.887641468373313200E-014, -9.199999999999999300, -47.50000000000000000 ) ) ;
#239 = DIRECTION ( 'NONE',  ( 1.000000000000000000, 0.0000000000000000000, 0.0000000000000000000 ) ) ;
#240 = DIRECTION ( 'NONE',  ( 5.162867488026211000E-018, 1.000000000000000000, 0.0000000000000000000 ) ) ;
#241 = PLANE ( 'NONE',  #8 ) ;
#242 = DIRECTION ( 'NONE',  ( 0.0000000000000000000, 0.0000000000000000000, 1.000000000000000000 ) ) ;
#243 = DIRECTION ( 'NONE',  ( 0.0000000000000000000, 0.0000000000000000000, -1.000000000000000000 ) ) ;
#244 = DIRECTION ( 'NONE',  ( -1.000000000000000000, 0.0000000000000000000, 0.0000000000000000000 ) ) ;
#245 = PLANE ( 'NONE',  #9 ) ;
#246 = DIRECTION ( 'NONE',  ( 1.000000000000000000, 0.0000000000000000000, -0.0000000000000000000 ) ) ;
#247 = CARTESIAN_POINT ( 'NONE',  ( 21.99999999999999300, 0.0000000000000000000, -65.00000000000000000 ) ) ;
#248 = PLANE ( 'NONE',  #12 ) ;
#249 = DIRECTION ( 'NONE',  ( 0.0000000000000000000, 0.0000000000000000000, 1.000000000000000000 ) ) ;
#250 = DIRECTION ( 'NONE',  ( 0.0000000000000000000, -0.0000000000000000000, -1.000000000000000000 ) ) ;
#251 = CARTESIAN_POINT ( 'NONE',  ( 21.99999999999999300, 0.0000000000000000000, 0.0000000000000000000 ) ) ;
#252 = PLANE ( 'NONE',  #11 ) ;
#253 = CARTESIAN_POINT ( 'NONE',  ( 21.99999999999999300, 0.0000000000000000000, -65.00000000000000000 ) ) ;
#254 = CARTESIAN_POINT ( 'NONE',  ( -21.99999999999999300, 0.0000000000000000000, -65.00000000000000000 ) ) ;
#255 = DIRECTION ( 'NONE',  ( -1.000000000000000000, 3.449734185181151800E-017, 0.0000000000000000000 ) ) ;
#256 = DIRECTION ( 'NONE',  ( 0.0000000000000000000, -1.000000000000000000, 0.0000000000000000000 ) ) ;
#257 = PLANE ( 'NONE',  #13 ) ;
#258 = CARTESIAN_POINT ( 'NONE',  ( -21.99999999999999300, 0.8000000000000016000, -65.00000000000000000 ) ) ;
#259 = DIRECTION ( 'NONE',  ( 0.0000000000000000000, 0.0000000000000000000, 1.000000000000000000 ) ) ;
#260 = DIRECTION ( 'NONE',  ( -1.000000000000000000, 0.0000000000000000000, 0.0000000000000000000 ) ) ;
#261 = CARTESIAN_POINT ( 'NONE',  ( -21.99999999999999300, 0.0000000000000000000, 0.0000000000000000000 ) ) ;
#262 = PLANE ( 'NONE',  #14 ) ;
#263 = CARTESIAN_POINT ( 'NONE',  ( -21.99999999999999300, 0.0000000000000000000, -65.00000000000000000 ) ) ;
#264 = DIRECTION ( 'NONE',  ( 3.449734185181151800E-017, 1.000000000000000000, -0.0000000000000000000 ) ) ;
#265 = CARTESIAN_POINT ( 'NONE',  ( 21.99999999999999300, 0.8000000000000000400, 0.0000000000000000000 ) ) ;
#266 = CARTESIAN_POINT ( 'NONE',  ( -21.99999999999999300, 0.8000000000000016000, -65.00000000000000000 ) ) ;
#267 = CARTESIAN_POINT ( 'NONE',  ( -21.99999999999999300, 0.0000000000000000000, -65.00000000000000000 ) ) ;
#268 = DIRECTION ( 'NONE',  ( 0.0000000000000000000, 0.0000000000000000000, 1.000000000000000000 ) ) ;
#269 = CARTESIAN_POINT ( 'NONE',  ( 21.99999999999999300, 0.8000000000000000400, -65.00000000000000000 ) ) ;
#270 = CARTESIAN_POINT ( 'NONE',  ( 21.99999999999999300, 0.0000000000000000000, -65.00000000000000000 ) ) ;
#271 = CARTESIAN_POINT ( 'NONE',  ( -21.99999999999999300, 0.0000000000000000000, -65.00000000000000000 ) ) ;
#272 = DIRECTION ( 'NONE',  ( 1.000000000000000000, 0.0000000000000000000, 0.0000000000000000000 ) ) ;
#273 = CARTESIAN_POINT ( 'NONE',  ( 21.99999999999999300, 0.0000000000000000000, 0.0000000000000000000 ) ) ;
#274 = CARTESIAN_POINT ( 'NONE',  ( -21.99999999999999300, 0.0000000000000000000, 0.0000000000000000000 ) ) ;
#275 = DIRECTION ( 'NONE',  ( 0.0000000000000000000, 0.0000000000000000000, 1.000000000000000000 ) ) ;
#276 = DIRECTION ( 'NONE',  ( -0.0000000000000000000, 1.000000000000000000, -0.0000000000000000000 ) ) ;
#277 = CARTESIAN_POINT ( 'NONE',  ( -3.882891630284329400E-014, 0.0000000000000000000, -17.50000000000000000 ) ) ;
#278 = DIRECTION ( 'NONE',  ( 1.000000000000000000, 0.0000000000000000000, 0.0000000000000000000 ) ) ;
#279 = DIRECTION ( 'NONE',  ( 5.162867488026211000E-018, 1.000000000000000000, 0.0000000000000000000 ) ) ;
#280 = CARTESIAN_POINT ( 'NONE',  ( -3.882478600885287000E-014, 0.8000000000000008200, -47.50000000000000000 ) ) ;
#281 = CARTESIAN_POINT ( 'NONE',  ( -21.99999999999999300, 0.8000000000000016000, 0.0000000000000000000 ) ) ;
#282 = DIRECTION ( 'NONE',  ( -1.000000000000000000, 3.449734185181151800E-017, -0.0000000000000000000 ) ) ;
#283 = CARTESIAN_POINT ( 'NONE',  ( -21.99999999999999300, 0.8000000000000016000, -65.00000000000000000 ) ) ;
#284 = DIRECTION ( 'NONE',  ( 0.0000000000000000000, 0.0000000000000000000, 1.000000000000000000 ) ) ;
#285 = DIRECTION ( 'NONE',  ( -1.000000000000000000, 3.449734185181151800E-017, -0.0000000000000000000 ) ) ;
#286 = CARTESIAN_POINT ( 'NONE',  ( -3.882891630284329400E-014, 0.0000000000000000000, -47.50000000000000000 ) ) ;
#287 = DIRECTION ( 'NONE',  ( 1.000000000000000000, 0.0000000000000000000, 0.0000000000000000000 ) ) ;
#288 = DIRECTION ( 'NONE',  ( -5.162867488026211000E-018, -1.000000000000000000, 0.0000000000000000000 ) ) ;
#289 = CARTESIAN_POINT ( 'NONE',  ( -3.882478600885287000E-014, 0.8000000000000008200, -17.50000000000000000 ) ) ;
#290 = DIRECTION ( 'NONE',  ( 0.0000000000000000000, 0.0000000000000000000, -1.000000000000000000 ) ) ;
#291 = CARTESIAN_POINT ( 'NONE',  ( 21.99999999999999300, 0.0000000000000000000, -65.00000000000000000 ) ) ;
#292 = DIRECTION ( 'NONE',  ( 0.0000000000000000000, 0.0000000000000000000, 1.000000000000000000 ) ) ;
#293 = CARTESIAN_POINT ( 'NONE',  ( -21.99999999999999300, 0.0000000000000000000, -65.00000000000000000 ) ) ;
#294 = CARTESIAN_POINT ( 'NONE',  ( 21.99999999999999300, 0.8000000000000000400, -65.00000000000000000 ) ) ;
#295 = CARTESIAN_POINT ( 'NONE',  ( -21.99999999999999300, 0.8000000000000016000, -65.00000000000000000 ) ) ;
#296 = DIRECTION ( 'NONE',  ( -0.0000000000000000000, -1.000000000000000000, -0.0000000000000000000 ) ) ;
#297 = DIRECTION ( 'NONE',  ( -0.0000000000000000000, -1.000000000000000000, -0.0000000000000000000 ) ) ;
#298 = CARTESIAN_POINT ( 'NONE',  ( -21.99999999999999300, 0.8000000000000016000, 0.0000000000000000000 ) ) ;
#299 = DIRECTION ( 'NONE',  ( 1.000000000000000000, 0.0000000000000000000, 0.0000000000000000000 ) ) ;
#300 = DIRECTION ( 'NONE',  ( 0.0000000000000000000, 1.000000000000000000, 0.0000000000000000000 ) ) ;
#301 = DIRECTION ( 'NONE',  ( 0.0000000000000000000, 1.000000000000000000, 0.0000000000000000000 ) ) ;
#302 = DIRECTION ( 'NONE',  ( 0.0000000000000000000, 0.0000000000000000000, -1.000000000000000000 ) ) ;
#303 = CARTESIAN_POINT ( 'NONE',  ( -21.99999999999999300, 0.0000000000000000000, 0.0000000000000000000 ) ) ;
#304 = PERSON ( 'UNSPECIFIED', 'UNSPECIFIED', 'UNSPECIFIED', ('UNSPECIFIED'), ('UNSPECIFIED'), ('UNSPECIFIED') ) ;
#305 = PRODUCT ( 'Ñîåäèíèòåëüíàÿ íàêëàäêà CGB_37350', 'Ñîåäèíèòåëüíàÿ íàêëàäêà CGB_37350', '', ( #220 ) ) ;
ENDSEC;
END-ISO-10303-21;
